  0
SECTION
  2
HEADER
  9
$ACADVER
  1
AC1009
  9
$INSBASE
 10
0.0
 20
0.0
 30
0.0
  9
$EXTMIN
 10
-382.4889968294774
 20
-277.81676056075048
 30
-0.0030518556252446
  9
$EXTMAX
 10
984.3200798778779
 20
579.34571113361187
 30
50.003052088470113
  9
$LIMMIN
 10
-2970.0
 20
-2100.0
  9
$LIMMAX
 10
2970.0
 20
2100.0
  9
$ORTHOMODE
 70
     1
  9
$REGENMODE
 70
     1
  9
$FILLMODE
 70
     1
  9
$QTEXTMODE
 70
     0
  9
$MIRRTEXT
 70
     0
  9
$DRAGMODE
 70
     2
  9
$LTSCALE
 40
20.0
  9
$OSMODE
 70
    37
  9
$ATTMODE
 70
     1
  9
$TEXTSIZE
 40
64.0
  9
$TRACEWID
 40
0.05
  9
$TEXTSTYLE
  7
STANDARD
  9
$CLAYER
  8
DETAIL
  9
$CELTYPE
  6
CONTINUOUS
  9
$CECOLOR
 62
     7
  9
$DIMSCALE
 40
1.0
  9
$DIMASZ
 40
12.0
  9
$DIMEXO
 40
20.0
  9
$DIMDLI
 40
200.0
  9
$DIMRND
 40
0.0
  9
$DIMDLE
 40
0.0
  9
$DIMEXE
 40
20.0
  9
$DIMTP
 40
0.0
  9
$DIMTM
 40
0.0
  9
$DIMTXT
 40
64.0
  9
$DIMCEN
 40
0.09
  9
$DIMTSZ
 40
0.0
  9
$DIMTOL
 70
     0
  9
$DIMLIM
 70
     0
  9
$DIMTIH
 70
     0
  9
$DIMTOH
 70
     0
  9
$DIMSE1
 70
     0
  9
$DIMSE2
 70
     0
  9
$DIMTAD
 70
     1
  9
$DIMZIN
 70
     8
  9
$DIMBLK
  1
DOT1
  9
$DIMASO
 70
     1
  9
$DIMSHO
 70
     0
  9
$DIMPOST
  1

  9
$DIMAPOST
  1

  9
$DIMALT
 70
     0
  9
$DIMALTD
 70
     2
  9
$DIMALTF
 40
25.399999999999999
  9
$DIMLFAC
 40
1.0
  9
$DIMTOFL
 70
     1
  9
$DIMTVP
 40
0.0
  9
$DIMTIX
 70
     1
  9
$DIMSOXD
 70
     0
  9
$DIMSAH
 70
     1
  9
$DIMBLK1
  1
ORIGIN
  9
$DIMBLK2
  1
ORIGIN
  9
$DIMSTYLE
  2
STANDARD
  9
$DIMCLRD
 70
     7
  9
$DIMCLRE
 70
     7
  9
$DIMCLRT
 70
     7
  9
$DIMTFAC
 40
1.0
  9
$DIMGAP
 40
25.0
  9
$LUNITS
 70
     2
  9
$LUPREC
 70
     4
  9
$SKETCHINC
 40
0.1
  9
$FILLETRAD
 40
3.0
  9
$AUNITS
 70
     1
  9
$AUPREC
 70
     3
  9
$MENU
  1
ACAD
  9
$ELEVATION
 40
0.0
  9
$PELEVATION
 40
0.0
  9
$THICKNESS
 40
50.0
  9
$LIMCHECK
 70
     0
  9
$BLIPMODE
 70
     0
  9
$CHAMFERA
 40
0.0
  9
$CHAMFERB
 40
0.0
  9
$SKPOLY
 70
     0
  9
$TDCREATE
 40
2453019.6230103709
  9
$TDUPDATE
 40
2454963.5690695839
  9
$TDINDWG
 40
1.6592777315
  9
$TDUSRTIMER
 40
1.6592775463
  9
$USRTIMER
 70
     1
  9
$ANGBASE
 50
0.0
  9
$ANGDIR
 70
     0
  9
$PDMODE
 70
     3
  9
$PDSIZE
 40
-2.0
  9
$PLINEWID
 40
0.0
  9
$COORDS
 70
     0
  9
$SPLFRAME
 70
     0
  9
$SPLINETYPE
 70
     6
  9
$SPLINESEGS
 70
     8
  9
$ATTDIA
 70
     0
  9
$ATTREQ
 70
     1
  9
$HANDLING
 70
     1
  9
$HANDSEED
  5
187
  9
$SURFTAB1
 70
     6
  9
$SURFTAB2
 70
     6
  9
$SURFTYPE
 70
     6
  9
$SURFU
 70
     6
  9
$SURFV
 70
     6
  9
$UCSNAME
  2

  9
$UCSORG
 10
0.0
 20
0.0
 30
0.0
  9
$UCSXDIR
 10
1.0
 20
0.0
 30
0.0
  9
$UCSYDIR
 10
0.0
 20
1.0
 30
0.0
  9
$PUCSNAME
  2

  9
$PUCSORG
 10
0.0
 20
0.0
 30
0.0
  9
$PUCSXDIR
 10
1.0
 20
0.0
 30
0.0
  9
$PUCSYDIR
 10
0.0
 20
1.0
 30
0.0
  9
$USERI1
 70
     0
  9
$USERI2
 70
     0
  9
$USERI3
 70
     0
  9
$USERI4
 70
     0
  9
$USERI5
 70
     0
  9
$USERR1
 40
20.0
  9
$USERR2
 40
0.0
  9
$USERR3
 40
0.0
  9
$USERR4
 40
0.0
  9
$USERR5
 40
0.0
  9
$WORLDVIEW
 70
     1
  9
$SHADEDGE
 70
     3
  9
$SHADEDIF
 70
    70
  9
$TILEMODE
 70
     1
  9
$MAXACTVP
 70
    48
  9
$PLIMCHECK
 70
     0
  9
$PEXTMIN
 10
-1.0000000000000000E+020
 20
-1.0000000000000000E+020
 30
-1.0000000000000000E+020
  9
$PEXTMAX
 10
1.0000000000000000E+020
 20
1.0000000000000000E+020
 30
1.0000000000000000E+020
  9
$PLIMMIN
 10
0.0
 20
0.0
  9
$PLIMMAX
 10
12.0
 20
9.0
  9
$UNITMODE
 70
     0
  9
$VISRETAIN
 70
     0
  9
$PLINEGEN
 70
     0
  9
$PSLTSCALE
 70
     0
  0
ENDSEC
  0
SECTION
  2
TABLES
  0
TABLE
  2
VPORT
 70
     1
  0
VPORT
  2
*ACTIVE
 70
     0
 10
0.0
 20
0.0
 11
1.0
 21
1.0
 12
299.66161605872782
 22
121.9336195542574
 13
0.0
 23
0.0
 14
1.0
 24
1.0
 15
0.0
 25
0.0
 16
0.0
 26
0.0
 36
1.0
 17
0.0
 27
0.0
 37
0.0
 40
1179.613861673236
 41
1.3098995695839311
 42
50.0
 43
0.0
 44
0.0
 50
0.0
 51
0.0
 71
     0
 72
  1000
 73
     1
 74
     0
 75
     0
 76
     0
 77
     0
 78
     0
  0
ENDTAB
  0
TABLE
  2
LTYPE
 70
     3
  0
LTYPE
  2
CONTINUOUS
 70
     0
  3
実線
 72
    65
 73
     0
 40
0.0
  0
LTYPE
  2
DASHDOT
 70
     0
  3
____ _ ____ _ ____ _ ____ _ ____ _ ____ _ ____
 72
    65
 73
     4
 40
5.5
 49
4.0
 49
-0.6
 49
0.3
 49
-0.6
  0
ENDTAB
  0
TABLE
  2
LAYER
 70
    12
  0
LAYER
  2
0
 70
     0
 62
     7
  6
CONTINUOUS
  0
LAYER
  2
DETAIL
 70
     0
 62
     5
  6
CONTINUOUS
  0
LAYER
  2
BASIS
 70
     0
 62
     6
  6
DASHDOT
  0
LAYER
  2
OUTLINE
 70
     0
 62
     3
  6
CONTINUOUS
  0
LAYER
  2
SIZE
 70
     0
 62
    30
  6
CONTINUOUS
  0
LAYER
  2
ARRANGE
 70
     0
 62
     1
  6
CONTINUOUS
  0
LAYER
  2
DEFPOINTS
 70
     0
 62
     7
  6
CONTINUOUS
  0
LAYER
  2
ETC
 70
     0
 62
    61
  6
CONTINUOUS
  0
LAYER
  2
FIX
 70
     0
 62
    11
  6
CONTINUOUS
  0
LAYER
  2
NOTE
 70
     0
 62
     4
  6
CONTINUOUS
  0
LAYER
  2
SERVICESPACE
 70
     0
 62
     2
  6
DASHDOT
  0
LAYER
  2
SYMBOLLINE
 70
     0
 62
    15
  6
CONTINUOUS
  0
ENDTAB
  0
TABLE
  2
STYLE
 70
     2
  0
STYLE
  2
STANDARD
 70
     0
 40
64.0
 41
0.9
 50
0.0
 71
     0
 42
64.0
  3
SIMPLEX.shx
  4
BIGFONT.shx
  0
STYLE
  2
ANNOTATIVE
 70
     0
 40
0.0
 41
1.0
 50
0.0
 71
     0
 42
0.2
  3
txt
  4

  0
ENDTAB
  0
TABLE
  2
VIEW
 70
     1
  0
VIEW
  2
ALL
 70
     0
 40
4282.6198079999986
 10
0.0
 20
41.309903999999989
 41
5940.0
 11
0.0
 21
0.0
 31
1.0
 12
0.0
 22
0.0
 32
0.0
 42
50.0
 43
0.0
 44
0.0
 50
0.0
 71
     0
  0
ENDTAB
  0
TABLE
  2
UCS
 70
     0
  0
ENDTAB
  0
TABLE
  2
APPID
 70
    17
  0
APPID
  2
ACAD
 70
     0
  0
APPID
  2
ACADANNOTATIVE
 70
     0
  0
APPID
  2
ACAD_MLEADERVER
 70
     0
  0
APPID
  2
AUTOCAD_POSTSCRIPT_FIGURE
 70
     0
  0
APPID
  2
ACAD_EXEMPT_FROM_CAD_STANDARDS
 70
     0
  0
APPID
  2
ACAD_PSEXT
 70
     0
  0
APPID
  2
ACAUTHENVIRON
 70
     0
  0
APPID
  2
GENIUS_GENOENT_13
 70
     0
  0
APPID
  2
GENIUS_GENCFG_13
 70
     0
  0
APPID
  2
GENIUS_GENCFG0_13
 70
     0
  0
APPID
  2
GENIUS_GENCFG1_13
 70
     0
  0
APPID
  2
GENIUS_GENCFG2_13
 70
     0
  0
APPID
  2
GENIUS_GENCFG3_13
 70
     0
  0
APPID
  2
GENIUS_GENCFG4_13
 70
     0
  0
APPID
  2
GENIUS_GEVCFG0_13
 70
     0
  0
APPID
  2
CONTENTBLOCKICON
 70
     0
  0
APPID
  2
CONTENTBLOCKDESCRIPTION
 70
     0
  0
ENDTAB
  0
TABLE
  2
DIMSTYLE
 70
     2
  0
DIMSTYLE
  2
STANDARD
 70
     0
  3

  4

  5

  6

  7

 40
1.0
 41
0.18
 42
0.0625
 43
0.38
 44
0.18
 45
0.0
 46
0.0
 47
0.0
 48
0.0
140
0.18
141
0.09
142
0.0
143
25.399999999999999
144
1.0
145
0.0
146
1.0
147
0.09
 71
     0
 72
     0
 73
     1
 74
     1
 75
     0
 76
     0
 77
     0
 78
     0
170
     0
171
     2
172
     0
173
     0
174
     0
175
     0
176
     7
177
     7
178
     7
  0
DIMSTYLE
  2
ANNOTATIVE
 70
     0
  3

  4

  5

  6

  7

 40
1.0
 41
0.18
 42
0.0625
 43
0.38
 44
0.18
 45
0.0
 46
0.0
 47
0.0
 48
0.0
140
0.18
141
0.09
142
0.0
143
25.399999999999999
144
1.0
145
0.0
146
1.0
147
0.09
 71
     0
 72
     0
 73
     1
 74
     1
 75
     0
 76
     0
 77
     0
 78
     0
170
     0
171
     2
172
     0
173
     0
174
     0
175
     0
176
     0
177
     0
178
     0
  0
ENDTAB
  0
ENDSEC
  0
SECTION
  2
BLOCKS
  0
BLOCK
  8
0
  2
$MODEL_SPACE
 70
     0
 10
0.0
 20
0.0
 30
0.0
  3
$MODEL_SPACE
  1

  0
ENDBLK
  5
76
  8
0
  0
BLOCK
 67
     1
  8
0
  2
$PAPER_SPACE
 70
     0
 10
0.0
 20
0.0
 30
0.0
  3
$PAPER_SPACE
  1

  0
ENDBLK
  5
72
 67
     1
  8
0
  0
BLOCK
  8
0
  2
DOT1
 70
     0
 10
0.0
 20
0.0
 30
0.0
  3
DOT1
  1

  0
CIRCLE
  5
99
  8
SIZE
  6
CONTINUOUS
 62
     7
 10
0.0
 20
0.0
 30
0.0
 40
3.0
  0
ENDBLK
  5
9A
  8
0
  0
BLOCK
  8
0
  2
_ORIGIN
 70
     0
 10
0.0
 20
0.0
 30
0.0
  3
_ORIGIN
  1

  0
CIRCLE
  5
9D
  8
0
  6
CONTINUOUS
 62
     7
 10
0.0
 20
0.0
 30
0.0
 40
0.5
  0
LINE
  5
9E
  8
0
  6
CONTINUOUS
 62
     7
 10
0.0
 20
0.0
 30
0.0
 11
-1.0
 21
0.0
 31
0.0
  0
ENDBLK
  5
9F
  8
0
  0
ENDSEC
  0
SECTION
  2
ENTITIES
  0
TEXT
  5
A0
  8
ETC
  6
CONTINUOUS
 62
    61
 10
489.10322697791912
 20
513.53149699999994
 30
0.0
 40
40.0
  1
P-18JS_1
 41
0.9
  0
TEXT
  5
A1
  8
ETC
  6
CONTINUOUS
 62
    61
 10
484.91723297791901
 20
452.83521799999988
 30
0.0
 40
40.0
  1
システム部材
 41
0.9
  0
TEXT
  5
A2
  8
ETC
  6
CONTINUOUS
 62
    61
 10
535.52473597791902
 20
370.96510699999999
 30
0.0
 40
40.0
  1
P-18JS
 41
0.9
  0
CIRCLE
  5
A3
  8
ARRANGE
  6
CONTINUOUS
 62
     1
 10
0.0
 20
0.0
 30
0.0
 40
40.0
  0
POINT
  5
A4
  8
ARRANGE
  6
CONTINUOUS
 62
     1
 10
0.0
 20
0.0
 30
0.0
 39
50.0
  0
LINE
  5
A5
  8
BASIS
  6
DASHDOT
 62
     6
 39
50.0
 10
0.0
 20
78.168436999999983
 30
0.0
 11
0.0
 21
-125.918802
 31
0.0
  0
LINE
  5
A6
  8
NOTE
  6
CONTINUOUS
 62
     4
 39
50.0
 10
85.0
 20
-7.5
 30
0.0
 11
309.70284199999998
 21
-111.62029200000001
 31
0.0
  0
LINE
  5
A7
  8
NOTE
  6
CONTINUOUS
 62
     4
 39
50.0
 10
309.70284199999998
 20
-111.62029200000001
 30
0.0
 11
983.9237159999999
 21
-111.62029200000001
 31
0.0
  0
TEXT
  5
A8
  8
NOTE
  6
CONTINUOUS
 62
     4
 10
338.62813199999999
 20
-93.084675000000004
 30
0.0
 40
40.0
  1
4-φ4.5ノックアウト取付用穴
 41
0.9
  0
LINE
  5
A9
  8
OUTLINE
  6
CONTINUOUS
 62
     3
 39
50.0
 10
0.0
 20
0.0
 30
0.0
 11
110.0
 21
0.0
 31
0.0
  0
LINE
  5
AA
  8
OUTLINE
  6
CONTINUOUS
 62
     3
 39
50.0
 10
100.0
 20
0.0
 30
0.0
 11
100.0
 21
-85.5
 31
0.0
  0
LINE
  5
AB
  8
OUTLINE
  6
CONTINUOUS
 62
     3
 39
50.0
 10
64.0
 20
-100.5
 30
0.0
 11
-64.0
 21
-100.5
 31
0.0
  0
LINE
  5
AC
  8
OUTLINE
  6
CONTINUOUS
 62
     3
 39
50.0
 10
-100.0
 20
-85.5
 30
0.0
 11
-100.0
 21
0.0
 31
0.0
  0
LINE
  5
AD
  8
OUTLINE
  6
CONTINUOUS
 62
     3
 39
50.0
 10
-110.0
 20
0.0
 30
0.0
 11
0.0
 21
0.0
 31
0.0
  0
LINE
  5
AE
  8
OUTLINE
  6
CONTINUOUS
 62
     3
 39
50.0
 10
110.0
 20
0.0
 30
0.0
 11
110.0
 21
-19.0
 31
0.0
  0
LINE
  5
AF
  8
OUTLINE
  6
CONTINUOUS
 62
     3
 39
50.0
 10
-110.0
 20
0.0
 30
0.0
 11
-110.0
 21
-19.0
 31
0.0
  0
LINE
  5
B0
  8
OUTLINE
  6
CONTINUOUS
 62
     3
 39
50.0
 10
-110.0
 20
-19.0
 30
0.0
 11
-100.0
 21
-19.0
 31
0.0
  0
LINE
  5
B1
  8
OUTLINE
  6
CONTINUOUS
 62
     3
 39
50.0
 10
100.0
 20
-19.0
 30
0.0
 11
110.0
 21
-19.0
 31
0.0
  0
LINE
  5
B2
  8
OUTLINE
  6
CONTINUOUS
 62
     3
 39
50.0
 10
73.5
 20
47.0
 30
0.0
 11
73.5
 21
0.0
 31
0.0
  0
LINE
  5
B3
  8
OUTLINE
  6
CONTINUOUS
 62
     3
 39
50.0
 10
-73.5
 20
47.0
 30
0.0
 11
-73.5
 21
0.0
 31
0.0
  0
LINE
  5
B4
  8
OUTLINE
  6
CONTINUOUS
 62
     3
 39
50.0
 10
-73.5
 20
47.0
 30
0.0
 11
73.5
 21
47.0
 31
0.0
  0
LINE
  5
B5
  8
OUTLINE
  6
CONTINUOUS
 62
     3
 39
50.0
 10
-64.0
 20
-95.5
 30
0.0
 11
-64.0
 21
-100.5
 31
0.0
  0
LINE
  5
B6
  8
OUTLINE
  6
CONTINUOUS
 62
     3
 39
50.0
 10
-75.0
 20
-90.5
 30
0.0
 11
-75.0
 21
-95.5
 31
0.0
  0
LINE
  5
B7
  8
OUTLINE
  6
CONTINUOUS
 62
     3
 39
50.0
 10
-87.0
 20
-85.5
 30
0.0
 11
-87.0
 21
-90.5
 31
0.0
  0
LINE
  5
B8
  8
OUTLINE
  6
CONTINUOUS
 62
     3
 39
50.0
 10
-64.0
 20
-95.5
 30
0.0
 11
-75.0
 21
-95.5
 31
0.0
  0
LINE
  5
B9
  8
OUTLINE
  6
CONTINUOUS
 62
     3
 39
50.0
 10
-87.0
 20
-85.5
 30
0.0
 11
-100.0
 21
-85.5
 31
0.0
  0
LINE
  5
BA
  8
OUTLINE
  6
CONTINUOUS
 62
     3
 39
50.0
 10
-75.0
 20
-90.5
 30
0.0
 11
-87.0
 21
-90.5
 31
0.0
  0
LINE
  5
BB
  8
OUTLINE
  6
CONTINUOUS
 62
     3
 39
50.0
 10
64.0
 20
-95.5
 30
0.0
 11
64.0
 21
-100.5
 31
0.0
  0
LINE
  5
BC
  8
OUTLINE
  6
CONTINUOUS
 62
     3
 39
50.0
 10
75.0
 20
-90.5
 30
0.0
 11
75.0
 21
-95.5
 31
0.0
  0
LINE
  5
BD
  8
OUTLINE
  6
CONTINUOUS
 62
     3
 39
50.0
 10
87.0
 20
-85.5
 30
0.0
 11
87.0
 21
-90.5
 31
0.0
  0
LINE
  5
BE
  8
OUTLINE
  6
CONTINUOUS
 62
     3
 39
50.0
 10
64.0
 20
-95.5
 30
0.0
 11
75.0
 21
-95.5
 31
0.0
  0
LINE
  5
BF
  8
OUTLINE
  6
CONTINUOUS
 62
     3
 39
50.0
 10
87.0
 20
-85.5
 30
0.0
 11
100.0
 21
-85.5
 31
0.0
  0
LINE
  5
C0
  8
OUTLINE
  6
CONTINUOUS
 62
     3
 39
50.0
 10
75.0
 20
-90.5
 30
0.0
 11
87.0
 21
-90.5
 31
0.0
  0
LINE
  5
C1
  8
DETAIL
  6
CONTINUOUS
 62
     5
 39
50.0
 10
0.0
 20
0.0
 30
0.0
 11
110.0
 21
0.0
 31
0.0
  0
LINE
  5
C2
  8
DETAIL
  6
CONTINUOUS
 62
     5
 39
50.0
 10
100.0
 20
0.0
 30
0.0
 11
100.0
 21
-85.5
 31
0.0
  0
LINE
  5
C3
  8
DETAIL
  6
CONTINUOUS
 62
     5
 39
50.0
 10
64.0
 20
-100.5
 30
0.0
 11
-64.0
 21
-100.5
 31
0.0
  0
LINE
  5
C4
  8
DETAIL
  6
CONTINUOUS
 62
     5
 39
50.0
 10
-100.0
 20
-85.5
 30
0.0
 11
-100.0
 21
0.0
 31
0.0
  0
LINE
  5
C5
  8
DETAIL
  6
CONTINUOUS
 62
     5
 39
50.0
 10
-110.0
 20
0.0
 30
0.0
 11
0.0
 21
0.0
 31
0.0
  0
LINE
  5
C6
  8
DETAIL
  6
CONTINUOUS
 62
     5
 39
50.0
 10
110.0
 20
0.0
 30
0.0
 11
110.0
 21
-19.0
 31
0.0
  0
LINE
  5
C7
  8
DETAIL
  6
CONTINUOUS
 62
     5
 39
50.0
 10
-110.0
 20
0.0
 30
0.0
 11
-110.0
 21
-19.0
 31
0.0
  0
LINE
  5
C8
  8
DETAIL
  6
CONTINUOUS
 62
     5
 39
50.0
 10
-110.0
 20
-19.0
 30
0.0
 11
-100.0
 21
-19.0
 31
0.0
  0
LINE
  5
C9
  8
DETAIL
  6
CONTINUOUS
 62
     5
 39
50.0
 10
100.0
 20
-19.0
 30
0.0
 11
110.0
 21
-19.0
 31
0.0
  0
LINE
  5
CA
  8
DETAIL
  6
CONTINUOUS
 62
     5
 39
50.0
 10
73.5
 20
47.0
 30
0.0
 11
73.5
 21
0.0
 31
0.0
  0
LINE
  5
CB
  8
DETAIL
  6
CONTINUOUS
 62
     5
 39
50.0
 10
-73.5
 20
47.0
 30
0.0
 11
-73.5
 21
0.0
 31
0.0
  0
LINE
  5
CC
  8
DETAIL
  6
CONTINUOUS
 62
     5
 39
50.0
 10
-73.5
 20
47.0
 30
0.0
 11
73.5
 21
47.0
 31
0.0
  0
LINE
  5
CD
  8
DETAIL
  6
CONTINUOUS
 62
     5
 39
50.0
 10
-64.0
 20
-95.5
 30
0.0
 11
-64.0
 21
-100.5
 31
0.0
  0
LINE
  5
CE
  8
DETAIL
  6
CONTINUOUS
 62
     5
 39
50.0
 10
-75.0
 20
-90.5
 30
0.0
 11
-75.0
 21
-95.5
 31
0.0
  0
LINE
  5
CF
  8
DETAIL
  6
CONTINUOUS
 62
     5
 39
50.0
 10
-87.0
 20
-85.5
 30
0.0
 11
-87.0
 21
-90.5
 31
0.0
  0
LINE
  5
D0
  8
DETAIL
  6
CONTINUOUS
 62
     5
 39
50.0
 10
-64.0
 20
-95.5
 30
0.0
 11
-75.0
 21
-95.5
 31
0.0
  0
LINE
  5
D1
  8
DETAIL
  6
CONTINUOUS
 62
     5
 39
50.0
 10
-87.0
 20
-85.5
 30
0.0
 11
-100.0
 21
-85.5
 31
0.0
  0
LINE
  5
D2
  8
DETAIL
  6
CONTINUOUS
 62
     5
 39
50.0
 10
-75.0
 20
-90.5
 30
0.0
 11
-87.0
 21
-90.5
 31
0.0
  0
LINE
  5
D3
  8
DETAIL
  6
CONTINUOUS
 62
     5
 39
50.0
 10
64.0
 20
-95.5
 30
0.0
 11
64.0
 21
-100.5
 31
0.0
  0
LINE
  5
D4
  8
DETAIL
  6
CONTINUOUS
 62
     5
 39
50.0
 10
75.0
 20
-90.5
 30
0.0
 11
75.0
 21
-95.5
 31
0.0
  0
LINE
  5
D5
  8
DETAIL
  6
CONTINUOUS
 62
     5
 39
50.0
 10
87.0
 20
-85.5
 30
0.0
 11
87.0
 21
-90.5
 31
0.0
  0
LINE
  5
D6
  8
DETAIL
  6
CONTINUOUS
 62
     5
 39
50.0
 10
64.0
 20
-95.5
 30
0.0
 11
75.0
 21
-95.5
 31
0.0
  0
LINE
  5
D7
  8
DETAIL
  6
CONTINUOUS
 62
     5
 39
50.0
 10
87.0
 20
-85.5
 30
0.0
 11
100.0
 21
-85.5
 31
0.0
  0
LINE
  5
D8
  8
DETAIL
  6
CONTINUOUS
 62
     5
 39
50.0
 10
75.0
 20
-90.5
 30
0.0
 11
87.0
 21
-90.5
 31
0.0
  0
LINE
  5
D9
  8
SIZE
  6
CONTINUOUS
 62
    30
 10
-100.0
 20
-105.5
 30
0.0
 11
-100.0
 21
-265.09726699999999
 31
0.0
  0
LINE
  5
DA
  8
SIZE
  6
CONTINUOUS
 62
    30
 10
100.0
 20
-105.5
 30
0.0
 11
100.0
 21
-265.09726699999999
 31
0.0
  0
LINE
  5
DB
  8
SIZE
  6
CONTINUOUS
 62
    30
 10
-88.0
 20
-245.09726699999999
 30
0.0
 11
88.0
 21
-245.09726699999999
 31
0.0
  0
CIRCLE
  5
DC
  8
SIZE
  6
CONTINUOUS
 62
    30
 10
-100.0
 20
-245.09726699999999
 30
0.0
 40
6.0
  0
LINE
  5
DD
  8
SIZE
  6
CONTINUOUS
 62
    30
 10
-100.0
 20
-245.09726699999999
 30
0.0
 11
-88.0
 21
-245.09726699999999
 31
0.0
  0
CIRCLE
  5
DE
  8
SIZE
  6
CONTINUOUS
 62
    30
 10
100.0
 20
-245.09726699999999
 30
0.0
 40
6.0
  0
LINE
  5
DF
  8
SIZE
  6
CONTINUOUS
 62
    30
 10
100.0
 20
-245.09726699999999
 30
0.0
 11
88.0
 21
-245.09726699999999
 31
0.0
  0
TEXT
  5
E0
  8
SIZE
  6
CONTINUOUS
 62
    30
 10
-74.05714285714285
 20
-220.09726699999999
 30
0.0
 40
64.0
  1
200
 41
0.9
 72
     1
 11
0.0
 21
-220.09726699999999
 31
0.0
  0
POINT
  5
E1
  8
DEFPOINTS
  6
CONTINUOUS
 62
    30
 10
-100.0
 20
-85.5
 30
0.0
  0
POINT
  5
E2
  8
DEFPOINTS
  6
CONTINUOUS
 62
    30
 10
100.0
 20
-85.5
 30
0.0
  0
POINT
  5
E3
  8
DEFPOINTS
  6
CONTINUOUS
 62
    30
 10
100.0
 20
-245.09726699999999
 30
0.0
  0
LINE
  5
E4
  8
NOTE
  6
CONTINUOUS
 62
     4
 39
50.0
 10
85.0
 20
-13.373837999999999
 30
0.0
 11
85.0
 21
-2.3719600000000001
 31
0.0
  0
LINE
  5
E5
  8
NOTE
  6
CONTINUOUS
 62
     4
 39
50.0
 10
-85.0
 20
-14.405265
 30
0.0
 11
-85.0
 21
0.0
 31
0.0
  0
CIRCLE
  5
E6
  8
FIX
  6
CONTINUOUS
 62
    11
 39
50.0
 10
85.0
 20
-7.5
 30
0.0
 40
2.25
  0
CIRCLE
  5
E7
  8
FIX
  6
CONTINUOUS
 62
    11
 39
50.0
 10
-85.0
 20
-7.5
 30
0.0
 40
2.25
  0
LINE
  5
E8
  8
SIZE
  6
CONTINUOUS
 62
    30
 10
-110.0
 20
20.0
 30
0.0
 11
-110.0
 21
510.31320799999997
 31
0.0
  0
LINE
  5
E9
  8
SIZE
  6
CONTINUOUS
 62
    30
 10
110.0
 20
20.0
 30
0.0
 11
110.0
 21
510.31320799999997
 31
0.0
  0
LINE
  5
EA
  8
SIZE
  6
CONTINUOUS
 62
    30
 10
-98.0
 20
490.31320799999997
 30
0.0
 11
98.0
 21
490.31320799999997
 31
0.0
  0
CIRCLE
  5
EB
  8
SIZE
  6
CONTINUOUS
 62
    30
 10
-110.0
 20
490.31320799999997
 30
0.0
 40
6.0
  0
LINE
  5
EC
  8
SIZE
  6
CONTINUOUS
 62
    30
 10
-110.0
 20
490.31320799999997
 30
0.0
 11
-98.0
 21
490.31320799999997
 31
0.0
  0
CIRCLE
  5
ED
  8
SIZE
  6
CONTINUOUS
 62
    30
 10
110.0
 20
490.31320799999997
 30
0.0
 40
6.0
  0
LINE
  5
EE
  8
SIZE
  6
CONTINUOUS
 62
    30
 10
110.0
 20
490.31320799999997
 30
0.0
 11
98.0
 21
490.31320799999997
 31
0.0
  0
TEXT
  5
EF
  8
SIZE
  6
CONTINUOUS
 62
    30
 10
-74.05714285714285
 20
515.31320800000003
 30
0.0
 40
64.0
  1
220
 41
0.9
 72
     1
 11
0.0
 21
515.31320800000003
 31
0.0
  0
POINT
  5
F0
  8
DEFPOINTS
  6
CONTINUOUS
 62
    30
 10
-110.0
 20
0.0
 30
0.0
  0
POINT
  5
F1
  8
DEFPOINTS
  6
CONTINUOUS
 62
    30
 10
110.0
 20
0.0
 30
0.0
  0
POINT
  5
F2
  8
DEFPOINTS
  6
CONTINUOUS
 62
    30
 10
110.0
 20
490.31320799999997
 30
0.0
  0
LINE
  5
F3
  8
SIZE
  6
CONTINUOUS
 62
    30
 10
-73.5
 20
67.0
 30
0.0
 11
-73.5
 21
270.31320799999997
 31
0.0
  0
LINE
  5
F4
  8
SIZE
  6
CONTINUOUS
 62
    30
 10
73.5
 20
67.0
 30
0.0
 11
73.5
 21
270.31320799999997
 31
0.0
  0
LINE
  5
F5
  8
SIZE
  6
CONTINUOUS
 62
    30
 10
61.5
 20
250.313208
 30
0.0
 11
-61.5
 21
250.313208
 31
0.0
  0
LINE
  5
F6
  8
SIZE
  6
CONTINUOUS
 62
    30
 10
-73.5
 20
250.313208
 30
0.0
 11
-382.41940499999998
 21
250.313208
 31
0.0
  0
CIRCLE
  5
F7
  8
SIZE
  6
CONTINUOUS
 62
    30
 10
73.5
 20
250.313208
 30
0.0
 40
6.0
  0
LINE
  5
F8
  8
SIZE
  6
CONTINUOUS
 62
    30
 10
73.5
 20
250.313208
 30
0.0
 11
61.5
 21
250.313208
 31
0.0
  0
CIRCLE
  5
F9
  8
SIZE
  6
CONTINUOUS
 62
    30
 10
-73.5
 20
250.313208
 30
0.0
 40
6.0
  0
LINE
  5
FA
  8
SIZE
  6
CONTINUOUS
 62
    30
 10
-73.5
 20
250.313208
 30
0.0
 11
-61.5
 21
250.313208
 31
0.0
  0
TEXT
  5
FB
  8
SIZE
  6
CONTINUOUS
 62
    30
 10
-368.93940457142861
 20
275.31320799999997
 30
0.0
 40
64.0
  1
φ147
 41
0.9
 72
     1
 11
-260.04797600000001
 21
275.31320799999997
 31
0.0
  0
POINT
  5
FC
  8
DEFPOINTS
  6
CONTINUOUS
 62
    30
 10
-73.5
 20
47.0
 30
0.0
  0
POINT
  5
FD
  8
DEFPOINTS
  6
CONTINUOUS
 62
    30
 10
73.5
 20
47.0
 30
0.0
  0
POINT
  5
FE
  8
DEFPOINTS
  6
CONTINUOUS
 62
    30
 10
73.5
 20
250.313208
 30
0.0
  0
LINE
  5
FF
  8
SIZE
  6
CONTINUOUS
 62
    30
 10
-85.0
 20
32.482047000000001
 30
0.0
 11
-85.0
 21
390.31320799999997
 31
0.0
  0
LINE
  5
100
  8
SIZE
  6
CONTINUOUS
 62
    30
 10
85.0
 20
32.482047000000001
 30
0.0
 11
85.0
 21
390.31320799999997
 31
0.0
  0
LINE
  5
101
  8
SIZE
  6
CONTINUOUS
 62
    30
 10
-73.0
 20
370.31320799999997
 30
0.0
 11
73.0
 21
370.31320799999997
 31
0.0
  0
CIRCLE
  5
102
  8
SIZE
  6
CONTINUOUS
 62
    30
 10
-85.0
 20
370.31320799999997
 30
0.0
 40
6.0
  0
LINE
  5
103
  8
SIZE
  6
CONTINUOUS
 62
    30
 10
-85.0
 20
370.31320799999997
 30
0.0
 11
-73.0
 21
370.31320799999997
 31
0.0
  0
CIRCLE
  5
104
  8
SIZE
  6
CONTINUOUS
 62
    30
 10
85.0
 20
370.31320799999997
 30
0.0
 40
6.0
  0
LINE
  5
105
  8
SIZE
  6
CONTINUOUS
 62
    30
 10
85.0
 20
370.31320799999997
 30
0.0
 11
73.0
 21
370.31320799999997
 31
0.0
  0
TEXT
  5
106
  8
SIZE
  6
CONTINUOUS
 62
    30
 10
-68.571428571428569
 20
395.31320800000009
 30
0.0
 40
64.0
  1
170
 41
0.9
 72
     1
 11
0.0
 21
395.31320800000009
 31
0.0
  0
POINT
  5
107
  8
DEFPOINTS
  6
CONTINUOUS
 62
    30
 10
-85.0
 20
12.482047
 30
0.0
  0
POINT
  5
108
  8
DEFPOINTS
  6
CONTINUOUS
 62
    30
 10
85.0
 20
12.482047
 30
0.0
  0
POINT
  5
109
  8
DEFPOINTS
  6
CONTINUOUS
 62
    30
 10
85.0
 20
370.31320799999997
 30
0.0
  0
LINE
  5
10A
  8
SIZE
  6
CONTINUOUS
 62
    30
 10
-93.499999999999986
 20
47.0
 30
0.0
 11
-276.48526800000002
 21
47.0
 31
0.0
  0
LINE
  5
10B
  8
SIZE
  6
CONTINUOUS
 62
    30
 10
-157.638306
 20
0.0
 30
0.0
 11
-276.48526800000002
 21
0.0
 31
0.0
  0
LINE
  5
10C
  8
SIZE
  6
CONTINUOUS
 62
    30
 10
-256.48526800000002
 20
-12.0
 30
0.0
 11
-256.48526800000002
 21
-24.0
 31
0.0
  0
LINE
  5
10D
  8
SIZE
  6
CONTINUOUS
 62
    30
 10
-256.48526800000002
 20
59.0
 30
0.0
 11
-256.48526800000002
 21
214.25714300000001
 31
0.0
  0
LINE
  5
10E
  8
SIZE
  6
CONTINUOUS
 62
    30
 10
-256.48526800000002
 20
0.0
 30
0.0
 11
-256.48526800000002
 21
47.0
 31
0.0
  0
CIRCLE
  5
10F
  8
SIZE
  6
CONTINUOUS
 62
    30
 10
-256.48526800000002
 20
0.0
 30
0.0
 40
6.0
  0
LINE
  5
110
  8
SIZE
  6
CONTINUOUS
 62
    30
 10
-256.48526800000002
 20
0.0
 30
0.0
 11
-256.48526800000002
 21
-12.0
 31
0.0
  0
CIRCLE
  5
111
  8
SIZE
  6
CONTINUOUS
 62
    30
 10
-256.48526800000002
 20
47.0
 30
0.0
 40
6.0
  0
LINE
  5
112
  8
SIZE
  6
CONTINUOUS
 62
    30
 10
-256.48526800000002
 20
47.0
 30
0.0
 11
-256.48526800000002
 21
59.0
 31
0.0
  0
TEXT
  5
113
  8
SIZE
  6
CONTINUOUS
 62
    30
 10
-281.48526800000002
 20
95.999999571428575
 30
0.0
 40
64.0
  1
47
 50
90.0
 41
0.9
 72
     1
 11
-281.48526800000002
 21
142.62857099999999
 31
0.0
  0
POINT
  5
114
  8
DEFPOINTS
  6
CONTINUOUS
 62
    30
 10
-73.5
 20
47.0
 30
0.0
  0
POINT
  5
115
  8
DEFPOINTS
  6
CONTINUOUS
 62
    30
 10
-137.638306
 20
0.0
 30
0.0
  0
POINT
  5
116
  8
DEFPOINTS
  6
CONTINUOUS
 62
    30
 10
-256.48526800000002
 20
0.0
 30
0.0
  0
LINE
  5
117
  8
SIZE
  6
CONTINUOUS
 62
    30
 10
-130.0
 20
0.0
 30
0.0
 11
-276.48526800000002
 21
0.0
 31
0.0
  0
LINE
  5
118
  8
SIZE
  6
CONTINUOUS
 62
    30
 10
-130.0
 20
-19.0
 30
0.0
 11
-276.48526800000002
 21
-19.0
 31
0.0
  0
LINE
  5
119
  8
SIZE
  6
CONTINUOUS
 62
    30
 10
-256.48526800000002
 20
12.0
 30
0.0
 11
-256.48526800000002
 21
24.0
 31
0.0
  0
LINE
  5
11A
  8
SIZE
  6
CONTINUOUS
 62
    30
 10
-256.48526800000002
 20
-31.0
 30
0.0
 11
-256.48526800000002
 21
-190.40000000000001
 31
0.0
  0
LINE
  5
11B
  8
SIZE
  6
CONTINUOUS
 62
    30
 10
-256.48526800000002
 20
0.0
 30
0.0
 11
-256.48526800000002
 21
-19.0
 31
0.0
  0
CIRCLE
  5
11C
  8
SIZE
  6
CONTINUOUS
 62
    30
 10
-256.48526800000002
 20
0.0
 30
0.0
 40
6.0
  0
LINE
  5
11D
  8
SIZE
  6
CONTINUOUS
 62
    30
 10
-256.48526800000002
 20
0.0
 30
0.0
 11
-256.48526800000002
 21
12.0
 31
0.0
  0
CIRCLE
  5
11E
  8
SIZE
  6
CONTINUOUS
 62
    30
 10
-256.48526800000002
 20
-19.0
 30
0.0
 40
6.0
  0
LINE
  5
11F
  8
SIZE
  6
CONTINUOUS
 62
    30
 10
-256.48526800000002
 20
-19.0
 30
0.0
 11
-256.48526800000002
 21
-31.0
 31
0.0
  0
TEXT
  5
120
  8
SIZE
  6
CONTINUOUS
 62
    30
 10
-281.48526800000002
 20
-165.39999957142851
 30
0.0
 40
64.0
  1
19
 50
90.0
 41
0.9
 72
     1
 11
-281.48526800000002
 21
-125.62857099999999
 31
0.0
  0
POINT
  5
121
  8
DEFPOINTS
  6
CONTINUOUS
 62
    30
 10
-110.0
 20
0.0
 30
0.0
  0
POINT
  5
122
  8
DEFPOINTS
  6
CONTINUOUS
 62
    30
 10
-110.0
 20
-19.0
 30
0.0
  0
POINT
  5
123
  8
DEFPOINTS
  6
CONTINUOUS
 62
    30
 10
-256.48526800000002
 20
-19.0
 30
0.0
  0
LINE
  5
124
  8
NOTE
  6
CONTINUOUS
 62
     4
 39
50.0
 10
-91.76960600000001
 20
-7.5
 30
0.0
 11
-76.290229999999994
 21
-7.5
 31
0.0
  0
LINE
  5
125
  8
SIZE
  6
CONTINUOUS
 62
    30
 10
130.0
 20
0.0
 30
0.0
 11
279.075514
 21
0.0
 31
0.0
  0
LINE
  5
126
  8
SIZE
  6
CONTINUOUS
 62
    30
 10
120.0
 20
-7.5
 30
0.0
 11
279.075514
 21
-7.5
 31
0.0
  0
LINE
  5
127
  8
SIZE
  6
CONTINUOUS
 62
    30
 10
259.075514
 20
-19.5
 30
0.0
 11
259.075514
 21
-31.5
 31
0.0
  0
LINE
  5
128
  8
SIZE
  6
CONTINUOUS
 62
    30
 10
259.075514
 20
12.0
 30
0.0
 11
259.075514
 21
194.68571399999999
 31
0.0
  0
LINE
  5
129
  8
SIZE
  6
CONTINUOUS
 62
    30
 10
259.075514
 20
-7.5
 30
0.0
 11
259.075514
 21
0.0
 31
0.0
  0
CIRCLE
  5
12A
  8
SIZE
  6
CONTINUOUS
 62
    30
 10
259.075514
 20
-7.5
 30
0.0
 40
6.0
  0
LINE
  5
12B
  8
SIZE
  6
CONTINUOUS
 62
    30
 10
259.075514
 20
-7.5
 30
0.0
 11
259.075514
 21
-19.5
 31
0.0
  0
CIRCLE
  5
12C
  8
SIZE
  6
CONTINUOUS
 62
    30
 10
259.075514
 20
0.0
 30
0.0
 40
6.0
  0
LINE
  5
12D
  8
SIZE
  6
CONTINUOUS
 62
    30
 10
259.075514
 20
0.0
 30
0.0
 11
259.075514
 21
12.0
 31
0.0
  0
TEXT
  5
12E
  8
SIZE
  6
CONTINUOUS
 62
    30
 10
234.075514
 20
48.999999857142882
 30
0.0
 40
64.0
  1
7.5
 50
90.0
 41
0.9
 72
     1
 11
234.075514
 21
109.342857
 31
0.0
  0
POINT
  5
12F
  8
DEFPOINTS
  6
CONTINUOUS
 62
    30
 10
110.0
 20
0.0
 30
0.0
  0
POINT
  5
130
  8
DEFPOINTS
  6
CONTINUOUS
 62
    30
 10
100.0
 20
-7.5
 30
0.0
  0
POINT
  5
131
  8
DEFPOINTS
  6
CONTINUOUS
 62
    30
 10
259.075514
 20
-7.5
 30
0.0
  0
LINE
  5
132
  8
SIZE
  6
CONTINUOUS
 62
    30
 10
120.0
 20
-7.5
 30
0.0
 11
279.075514
 21
-7.5
 31
0.0
  0
LINE
  5
133
  8
SIZE
  6
CONTINUOUS
 62
    30
 10
84.0
 20
-100.5
 30
0.0
 11
279.075514
 21
-100.5
 31
0.0
  0
LINE
  5
134
  8
SIZE
  6
CONTINUOUS
 62
    30
 10
259.075514
 20
-19.5
 30
0.0
 11
259.075514
 21
-88.499999999999986
 31
0.0
  0
LINE
  5
135
  8
SIZE
  6
CONTINUOUS
 62
    30
 10
259.075514
 20
-100.5
 30
0.0
 11
259.075514
 21
-277.69999999999999
 31
0.0
  0
CIRCLE
  5
136
  8
SIZE
  6
CONTINUOUS
 62
    30
 10
259.075514
 20
-7.5
 30
0.0
 40
6.0
  0
LINE
  5
137
  8
SIZE
  6
CONTINUOUS
 62
    30
 10
259.075514
 20
-7.5
 30
0.0
 11
259.075514
 21
-19.5
 31
0.0
  0
CIRCLE
  5
138
  8
SIZE
  6
CONTINUOUS
 62
    30
 10
259.075514
 20
-100.5
 30
0.0
 40
6.0
  0
LINE
  5
139
  8
SIZE
  6
CONTINUOUS
 62
    30
 10
259.075514
 20
-100.5
 30
0.0
 11
259.075514
 21
-88.499999999999986
 31
0.0
  0
TEXT
  5
13A
  8
SIZE
  6
CONTINUOUS
 62
    30
 10
234.075514
 20
-252.7000004285714
 30
0.0
 40
64.0
  1
93
 50
90.0
 41
0.9
 72
     1
 11
234.075514
 21
-206.07142899999999
 31
0.0
  0
POINT
  5
13B
  8
DEFPOINTS
  6
CONTINUOUS
 62
    30
 10
100.0
 20
-7.5
 30
0.0
  0
POINT
  5
13C
  8
DEFPOINTS
  6
CONTINUOUS
 62
    30
 10
64.0
 20
-100.5
 30
0.0
  0
POINT
  5
13D
  8
DEFPOINTS
  6
CONTINUOUS
 62
    30
 10
259.075514
 20
-100.5
 30
0.0
  0
LINE
  5
13E
  8
NOTE
  6
CONTINUOUS
 62
     4
 39
50.0
 10
85.0
 20
-7.5
 30
0.0
 11
105.63739099999999
 21
-27.209689000000001
 31
0.0
  0
LINE
  5
13F
  8
NOTE
  6
CONTINUOUS
 62
     4
 39
50.0
 10
85.0
 20
-7.5
 30
0.0
 11
113.378803
 21
-10.502886999999999
 31
0.0
  0
LINE
  5
140
  8
NOTE
  6
CONTINUOUS
 62
     4
 39
50.0
 10
76.495188999999996
 20
-7.5
 30
0.0
 11
92.560123000000004
 21
-7.5
 31
0.0
  0
LINE
  5
141
  8
DETAIL
  6
CONTINUOUS
 62
     5
 39
50.0
 10
-100.0
 20
-7.5
 30
0.0
 11
100.0
 21
-7.5
 31
0.0
  0
TEXT
  5
142
  8
ETC
  6
CONTINUOUS
 62
    61
 10
535.52473597791902
 20
311.69903459392162
 30
0.0
 40
40.0
  1
P-18JSQ
 41
0.9
  0
ENDSEC
  0
EOF
