  0
SECTION
  2
HEADER
  9
$ACADVER
  1
AC1009
  9
$INSBASE
 10
0.0
 20
0.0
 30
0.0
  9
$EXTMIN
 10
-256.83681999999999
 20
-300.88734499999998
 30
0.0
  9
$EXTMAX
 10
536.52959414285692
 20
420.23746659216312
 30
50.0
  9
$LIMMIN
 10
-2970.0
 20
-2100.0
  9
$LIMMAX
 10
2970.0
 20
2100.0
  9
$ORTHOMODE
 70
     1
  9
$REGENMODE
 70
     1
  9
$FILLMODE
 70
     1
  9
$QTEXTMODE
 70
     0
  9
$MIRRTEXT
 70
     0
  9
$DRAGMODE
 70
     2
  9
$LTSCALE
 40
20.0
  9
$OSMODE
 70
    37
  9
$ATTMODE
 70
     1
  9
$TEXTSIZE
 40
64.0
  9
$TRACEWID
 40
0.05
  9
$TEXTSTYLE
  7
STANDARD
  9
$CLAYER
  8
SIZE
  9
$CELTYPE
  6
CONTINUOUS
  9
$CECOLOR
 62
     7
  9
$DIMSCALE
 40
1.0
  9
$DIMASZ
 40
12.0
  9
$DIMEXO
 40
20.0
  9
$DIMDLI
 40
200.0
  9
$DIMRND
 40
0.0
  9
$DIMDLE
 40
0.0
  9
$DIMEXE
 40
20.0
  9
$DIMTP
 40
0.0
  9
$DIMTM
 40
0.0
  9
$DIMTXT
 40
64.0
  9
$DIMCEN
 40
0.09
  9
$DIMTSZ
 40
0.0
  9
$DIMTOL
 70
     0
  9
$DIMLIM
 70
     0
  9
$DIMTIH
 70
     0
  9
$DIMTOH
 70
     0
  9
$DIMSE1
 70
     0
  9
$DIMSE2
 70
     0
  9
$DIMTAD
 70
     1
  9
$DIMZIN
 70
     8
  9
$DIMBLK
  1
DOT1
  9
$DIMASO
 70
     1
  9
$DIMSHO
 70
     0
  9
$DIMPOST
  1

  9
$DIMAPOST
  1

  9
$DIMALT
 70
     0
  9
$DIMALTD
 70
     2
  9
$DIMALTF
 40
25.399999999999999
  9
$DIMLFAC
 40
1.0
  9
$DIMTOFL
 70
     1
  9
$DIMTVP
 40
0.0
  9
$DIMTIX
 70
     1
  9
$DIMSOXD
 70
     0
  9
$DIMSAH
 70
     1
  9
$DIMBLK1
  1
ORIGIN
  9
$DIMBLK2
  1
ORIGIN
  9
$DIMSTYLE
  2
STANDARD
  9
$DIMCLRD
 70
     7
  9
$DIMCLRE
 70
     7
  9
$DIMCLRT
 70
     7
  9
$DIMTFAC
 40
1.0
  9
$DIMGAP
 40
25.0
  9
$LUNITS
 70
     2
  9
$LUPREC
 70
     4
  9
$SKETCHINC
 40
0.1
  9
$FILLETRAD
 40
3.0
  9
$AUNITS
 70
     1
  9
$AUPREC
 70
     3
  9
$MENU
  1
ACAD
  9
$ELEVATION
 40
0.0
  9
$PELEVATION
 40
0.0
  9
$THICKNESS
 40
50.0
  9
$LIMCHECK
 70
     0
  9
$BLIPMODE
 70
     0
  9
$CHAMFERA
 40
0.0
  9
$CHAMFERB
 40
0.0
  9
$SKPOLY
 70
     0
  9
$TDCREATE
 40
2453019.6230103709
  9
$TDUPDATE
 40
2454963.5862327199
  9
$TDINDWG
 40
1.6332212962999999
  9
$TDUSRTIMER
 40
1.6332211110999999
  9
$USRTIMER
 70
     1
  9
$ANGBASE
 50
0.0
  9
$ANGDIR
 70
     0
  9
$PDMODE
 70
     3
  9
$PDSIZE
 40
-2.0
  9
$PLINEWID
 40
0.0
  9
$COORDS
 70
     0
  9
$SPLFRAME
 70
     0
  9
$SPLINETYPE
 70
     6
  9
$SPLINESEGS
 70
     8
  9
$ATTDIA
 70
     0
  9
$ATTREQ
 70
     1
  9
$HANDLING
 70
     1
  9
$HANDSEED
  5
19C
  9
$SURFTAB1
 70
     6
  9
$SURFTAB2
 70
     6
  9
$SURFTYPE
 70
     6
  9
$SURFU
 70
     6
  9
$SURFV
 70
     6
  9
$UCSNAME
  2

  9
$UCSORG
 10
0.0
 20
0.0
 30
0.0
  9
$UCSXDIR
 10
1.0
 20
0.0
 30
0.0
  9
$UCSYDIR
 10
0.0
 20
1.0
 30
0.0
  9
$PUCSNAME
  2

  9
$PUCSORG
 10
0.0
 20
0.0
 30
0.0
  9
$PUCSXDIR
 10
1.0
 20
0.0
 30
0.0
  9
$PUCSYDIR
 10
0.0
 20
1.0
 30
0.0
  9
$USERI1
 70
     0
  9
$USERI2
 70
     0
  9
$USERI3
 70
     0
  9
$USERI4
 70
     0
  9
$USERI5
 70
     0
  9
$USERR1
 40
20.0
  9
$USERR2
 40
0.0
  9
$USERR3
 40
0.0
  9
$USERR4
 40
0.0
  9
$USERR5
 40
0.0
  9
$WORLDVIEW
 70
     1
  9
$SHADEDGE
 70
     3
  9
$SHADEDIF
 70
    70
  9
$TILEMODE
 70
     1
  9
$MAXACTVP
 70
    48
  9
$PLIMCHECK
 70
     0
  9
$PEXTMIN
 10
-1.0000000000000000E+020
 20
-1.0000000000000000E+020
 30
-1.0000000000000000E+020
  9
$PEXTMAX
 10
1.0000000000000000E+020
 20
1.0000000000000000E+020
 30
1.0000000000000000E+020
  9
$PLIMMIN
 10
0.0
 20
0.0
  9
$PLIMMAX
 10
12.0
 20
9.0
  9
$UNITMODE
 70
     0
  9
$VISRETAIN
 70
     0
  9
$PLINEGEN
 70
     0
  9
$PSLTSCALE
 70
     0
  0
ENDSEC
  0
SECTION
  2
TABLES
  0
TABLE
  2
VPORT
 70
     1
  0
VPORT
  2
*ACTIVE
 70
     0
 10
0.0
 20
0.0
 11
1.0
 21
1.0
 12
299.84003284015392
 22
52.685747989249762
 13
0.0
 23
0.0
 14
1.0
 24
1.0
 15
0.0
 25
0.0
 16
0.0
 26
0.0
 36
1.0
 17
0.0
 27
0.0
 37
0.0
 40
943.3386319342037
 41
1.3098995695839311
 42
50.0
 43
0.0
 44
0.0
 50
0.0
 51
0.0
 71
     0
 72
  1000
 73
     1
 74
     0
 75
     0
 76
     0
 77
     0
 78
     0
  0
ENDTAB
  0
TABLE
  2
LTYPE
 70
     3
  0
LTYPE
  2
CONTINUOUS
 70
     0
  3
実線
 72
    65
 73
     0
 40
0.0
  0
LTYPE
  2
DASHDOT
 70
     0
  3
____ _ ____ _ ____ _ ____ _ ____ _ ____ _ ____
 72
    65
 73
     4
 40
5.5
 49
4.0
 49
-0.6
 49
0.3
 49
-0.6
  0
ENDTAB
  0
TABLE
  2
LAYER
 70
    12
  0
LAYER
  2
0
 70
     0
 62
     7
  6
CONTINUOUS
  0
LAYER
  2
SIZE
 70
     0
 62
    30
  6
CONTINUOUS
  0
LAYER
  2
BASIS
 70
     0
 62
     6
  6
DASHDOT
  0
LAYER
  2
OUTLINE
 70
     0
 62
     3
  6
CONTINUOUS
  0
LAYER
  2
DETAIL
 70
     0
 62
     5
  6
CONTINUOUS
  0
LAYER
  2
ARRANGE
 70
     0
 62
     1
  6
CONTINUOUS
  0
LAYER
  2
DEFPOINTS
 70
     0
 62
     7
  6
CONTINUOUS
  0
LAYER
  2
ETC
 70
     0
 62
    61
  6
CONTINUOUS
  0
LAYER
  2
NOTE
 70
     0
 62
     4
  6
CONTINUOUS
  0
LAYER
  2
FIX
 70
     0
 62
    11
  6
CONTINUOUS
  0
LAYER
  2
SERVICESPACE
 70
     0
 62
     2
  6
DASHDOT
  0
LAYER
  2
SYMBOLLINE
 70
     0
 62
    15
  6
CONTINUOUS
  0
ENDTAB
  0
TABLE
  2
STYLE
 70
     2
  0
STYLE
  2
STANDARD
 70
     0
 40
64.0
 41
0.9
 50
0.0
 71
     0
 42
64.0
  3
SIMPLEX.shx
  4
BIGFONT.shx
  0
STYLE
  2
ANNOTATIVE
 70
     0
 40
0.0
 41
1.0
 50
0.0
 71
     0
 42
0.2
  3
txt
  4

  0
ENDTAB
  0
TABLE
  2
VIEW
 70
     1
  0
VIEW
  2
ALL
 70
     0
 40
4282.6198079999986
 10
0.0
 20
41.309903999999989
 41
5940.0
 11
0.0
 21
0.0
 31
1.0
 12
0.0
 22
0.0
 32
0.0
 42
50.0
 43
0.0
 44
0.0
 50
0.0
 71
     0
  0
ENDTAB
  0
TABLE
  2
UCS
 70
     0
  0
ENDTAB
  0
TABLE
  2
APPID
 70
    17
  0
APPID
  2
ACAD
 70
     0
  0
APPID
  2
ACADANNOTATIVE
 70
     0
  0
APPID
  2
ACAD_MLEADERVER
 70
     0
  0
APPID
  2
AUTOCAD_POSTSCRIPT_FIGURE
 70
     0
  0
APPID
  2
ACAD_EXEMPT_FROM_CAD_STANDARDS
 70
     0
  0
APPID
  2
ACAD_PSEXT
 70
     0
  0
APPID
  2
ACAUTHENVIRON
 70
     0
  0
APPID
  2
GENIUS_GENOENT_13
 70
     0
  0
APPID
  2
GENIUS_GENCFG_13
 70
     0
  0
APPID
  2
GENIUS_GENCFG0_13
 70
     0
  0
APPID
  2
GENIUS_GENCFG1_13
 70
     0
  0
APPID
  2
GENIUS_GENCFG2_13
 70
     0
  0
APPID
  2
GENIUS_GENCFG3_13
 70
     0
  0
APPID
  2
GENIUS_GENCFG4_13
 70
     0
  0
APPID
  2
GENIUS_GEVCFG0_13
 70
     0
  0
APPID
  2
CONTENTBLOCKICON
 70
     0
  0
APPID
  2
CONTENTBLOCKDESCRIPTION
 70
     0
  0
ENDTAB
  0
TABLE
  2
DIMSTYLE
 70
     2
  0
DIMSTYLE
  2
STANDARD
 70
     0
  3

  4

  5

  6

  7

 40
1.0
 41
0.18
 42
0.0625
 43
0.38
 44
0.18
 45
0.0
 46
0.0
 47
0.0
 48
0.0
140
0.18
141
0.09
142
0.0
143
25.399999999999999
144
1.0
145
0.0
146
1.0
147
0.09
 71
     0
 72
     0
 73
     1
 74
     1
 75
     0
 76
     0
 77
     0
 78
     0
170
     0
171
     2
172
     0
173
     0
174
     0
175
     0
176
     7
177
     7
178
     7
  0
DIMSTYLE
  2
ANNOTATIVE
 70
     0
  3

  4

  5

  6

  7

 40
1.0
 41
0.18
 42
0.0625
 43
0.38
 44
0.18
 45
0.0
 46
0.0
 47
0.0
 48
0.0
140
0.18
141
0.09
142
0.0
143
25.399999999999999
144
1.0
145
0.0
146
1.0
147
0.09
 71
     0
 72
     0
 73
     1
 74
     1
 75
     0
 76
     0
 77
     0
 78
     0
170
     0
171
     2
172
     0
173
     0
174
     0
175
     0
176
     0
177
     0
178
     0
  0
ENDTAB
  0
ENDSEC
  0
SECTION
  2
BLOCKS
  0
BLOCK
  8
0
  2
$MODEL_SPACE
 70
     0
 10
0.0
 20
0.0
 30
0.0
  3
$MODEL_SPACE
  1

  0
ENDBLK
  5
76
  8
0
  0
BLOCK
 67
     1
  8
0
  2
$PAPER_SPACE
 70
     0
 10
0.0
 20
0.0
 30
0.0
  3
$PAPER_SPACE
  1

  0
ENDBLK
  5
72
 67
     1
  8
0
  0
BLOCK
  8
0
  2
DOT1
 70
     0
 10
0.0
 20
0.0
 30
0.0
  3
DOT1
  1

  0
CIRCLE
  5
99
  8
SIZE
  6
CONTINUOUS
 62
     7
 10
0.0
 20
0.0
 30
0.0
 40
3.0
  0
ENDBLK
  5
9A
  8
0
  0
BLOCK
  8
0
  2
_ORIGIN
 70
     0
 10
0.0
 20
0.0
 30
0.0
  3
_ORIGIN
  1

  0
CIRCLE
  5
9D
  8
0
  6
CONTINUOUS
 62
     7
 10
0.0
 20
0.0
 30
0.0
 40
0.5
  0
LINE
  5
9E
  8
0
  6
CONTINUOUS
 62
     7
 10
0.0
 20
0.0
 30
0.0
 11
-1.0
 21
0.0
 31
0.0
  0
ENDBLK
  5
9F
  8
0
  0
ENDSEC
  0
SECTION
  2
ENTITIES
  0
CIRCLE
  5
A3
  8
ARRANGE
  6
CONTINUOUS
 62
     1
 10
0.0
 20
0.0
 30
0.0
 40
40.0
  0
POINT
  5
A4
  8
ARRANGE
  6
CONTINUOUS
 62
     1
 10
0.0
 20
0.0
 30
0.0
 39
50.0
  0
LINE
  5
A5
  8
BASIS
  6
DASHDOT
 62
     6
 39
50.0
 10
0.0
 20
-144.812037
 30
0.0
 11
0.0
 21
116.560338
 31
0.0
  0
LINE
  5
A6
  8
BASIS
  6
DASHDOT
 62
     6
 39
50.0
 10
119.143478
 20
0.0
 30
0.0
 11
-109.999972
 21
0.0
 31
0.0
  0
LINE
  5
A7
  8
NOTE
  6
CONTINUOUS
 62
     4
 39
50.0
 10
-88.121994999999998
 20
-108.181563
 30
0.0
 11
-158.539512
 21
-86.878985999999998
 31
0.0
  0
LINE
  5
A8
  8
NOTE
  6
CONTINUOUS
 62
     4
 39
50.0
 10
-251.54983300000001
 20
-86.878985999999998
 30
0.0
 11
-158.539512
 21
-86.878985999999998
 31
0.0
  0
TEXT
  5
A9
  8
NOTE
  6
CONTINUOUS
 62
     4
 10
-251.64776900000001
 20
-81.024876000000006
 30
0.0
 40
40.0
  1
ネジ
 41
0.9
  0
LINE
  5
AA
  8
OUTLINE
  6
CONTINUOUS
 62
     3
 10
-99.999975000000006
 20
92.999977000000001
 30
0.0
 11
-99.999975000000006
 21
-106.999973
 31
0.0
  0
LINE
  5
AB
  8
OUTLINE
  6
CONTINUOUS
 62
     3
 10
-108.999973
 20
-119.85007299999999
 30
0.0
 11
-108.999973
 21
-119.85007299999999
 31
0.0
  0
LINE
  5
AC
  8
OUTLINE
  6
CONTINUOUS
 62
     3
 10
0.0
 20
-127.102822
 30
0.0
 11
-108.999973
 21
-127.102822
 31
0.0
  0
LINE
  5
AD
  8
OUTLINE
  6
CONTINUOUS
 62
     3
 10
-90.999977000000015
 20
-117.999971
 30
0.0
 11
-108.999973
 21
-117.999971
 31
0.0
  0
LINE
  5
AE
  8
OUTLINE
  6
CONTINUOUS
 62
     3
 10
-109.999973
 20
-126.102822
 30
0.0
 11
-109.999973
 21
-109.986549
 31
0.0
  0
LINE
  5
AF
  8
OUTLINE
  6
CONTINUOUS
 62
     3
 10
-109.499973
 20
-119.85007299999999
 30
0.0
 11
-109.499973
 21
-109.986549
 31
0.0
  0
ARC
  5
B0
  8
OUTLINE
  6
CONTINUOUS
 62
     3
 10
-108.999973
 20
-126.102822
 30
0.0
 40
1.0
 50
180.0
 51
270.0
  0
LINE
  5
B1
  8
OUTLINE
  6
CONTINUOUS
 62
     3
 10
-108.999973
 20
-119.85007299999999
 30
0.0
 11
-108.999973
 21
-117.999971
 31
0.0
  0
LINE
  5
B2
  8
OUTLINE
  6
CONTINUOUS
 62
     3
 10
-108.999973
 20
-119.85007299999999
 30
0.0
 11
-109.499973
 21
-119.85007299999999
 31
0.0
  0
LINE
  5
B3
  8
OUTLINE
  6
CONTINUOUS
 62
     3
 10
-109.999973
 20
-109.986549
 30
0.0
 11
-109.499973
 21
-109.986549
 31
0.0
  0
LINE
  5
B4
  8
OUTLINE
  6
CONTINUOUS
 62
     3
 10
-90.999977000000015
 20
-117.499971
 30
0.0
 11
-98.499975000000006
 21
-117.499971
 31
0.0
  0
LINE
  5
B5
  8
OUTLINE
  6
CONTINUOUS
 62
     3
 10
-98.499975000000006
 20
-117.499971
 30
0.0
 11
-98.499975000000006
 21
-106.999973
 31
0.0
  0
LINE
  5
B6
  8
OUTLINE
  6
CONTINUOUS
 62
     3
 10
-90.999977000000015
 20
-117.499971
 30
0.0
 11
-90.999977000000015
 21
-117.999971
 31
0.0
  0
LINE
  5
B7
  8
OUTLINE
  6
CONTINUOUS
 62
     3
 10
-98.999975000000006
 20
-106.999973
 30
0.0
 11
-99.49997500000002
 21
-106.999973
 31
0.0
  0
LINE
  5
B8
  8
OUTLINE
  6
CONTINUOUS
 62
     3
 10
-99.49997500000002
 20
92.999977000000001
 30
0.0
 11
0.0
 21
92.999977000000001
 31
0.0
  0
LINE
  5
B9
  8
OUTLINE
  6
CONTINUOUS
 62
     3
 10
-92.499976999999987
 20
92.999977000000001
 30
0.0
 11
0.0
 21
92.999977000000001
 31
0.0
  0
LINE
  5
BA
  8
OUTLINE
  6
CONTINUOUS
 62
     3
 10
-99.999975000000006
 20
92.499976999999987
 30
0.0
 11
-99.999975000000006
 21
92.999977000000001
 31
0.0
  0
LINE
  5
BB
  8
OUTLINE
  6
CONTINUOUS
 62
     3
 10
-99.49997500000002
 20
92.999977000000001
 30
0.0
 11
-99.999975000000006
 21
92.999977000000001
 31
0.0
  0
LINE
  5
BC
  8
DETAIL
  6
CONTINUOUS
 62
     5
 10
-99.999975000000006
 20
92.999977000000001
 30
0.0
 11
-99.999975000000006
 21
-106.999973
 31
0.0
  0
LINE
  5
BD
  8
DETAIL
  6
CONTINUOUS
 62
     5
 10
-70.999981999999989
 20
-106.999973
 30
0.0
 11
-70.999981999999989
 21
92.999977000000001
 31
0.0
  0
LINE
  5
BE
  8
DETAIL
  6
CONTINUOUS
 62
     5
 10
-89.499977999999999
 20
-106.999973
 30
0.0
 11
-89.499977999999999
 21
92.999977000000001
 31
0.0
  0
LINE
  5
BF
  8
DETAIL
  6
CONTINUOUS
 62
     5
 10
-79.999980000000008
 20
-106.999973
 30
0.0
 11
-79.999980000000008
 21
92.999977000000001
 31
0.0
  0
LINE
  5
C0
  8
DETAIL
  6
CONTINUOUS
 62
     5
 10
0.0
 20
-116.499971
 30
0.0
 11
-79.999980000000008
 21
-116.499971
 31
0.0
  0
LINE
  5
C1
  8
DETAIL
  6
CONTINUOUS
 62
     5
 10
0.0
 20
-116.999971
 30
0.0
 11
-79.999980000000008
 21
-116.999971
 31
0.0
  0
LINE
  5
C2
  8
DETAIL
  6
CONTINUOUS
 62
     5
 10
0.0
 20
-120.200177
 30
0.0
 11
-109.499973
 21
-120.200177
 31
0.0
  0
LINE
  5
C3
  8
DETAIL
  6
CONTINUOUS
 62
     5
 10
0.0
 20
-119.85007299999999
 30
0.0
 11
-108.999973
 21
-119.85007299999999
 31
0.0
  0
LINE
  5
C4
  8
DETAIL
  6
CONTINUOUS
 62
     5
 10
0.0
 20
-126.57073200000001
 30
0.0
 11
-108.999973
 21
-126.57073200000001
 31
0.0
  0
LINE
  5
C5
  8
DETAIL
  6
CONTINUOUS
 62
     5
 10
0.0
 20
-127.102822
 30
0.0
 11
-108.999973
 21
-127.102822
 31
0.0
  0
LINE
  5
C6
  8
DETAIL
  6
CONTINUOUS
 62
     5
 10
0.0
 20
-106.999973
 30
0.0
 11
-99.999975000000006
 21
-106.999973
 31
0.0
  0
LINE
  5
C7
  8
NOTE
  6
CONTINUOUS
 62
     4
 10
-88.121994999999998
 20
-108.181563
 30
0.0
 11
-93.509077000000005
 21
-107.984903
 31
0.0
  0
LINE
  5
C8
  8
NOTE
  6
CONTINUOUS
 62
     4
 10
-92.517978999999997
 20
-105.24175
 30
0.0
 11
-88.121994999999998
 21
-108.181563
 31
0.0
  0
LINE
  5
C9
  8
DETAIL
  6
CONTINUOUS
 62
     5
 10
-90.999977000000015
 20
-117.999971
 30
0.0
 11
-108.999973
 21
-117.999971
 31
0.0
  0
LINE
  5
CA
  8
DETAIL
  6
CONTINUOUS
 62
     5
 10
-109.999972
 20
-126.102822
 30
0.0
 11
-109.999972
 21
-109.986549
 31
0.0
  0
LINE
  5
CB
  8
DETAIL
  6
CONTINUOUS
 62
     5
 10
-109.499973
 20
-126.07073200000001
 30
0.0
 11
-109.499973
 21
-109.986549
 31
0.0
  0
ARC
  5
CC
  8
DETAIL
  6
CONTINUOUS
 62
     5
 10
-108.999973
 20
-126.102822
 30
0.0
 40
1.0
 50
180.0
 51
270.0
  0
ARC
  5
CD
  8
DETAIL
  6
CONTINUOUS
 62
     5
 10
-108.999973
 20
-126.07073200000001
 30
0.0
 40
0.5
 50
180.0
 51
270.0
  0
LINE
  5
CE
  8
DETAIL
  6
CONTINUOUS
 62
     5
 10
-108.999973
 20
-119.85007299999999
 30
0.0
 11
-108.999973
 21
-117.999971
 31
0.0
  0
LINE
  5
CF
  8
DETAIL
  6
CONTINUOUS
 62
     5
 10
-108.999973
 20
-119.85007299999999
 30
0.0
 11
-109.499973
 21
-119.85007299999999
 31
0.0
  0
LINE
  5
D0
  8
DETAIL
  6
CONTINUOUS
 62
     5
 10
-109.999972
 20
-109.986549
 30
0.0
 11
-109.499973
 21
-109.986549
 31
0.0
  0
LINE
  5
D1
  8
DETAIL
  6
CONTINUOUS
 62
     5
 10
-79.999980000000008
 20
-106.999973
 30
0.0
 11
-92.254756999999998
 21
-106.999973
 31
0.0
  0
LINE
  5
D2
  8
DETAIL
  6
CONTINUOUS
 62
     5
 10
-79.999980000000008
 20
-117.499971
 30
0.0
 11
-98.499975000000006
 21
-117.499971
 31
0.0
  0
LINE
  5
D3
  8
DETAIL
  6
CONTINUOUS
 62
     5
 10
-79.999980000000008
 20
-116.999971
 30
0.0
 11
-98.499975000000006
 21
-116.999971
 31
0.0
  0
LINE
  5
D4
  8
DETAIL
  6
CONTINUOUS
 62
     5
 10
-98.499975000000006
 20
-117.499971
 30
0.0
 11
-98.499975000000006
 21
-106.999973
 31
0.0
  0
LINE
  5
D5
  8
DETAIL
  6
CONTINUOUS
 62
     5
 10
-90.999977000000015
 20
-117.499971
 30
0.0
 11
-90.999977000000015
 21
-117.999971
 31
0.0
  0
LINE
  5
D6
  8
DETAIL
  6
CONTINUOUS
 62
     5
 10
-98.999975000000006
 20
-106.999973
 30
0.0
 11
-99.49997500000002
 21
-106.999973
 31
0.0
  0
LINE
  5
D7
  8
DETAIL
  6
CONTINUOUS
 62
     5
 10
-79.999980000000008
 20
-106.999973
 30
0.0
 11
-79.999980000000008
 21
-117.499971
 31
0.0
  0
LINE
  5
D8
  8
DETAIL
  6
CONTINUOUS
 62
     5
 10
-86.949543999999975
 20
-109.05040200000001
 30
0.0
 11
-84.050413000000006
 21
-111.94954300000001
 31
0.0
  0
LINE
  5
D9
  8
DETAIL
  6
CONTINUOUS
 62
     5
 10
-84.050408000000004
 20
-109.05040700000001
 30
0.0
 11
-86.949549000000005
 21
-111.949538
 31
0.0
  0
CIRCLE
  5
DA
  8
DETAIL
  6
CONTINUOUS
 62
     5
 10
-85.49997900000001
 20
-110.499972
 30
0.0
 40
3.499998999999999
  0
CIRCLE
  5
DB
  8
DETAIL
  6
CONTINUOUS
 62
     5
 10
-85.49997900000001
 20
-110.499972
 30
0.0
 40
3.499998999999999
  0
LINE
  5
DC
  8
DETAIL
  6
CONTINUOUS
 62
     5
 10
0.0
 20
95.499976000000004
 30
0.0
 11
-90.999977000000015
 21
95.499976000000004
 31
0.0
  0
LINE
  5
DD
  8
DETAIL
  6
CONTINUOUS
 62
     5
 10
0.0
 20
95.499976000000004
 30
0.0
 11
-90.999977000000015
 21
95.499976000000004
 31
0.0
  0
LINE
  5
DE
  8
DETAIL
  6
CONTINUOUS
 62
     5
 10
-99.999975000000006
 20
92.999977000000001
 30
0.0
 11
0.0
 21
92.999977000000001
 31
0.0
  0
LINE
  5
DF
  8
DETAIL
  6
CONTINUOUS
 62
     5
 10
-92.499976999999987
 20
92.999977000000001
 30
0.0
 11
0.0
 21
92.999977000000001
 31
0.0
  0
ARC
  5
E0
  8
DETAIL
  6
CONTINUOUS
 62
     5
 10
-90.999977000000015
 20
92.499976999999987
 30
0.0
 40
2.9999989999999999
 50
90.0
 51
163.39845
  0
ARC
  5
E1
  8
DETAIL
  6
CONTINUOUS
 62
     5
 10
-90.999977000000015
 20
92.499976999999987
 30
0.0
 40
2.9999989999999999
 50
90.0
 51
163.39845
  0
ARC
  5
E2
  8
DETAIL
  6
CONTINUOUS
 62
     5
 10
-94.354079999999996
 20
93.499977000000015
 30
0.0
 40
0.5
 50
270.0
 51
343.39845000000003
  0
LINE
  5
E3
  8
DETAIL
  6
CONTINUOUS
 62
     5
 10
99.999975000000006
 20
92.999977000000001
 30
0.0
 11
99.999975000000006
 21
-106.999973
 31
0.0
  0
LINE
  5
E4
  8
DETAIL
  6
CONTINUOUS
 62
     5
 10
70.999981999999989
 20
-106.999973
 30
0.0
 11
70.999981999999989
 21
92.999977000000001
 31
0.0
  0
LINE
  5
E5
  8
DETAIL
  6
CONTINUOUS
 62
     5
 10
89.499977999999999
 20
-106.999973
 30
0.0
 11
89.499977999999999
 21
92.999977000000001
 31
0.0
  0
LINE
  5
E6
  8
DETAIL
  6
CONTINUOUS
 62
     5
 10
79.999980000000008
 20
-106.999973
 30
0.0
 11
79.999980000000008
 21
92.999977000000001
 31
0.0
  0
LINE
  5
E7
  8
DETAIL
  6
CONTINUOUS
 62
     5
 10
0.0
 20
-116.499971
 30
0.0
 11
79.999980000000008
 21
-116.499971
 31
0.0
  0
LINE
  5
E8
  8
DETAIL
  6
CONTINUOUS
 62
     5
 10
0.0
 20
-116.999971
 30
0.0
 11
79.999980000000008
 21
-116.999971
 31
0.0
  0
LINE
  5
E9
  8
DETAIL
  6
CONTINUOUS
 62
     5
 10
0.0
 20
-120.200177
 30
0.0
 11
109.499973
 21
-120.200177
 31
0.0
  0
LINE
  5
EA
  8
DETAIL
  6
CONTINUOUS
 62
     5
 10
0.0
 20
-119.85007299999999
 30
0.0
 11
108.999973
 21
-119.85007299999999
 31
0.0
  0
LINE
  5
EB
  8
DETAIL
  6
CONTINUOUS
 62
     5
 10
0.0
 20
-126.57073200000001
 30
0.0
 11
108.999973
 21
-126.57073200000001
 31
0.0
  0
LINE
  5
EC
  8
DETAIL
  6
CONTINUOUS
 62
     5
 10
0.0
 20
-127.102822
 30
0.0
 11
108.999973
 21
-127.102822
 31
0.0
  0
LINE
  5
ED
  8
DETAIL
  6
CONTINUOUS
 62
     5
 10
0.0
 20
-106.999973
 30
0.0
 11
99.999975000000006
 21
-106.999973
 31
0.0
  0
LINE
  5
EE
  8
DETAIL
  6
CONTINUOUS
 62
     5
 10
90.999977000000015
 20
-117.999971
 30
0.0
 11
108.999973
 21
-117.999971
 31
0.0
  0
LINE
  5
EF
  8
DETAIL
  6
CONTINUOUS
 62
     5
 10
109.999972
 20
-126.102822
 30
0.0
 11
109.999972
 21
-109.986549
 31
0.0
  0
LINE
  5
F0
  8
DETAIL
  6
CONTINUOUS
 62
     5
 10
109.499973
 20
-126.07073200000001
 30
0.0
 11
109.499973
 21
-109.986549
 31
0.0
  0
ARC
  5
F1
  8
DETAIL
  6
CONTINUOUS
 62
     5
 10
108.999973
 20
-126.102822
 30
0.0
 40
1.0
 50
270.0
 51
0.0
  0
ARC
  5
F2
  8
DETAIL
  6
CONTINUOUS
 62
     5
 10
108.999973
 20
-126.07073200000001
 30
0.0
 40
0.5
 50
270.0
 51
0.0
  0
LINE
  5
F3
  8
DETAIL
  6
CONTINUOUS
 62
     5
 10
108.999973
 20
-119.85007299999999
 30
0.0
 11
108.999973
 21
-117.999971
 31
0.0
  0
LINE
  5
F4
  8
DETAIL
  6
CONTINUOUS
 62
     5
 10
108.999973
 20
-119.85007299999999
 30
0.0
 11
109.499973
 21
-119.85007299999999
 31
0.0
  0
LINE
  5
F5
  8
DETAIL
  6
CONTINUOUS
 62
     5
 10
109.999972
 20
-109.986549
 30
0.0
 11
109.499973
 21
-109.986549
 31
0.0
  0
LINE
  5
F6
  8
DETAIL
  6
CONTINUOUS
 62
     5
 10
79.999980000000008
 20
-106.999973
 30
0.0
 11
92.254756999999998
 21
-106.999973
 31
0.0
  0
LINE
  5
F7
  8
DETAIL
  6
CONTINUOUS
 62
     5
 10
79.999980000000008
 20
-117.499971
 30
0.0
 11
98.499975000000006
 21
-117.499971
 31
0.0
  0
LINE
  5
F8
  8
DETAIL
  6
CONTINUOUS
 62
     5
 10
79.999980000000008
 20
-116.999971
 30
0.0
 11
98.499975000000006
 21
-116.999971
 31
0.0
  0
LINE
  5
F9
  8
DETAIL
  6
CONTINUOUS
 62
     5
 10
98.499975000000006
 20
-117.499971
 30
0.0
 11
98.499975000000006
 21
-106.999973
 31
0.0
  0
LINE
  5
FA
  8
DETAIL
  6
CONTINUOUS
 62
     5
 10
90.999977000000015
 20
-117.499971
 30
0.0
 11
90.999977000000015
 21
-117.999971
 31
0.0
  0
LINE
  5
FB
  8
DETAIL
  6
CONTINUOUS
 62
     5
 10
98.999975000000006
 20
-106.999973
 30
0.0
 11
99.49997500000002
 21
-106.999973
 31
0.0
  0
LINE
  5
FC
  8
DETAIL
  6
CONTINUOUS
 62
     5
 10
79.999980000000008
 20
-106.999973
 30
0.0
 11
79.999980000000008
 21
-117.499971
 31
0.0
  0
LINE
  5
FD
  8
DETAIL
  6
CONTINUOUS
 62
     5
 10
86.949543999999975
 20
-109.05040200000001
 30
0.0
 11
84.050413000000006
 21
-111.94954300000001
 31
0.0
  0
LINE
  5
FE
  8
DETAIL
  6
CONTINUOUS
 62
     5
 10
84.050408000000004
 20
-109.05040700000001
 30
0.0
 11
86.949549000000005
 21
-111.949538
 31
0.0
  0
CIRCLE
  5
FF
  8
DETAIL
  6
CONTINUOUS
 62
     5
 10
85.49997900000001
 20
-110.499972
 30
0.0
 40
3.499998999999999
  0
CIRCLE
  5
100
  8
DETAIL
  6
CONTINUOUS
 62
     5
 10
85.49997900000001
 20
-110.499972
 30
0.0
 40
3.499998999999999
  0
LINE
  5
101
  8
DETAIL
  6
CONTINUOUS
 62
     5
 10
0.0
 20
95.499976000000004
 30
0.0
 11
90.999977000000015
 21
95.499976000000004
 31
0.0
  0
LINE
  5
102
  8
DETAIL
  6
CONTINUOUS
 62
     5
 10
0.0
 20
95.499976000000004
 30
0.0
 11
90.999977000000015
 21
95.499976000000004
 31
0.0
  0
LINE
  5
103
  8
DETAIL
  6
CONTINUOUS
 62
     5
 10
99.999975000000006
 20
92.999977000000001
 30
0.0
 11
0.0
 21
92.999977000000001
 31
0.0
  0
LINE
  5
104
  8
DETAIL
  6
CONTINUOUS
 62
     5
 10
92.499976999999987
 20
92.999977000000001
 30
0.0
 11
0.0
 21
92.999977000000001
 31
0.0
  0
ARC
  5
105
  8
DETAIL
  6
CONTINUOUS
 62
     5
 10
90.999977000000015
 20
92.499976999999987
 30
0.0
 40
2.9999989999999999
 50
16.60155
 51
90.0
  0
ARC
  5
106
  8
DETAIL
  6
CONTINUOUS
 62
     5
 10
90.999977000000015
 20
92.499976999999987
 30
0.0
 40
2.9999989999999999
 50
16.60155
 51
90.0
  0
ARC
  5
107
  8
DETAIL
  6
CONTINUOUS
 62
     5
 10
94.354079999999996
 20
93.499977000000015
 30
0.0
 40
0.5
 50
196.60155
 51
270.0
  0
LINE
  5
108
  8
OUTLINE
  6
CONTINUOUS
 62
     3
 10
-98.499975000000006
 20
-106.999973
 30
0.0
 11
-99.999975000000006
 21
-106.999973
 31
0.0
  0
LINE
  5
109
  8
OUTLINE
  6
CONTINUOUS
 62
     3
 10
99.999975000000006
 20
92.999977000000001
 30
0.0
 11
99.999975000000006
 21
-106.999973
 31
0.0
  0
LINE
  5
10A
  8
OUTLINE
  6
CONTINUOUS
 62
     3
 10
108.999973
 20
-119.85007299999999
 30
0.0
 11
108.999973
 21
-119.85007299999999
 31
0.0
  0
LINE
  5
10B
  8
OUTLINE
  6
CONTINUOUS
 62
     3
 10
0.0
 20
-127.102822
 30
0.0
 11
108.999973
 21
-127.102822
 31
0.0
  0
LINE
  5
10C
  8
OUTLINE
  6
CONTINUOUS
 62
     3
 10
90.999977000000015
 20
-117.999971
 30
0.0
 11
108.999973
 21
-117.999971
 31
0.0
  0
LINE
  5
10D
  8
OUTLINE
  6
CONTINUOUS
 62
     3
 10
109.999972
 20
-126.102822
 30
0.0
 11
109.999972
 21
-109.986549
 31
0.0
  0
LINE
  5
10E
  8
OUTLINE
  6
CONTINUOUS
 62
     3
 10
109.499973
 20
-119.85007299999999
 30
0.0
 11
109.499973
 21
-109.986549
 31
0.0
  0
ARC
  5
10F
  8
OUTLINE
  6
CONTINUOUS
 62
     3
 10
108.999973
 20
-126.102822
 30
0.0
 40
1.0
 50
270.0
 51
0.0
  0
LINE
  5
110
  8
OUTLINE
  6
CONTINUOUS
 62
     3
 10
108.999973
 20
-119.85007299999999
 30
0.0
 11
108.999973
 21
-117.999971
 31
0.0
  0
LINE
  5
111
  8
OUTLINE
  6
CONTINUOUS
 62
     3
 10
108.999973
 20
-119.85007299999999
 30
0.0
 11
109.499973
 21
-119.85007299999999
 31
0.0
  0
LINE
  5
112
  8
OUTLINE
  6
CONTINUOUS
 62
     3
 10
109.999972
 20
-109.986549
 30
0.0
 11
109.499973
 21
-109.986549
 31
0.0
  0
LINE
  5
113
  8
OUTLINE
  6
CONTINUOUS
 62
     3
 10
90.999977000000015
 20
-117.499971
 30
0.0
 11
98.499975000000006
 21
-117.499971
 31
0.0
  0
LINE
  5
114
  8
OUTLINE
  6
CONTINUOUS
 62
     3
 10
98.499975000000006
 20
-117.499971
 30
0.0
 11
98.499975000000006
 21
-106.999973
 31
0.0
  0
LINE
  5
115
  8
OUTLINE
  6
CONTINUOUS
 62
     3
 10
90.999977000000015
 20
-117.499971
 30
0.0
 11
90.999977000000015
 21
-117.999971
 31
0.0
  0
LINE
  5
116
  8
OUTLINE
  6
CONTINUOUS
 62
     3
 10
98.999975000000006
 20
-106.999973
 30
0.0
 11
99.49997500000002
 21
-106.999973
 31
0.0
  0
LINE
  5
117
  8
OUTLINE
  6
CONTINUOUS
 62
     3
 10
99.49997500000002
 20
92.999977000000001
 30
0.0
 11
0.0
 21
92.999977000000001
 31
0.0
  0
LINE
  5
118
  8
OUTLINE
  6
CONTINUOUS
 62
     3
 10
92.499976999999987
 20
92.999977000000001
 30
0.0
 11
0.0
 21
92.999977000000001
 31
0.0
  0
LINE
  5
119
  8
OUTLINE
  6
CONTINUOUS
 62
     3
 10
99.999975000000006
 20
92.499976999999987
 30
0.0
 11
99.999975000000006
 21
92.999977000000001
 31
0.0
  0
LINE
  5
11A
  8
OUTLINE
  6
CONTINUOUS
 62
     3
 10
99.49997500000002
 20
92.999977000000001
 30
0.0
 11
99.999975000000006
 21
92.999977000000001
 31
0.0
  0
LINE
  5
11B
  8
OUTLINE
  6
CONTINUOUS
 62
     3
 10
98.499975000000006
 20
-106.999973
 30
0.0
 11
99.999975000000006
 21
-106.999973
 31
0.0
  0
LINE
  5
11C
  8
SIZE
  6
CONTINUOUS
 62
    30
 10
-123.333327
 20
92.999936999999989
 30
0.0
 11
-187.83681999999999
 21
92.999936999999989
 31
0.0
  0
LINE
  5
11D
  8
SIZE
  6
CONTINUOUS
 62
    30
 10
-129.99997200000001
 20
0.0
 30
0.0
 11
-187.83681999999999
 21
0.0
 31
0.0
  0
LINE
  5
11E
  8
SIZE
  6
CONTINUOUS
 62
    30
 10
-167.83681999999999
 20
104.999937
 30
0.0
 11
-167.83681999999999
 21
116.999937
 31
0.0
  0
LINE
  5
11F
  8
SIZE
  6
CONTINUOUS
 62
    30
 10
-167.83681999999999
 20
-12.0
 30
0.0
 11
-167.83681999999999
 21
-24.0
 31
0.0
  0
LINE
  5
120
  8
SIZE
  6
CONTINUOUS
 62
    30
 10
-167.83681999999999
 20
92.999936999999989
 30
0.0
 11
-167.83681999999999
 21
0.0
 31
0.0
  0
CIRCLE
  5
121
  8
SIZE
  6
CONTINUOUS
 62
    30
 10
-167.83681999999999
 20
92.999936999999989
 30
0.0
 40
6.0
  0
LINE
  5
122
  8
SIZE
  6
CONTINUOUS
 62
    30
 10
-167.83681999999999
 20
92.999936999999989
 30
0.0
 11
-167.83681999999999
 21
104.999937
 31
0.0
  0
CIRCLE
  5
123
  8
SIZE
  6
CONTINUOUS
 62
    30
 10
-167.83681999999999
 20
0.0
 30
0.0
 40
6.0
  0
LINE
  5
124
  8
SIZE
  6
CONTINUOUS
 62
    30
 10
-167.83681999999999
 20
0.0
 30
0.0
 11
-167.83681999999999
 21
-12.0
 31
0.0
  0
TEXT
  5
125
  8
SIZE
  6
CONTINUOUS
 62
    30
 10
-192.83681999999999
 20
-0.1286034285714237
 30
0.0
 40
64.0
  1
93
 50
90.0
 41
0.9
 72
     1
 11
-192.83681999999999
 21
46.499968000000003
 31
0.0
  0
POINT
  5
126
  8
DEFPOINTS
  6
CONTINUOUS
 62
    30
 10
-103.333327
 20
92.999936999999989
 30
0.0
  0
POINT
  5
127
  8
DEFPOINTS
  6
CONTINUOUS
 62
    30
 10
-109.999972
 20
0.0
 30
0.0
  0
POINT
  5
128
  8
DEFPOINTS
  6
CONTINUOUS
 62
    30
 10
-167.83681999999999
 20
0.0
 30
0.0
  0
LINE
  5
129
  8
SIZE
  6
CONTINUOUS
 62
    30
 10
-99.999995000000013
 20
116.333269
 30
0.0
 11
-99.999995000000013
 21
187.756992
 31
0.0
  0
LINE
  5
12A
  8
SIZE
  6
CONTINUOUS
 62
    30
 10
99.999995000000013
 20
116.333269
 30
0.0
 11
99.999995000000013
 21
187.756992
 31
0.0
  0
LINE
  5
12B
  8
SIZE
  6
CONTINUOUS
 62
    30
 10
-87.999994999999998
 20
167.756992
 30
0.0
 11
87.999994999999998
 21
167.756992
 31
0.0
  0
CIRCLE
  5
12C
  8
SIZE
  6
CONTINUOUS
 62
    30
 10
-99.999995000000013
 20
167.756992
 30
0.0
 40
6.0
  0
LINE
  5
12D
  8
SIZE
  6
CONTINUOUS
 62
    30
 10
-99.999995000000013
 20
167.756992
 30
0.0
 11
-87.999994999999998
 21
167.756992
 31
0.0
  0
CIRCLE
  5
12E
  8
SIZE
  6
CONTINUOUS
 62
    30
 10
99.999995000000013
 20
167.756992
 30
0.0
 40
6.0
  0
LINE
  5
12F
  8
SIZE
  6
CONTINUOUS
 62
    30
 10
99.999995000000013
 20
167.756992
 30
0.0
 11
87.999994999999998
 21
167.756992
 31
0.0
  0
TEXT
  5
130
  8
SIZE
  6
CONTINUOUS
 62
    30
 10
-74.05714285714285
 20
192.756992
 30
0.0
 40
64.0
  1
200
 41
0.9
 72
     1
 11
0.0
 21
192.756992
 31
0.0
  0
POINT
  5
131
  8
DEFPOINTS
  6
CONTINUOUS
 62
    30
 10
-99.999995000000013
 20
96.333269000000001
 30
0.0
  0
POINT
  5
132
  8
DEFPOINTS
  6
CONTINUOUS
 62
    30
 10
99.999995000000013
 20
96.333269000000001
 30
0.0
  0
POINT
  5
133
  8
DEFPOINTS
  6
CONTINUOUS
 62
    30
 10
99.999995000000013
 20
167.756992
 30
0.0
  0
LINE
  5
134
  8
SIZE
  6
CONTINUOUS
 62
    30
 10
-109.99999200000001
 20
-149.43612400000001
 30
0.0
 11
-109.99999200000001
 21
-300.88734499999998
 31
0.0
  0
LINE
  5
135
  8
SIZE
  6
CONTINUOUS
 62
    30
 10
109.99999200000001
 20
-149.43612400000001
 30
0.0
 11
109.99999200000001
 21
-300.88734499999998
 31
0.0
  0
LINE
  5
136
  8
SIZE
  6
CONTINUOUS
 62
    30
 10
-97.99999200000002
 20
-280.88734499999998
 30
0.0
 11
97.99999200000002
 21
-280.88734499999998
 31
0.0
  0
CIRCLE
  5
137
  8
SIZE
  6
CONTINUOUS
 62
    30
 10
-109.99999200000001
 20
-280.88734499999998
 30
0.0
 40
6.0
  0
LINE
  5
138
  8
SIZE
  6
CONTINUOUS
 62
    30
 10
-109.99999200000001
 20
-280.88734499999998
 30
0.0
 11
-97.99999200000002
 21
-280.88734499999998
 31
0.0
  0
CIRCLE
  5
139
  8
SIZE
  6
CONTINUOUS
 62
    30
 10
109.99999200000001
 20
-280.88734499999998
 30
0.0
 40
6.0
  0
LINE
  5
13A
  8
SIZE
  6
CONTINUOUS
 62
    30
 10
109.99999200000001
 20
-280.88734499999998
 30
0.0
 11
97.99999200000002
 21
-280.88734499999998
 31
0.0
  0
TEXT
  5
13B
  8
SIZE
  6
CONTINUOUS
 62
    30
 10
-74.05714285714285
 20
-255.88734500000001
 30
0.0
 40
64.0
  1
220
 41
0.9
 72
     1
 11
0.0
 21
-255.88734500000001
 31
0.0
  0
POINT
  5
13C
  8
DEFPOINTS
  6
CONTINUOUS
 62
    30
 10
-109.99999200000001
 20
-129.43612400000001
 30
0.0
  0
POINT
  5
13D
  8
DEFPOINTS
  6
CONTINUOUS
 62
    30
 10
109.99999200000001
 20
-129.43612400000001
 30
0.0
  0
POINT
  5
13E
  8
DEFPOINTS
  6
CONTINUOUS
 62
    30
 10
109.99999200000001
 20
-280.88734499999998
 30
0.0
  0
LINE
  5
13F
  8
SIZE
  6
CONTINUOUS
 62
    30
 10
119.99997500000001
 20
92.999977000000001
 30
0.0
 11
277.29208699999998
 21
92.999977000000001
 31
0.0
  0
LINE
  5
140
  8
SIZE
  6
CONTINUOUS
 62
    30
 10
119.99997500000001
 20
-106.999973
 30
0.0
 11
277.29208699999998
 21
-106.999973
 31
0.0
  0
LINE
  5
141
  8
SIZE
  6
CONTINUOUS
 62
    30
 10
257.29208699999998
 20
80.999977000000015
 30
0.0
 11
257.29208699999998
 21
-94.999972999999997
 31
0.0
  0
CIRCLE
  5
142
  8
SIZE
  6
CONTINUOUS
 62
    30
 10
257.29208699999998
 20
92.999977000000001
 30
0.0
 40
6.0
  0
LINE
  5
143
  8
SIZE
  6
CONTINUOUS
 62
    30
 10
257.29208699999998
 20
92.999977000000001
 30
0.0
 11
257.29208699999998
 21
80.999977000000015
 31
0.0
  0
CIRCLE
  5
144
  8
SIZE
  6
CONTINUOUS
 62
    30
 10
257.29208699999998
 20
-106.999973
 30
0.0
 40
6.0
  0
LINE
  5
145
  8
SIZE
  6
CONTINUOUS
 62
    30
 10
257.29208699999998
 20
-106.999973
 30
0.0
 11
257.29208699999998
 21
-94.999972999999997
 31
0.0
  0
TEXT
  5
146
  8
SIZE
  6
CONTINUOUS
 62
    30
 10
232.29208700000001
 20
-81.057140857142855
 30
0.0
 40
64.0
  1
200
 50
90.0
 41
0.9
 72
     1
 11
232.29208700000001
 21
-6.9999979999999988
 31
0.0
  0
POINT
  5
147
  8
DEFPOINTS
  6
CONTINUOUS
 62
    30
 10
99.999975000000006
 20
92.999977000000001
 30
0.0
  0
POINT
  5
148
  8
DEFPOINTS
  6
CONTINUOUS
 62
    30
 10
99.999975000000006
 20
-106.999973
 30
0.0
  0
POINT
  5
149
  8
DEFPOINTS
  6
CONTINUOUS
 62
    30
 10
257.29208699999998
 20
-106.999973
 30
0.0
  0
LINE
  5
14A
  8
SIZE
  6
CONTINUOUS
 62
    30
 10
119.99997500000001
 20
-106.999973
 30
0.0
 11
277.29208699999998
 21
-106.999973
 31
0.0
  0
LINE
  5
14B
  8
SIZE
  6
CONTINUOUS
 62
    30
 10
124.643259
 20
-128.102822
 30
0.0
 11
277.29208699999998
 21
-128.102822
 31
0.0
  0
LINE
  5
14C
  8
SIZE
  6
CONTINUOUS
 62
    30
 10
257.29208699999998
 20
-94.999972999999997
 30
0.0
 11
257.29208699999998
 21
-82.999972999999983
 31
0.0
  0
LINE
  5
14D
  8
SIZE
  6
CONTINUOUS
 62
    30
 10
257.29208699999998
 20
-140.102822
 30
0.0
 11
257.29208699999998
 21
-270.67424999999997
 31
0.0
  0
LINE
  5
14E
  8
SIZE
  6
CONTINUOUS
 62
    30
 10
257.29208699999998
 20
-106.999973
 30
0.0
 11
257.29208699999998
 21
-128.102822
 31
0.0
  0
CIRCLE
  5
14F
  8
SIZE
  6
CONTINUOUS
 62
    30
 10
257.29208699999998
 20
-106.999973
 30
0.0
 40
6.0
  0
LINE
  5
150
  8
SIZE
  6
CONTINUOUS
 62
    30
 10
257.29208699999998
 20
-106.999973
 30
0.0
 11
257.29208699999998
 21
-94.999972999999997
 31
0.0
  0
CIRCLE
  5
151
  8
SIZE
  6
CONTINUOUS
 62
    30
 10
257.29208699999998
 20
-128.102822
 30
0.0
 40
6.0
  0
LINE
  5
152
  8
SIZE
  6
CONTINUOUS
 62
    30
 10
257.29208699999998
 20
-128.102822
 30
0.0
 11
257.29208699999998
 21
-140.102822
 31
0.0
  0
TEXT
  5
153
  8
SIZE
  6
CONTINUOUS
 62
    30
 10
232.29208700000001
 20
-245.67425028571429
 30
0.0
 40
64.0
  1
21
 50
90.0
 41
0.9
 72
     1
 11
232.29208700000001
 21
-211.38853599999999
 31
0.0
  0
POINT
  5
154
  8
DEFPOINTS
  6
CONTINUOUS
 62
    30
 10
99.999975000000006
 20
-106.999973
 30
0.0
  0
POINT
  5
155
  8
DEFPOINTS
  6
CONTINUOUS
 62
    30
 10
104.643259
 20
-128.102822
 30
0.0
  0
POINT
  5
156
  8
DEFPOINTS
  6
CONTINUOUS
 62
    30
 10
257.29208699999998
 20
-128.102822
 30
0.0
  0
TEXT
  5
15F
  8
ETC
  6
CONTINUOUS
 62
    61
 10
207.23171257748231
 20
380.23746659216317
 30
0.0
 40
40.0
  1
P-18JSD_2
 41
0.9
  0
TEXT
  5
160
  8
ETC
  6
CONTINUOUS
 62
    61
 10
203.04571857748229
 20
319.54118759216323
 30
0.0
 40
40.0
  1
システム部材
 41
0.9
  0
TEXT
  5
161
  8
ETC
  6
CONTINUOUS
 62
    61
 10
253.65322157748221
 20
237.67107659216319
 30
0.0
 40
40.0
  1
P-18JSD
 41
0.9
  0
TEXT
  5
162
  8
ETC
  6
CONTINUOUS
 62
    61
 10
253.65322157748221
 20
177.45344954305551
 30
0.0
 40
40.0
  1
P-18JSQD
 41
0.9
  0
ENDSEC
  0
EOF
