  0
SECTION
  2
HEADER
  9
$ACADVER
  1
AC1009
  9
$INSBASE
 10
0.0
 20
0.0
 30
0.0
  9
$EXTMIN
 10
-367.53385765190978
 20
-300.24718050873707
 30
-0.0030518556252446
  9
$EXTMAX
 10
806.67115388981802
 20
599.85352365748622
 30
50.003052088470113
  9
$LIMMIN
 10
-2970.0
 20
-2100.0
  9
$LIMMAX
 10
2970.0
 20
2100.0
  9
$ORTHOMODE
 70
     1
  9
$REGENMODE
 70
     1
  9
$FILLMODE
 70
     1
  9
$QTEXTMODE
 70
     0
  9
$MIRRTEXT
 70
     0
  9
$DRAGMODE
 70
     2
  9
$LTSCALE
 40
20.0
  9
$OSMODE
 70
    37
  9
$ATTMODE
 70
     1
  9
$TEXTSIZE
 40
64.0
  9
$TRACEWID
 40
0.05
  9
$TEXTSTYLE
  7
STANDARD
  9
$CLAYER
  8
NOTE
  9
$CELTYPE
  6
CONTINUOUS
  9
$CECOLOR
 62
     7
  9
$DIMSCALE
 40
1.0
  9
$DIMASZ
 40
12.0
  9
$DIMEXO
 40
20.0
  9
$DIMDLI
 40
200.0
  9
$DIMRND
 40
0.0
  9
$DIMDLE
 40
0.0
  9
$DIMEXE
 40
20.0
  9
$DIMTP
 40
0.0
  9
$DIMTM
 40
0.0
  9
$DIMTXT
 40
64.0
  9
$DIMCEN
 40
0.09
  9
$DIMTSZ
 40
0.0
  9
$DIMTOL
 70
     0
  9
$DIMLIM
 70
     0
  9
$DIMTIH
 70
     0
  9
$DIMTOH
 70
     0
  9
$DIMSE1
 70
     0
  9
$DIMSE2
 70
     0
  9
$DIMTAD
 70
     1
  9
$DIMZIN
 70
     8
  9
$DIMBLK
  1
DOT1
  9
$DIMASO
 70
     1
  9
$DIMSHO
 70
     0
  9
$DIMPOST
  1

  9
$DIMAPOST
  1

  9
$DIMALT
 70
     0
  9
$DIMALTD
 70
     2
  9
$DIMALTF
 40
25.399999999999999
  9
$DIMLFAC
 40
1.0
  9
$DIMTOFL
 70
     1
  9
$DIMTVP
 40
0.0
  9
$DIMTIX
 70
     1
  9
$DIMSOXD
 70
     0
  9
$DIMSAH
 70
     1
  9
$DIMBLK1
  1
ORIGIN
  9
$DIMBLK2
  1
ORIGIN
  9
$DIMSTYLE
  2
STANDARD
  9
$DIMCLRD
 70
     7
  9
$DIMCLRE
 70
     7
  9
$DIMCLRT
 70
     7
  9
$DIMTFAC
 40
1.0
  9
$DIMGAP
 40
25.0
  9
$LUNITS
 70
     2
  9
$LUPREC
 70
     4
  9
$SKETCHINC
 40
0.1
  9
$FILLETRAD
 40
3.0
  9
$AUNITS
 70
     1
  9
$AUPREC
 70
     3
  9
$MENU
  1
ACAD
  9
$ELEVATION
 40
0.0
  9
$PELEVATION
 40
0.0
  9
$THICKNESS
 40
50.0
  9
$LIMCHECK
 70
     0
  9
$BLIPMODE
 70
     0
  9
$CHAMFERA
 40
0.0
  9
$CHAMFERB
 40
0.0
  9
$SKPOLY
 70
     0
  9
$TDCREATE
 40
2453019.6230103709
  9
$TDUPDATE
 40
2454963.58680904
  9
$TDINDWG
 40
1.6351553008999999
  9
$TDUSRTIMER
 40
1.6351553008999999
  9
$USRTIMER
 70
     1
  9
$ANGBASE
 50
0.0
  9
$ANGDIR
 70
     0
  9
$PDMODE
 70
     3
  9
$PDSIZE
 40
-2.0
  9
$PLINEWID
 40
0.0
  9
$COORDS
 70
     0
  9
$SPLFRAME
 70
     0
  9
$SPLINETYPE
 70
     6
  9
$SPLINESEGS
 70
     8
  9
$ATTDIA
 70
     0
  9
$ATTREQ
 70
     1
  9
$HANDLING
 70
     1
  9
$HANDSEED
  5
2F8
  9
$SURFTAB1
 70
     6
  9
$SURFTAB2
 70
     6
  9
$SURFTYPE
 70
     6
  9
$SURFU
 70
     6
  9
$SURFV
 70
     6
  9
$UCSNAME
  2

  9
$UCSORG
 10
0.0
 20
0.0
 30
0.0
  9
$UCSXDIR
 10
1.0
 20
0.0
 30
0.0
  9
$UCSYDIR
 10
0.0
 20
1.0
 30
0.0
  9
$PUCSNAME
  2

  9
$PUCSORG
 10
0.0
 20
0.0
 30
0.0
  9
$PUCSXDIR
 10
1.0
 20
0.0
 30
0.0
  9
$PUCSYDIR
 10
0.0
 20
1.0
 30
0.0
  9
$USERI1
 70
     0
  9
$USERI2
 70
     0
  9
$USERI3
 70
     0
  9
$USERI4
 70
     0
  9
$USERI5
 70
     0
  9
$USERR1
 40
20.0
  9
$USERR2
 40
0.0
  9
$USERR3
 40
0.0
  9
$USERR4
 40
0.0
  9
$USERR5
 40
0.0
  9
$WORLDVIEW
 70
     1
  9
$SHADEDGE
 70
     3
  9
$SHADEDIF
 70
    70
  9
$TILEMODE
 70
     1
  9
$MAXACTVP
 70
    48
  9
$PLIMCHECK
 70
     0
  9
$PEXTMIN
 10
-1.0000000000000000E+020
 20
-1.0000000000000000E+020
 30
-1.0000000000000000E+020
  9
$PEXTMAX
 10
1.0000000000000000E+020
 20
1.0000000000000000E+020
 30
1.0000000000000000E+020
  9
$PLIMMIN
 10
0.0
 20
0.0
  9
$PLIMMAX
 10
12.0
 20
9.0
  9
$UNITMODE
 70
     0
  9
$VISRETAIN
 70
     0
  9
$PLINEGEN
 70
     0
  9
$PSLTSCALE
 70
     0
  0
ENDSEC
  0
SECTION
  2
TABLES
  0
TABLE
  2
VPORT
 70
     1
  0
VPORT
  2
*ACTIVE
 70
     0
 10
0.0
 20
0.0
 11
1.0
 21
1.0
 12
218.7464156120482
 22
125.92549497435181
 13
0.0
 23
0.0
 14
1.0
 24
1.0
 15
0.0
 25
0.0
 16
0.0
 26
0.0
 36
1.0
 17
0.0
 27
0.0
 37
0.0
 40
1019.618436713507
 41
1.3098995695839311
 42
50.0
 43
0.0
 44
0.0
 50
0.0
 51
0.0
 71
     0
 72
  1000
 73
     1
 74
     0
 75
     0
 76
     0
 77
     0
 78
     0
  0
ENDTAB
  0
TABLE
  2
LTYPE
 70
     3
  0
LTYPE
  2
CONTINUOUS
 70
     0
  3
実線
 72
    65
 73
     0
 40
0.0
  0
LTYPE
  2
DASHDOT
 70
     0
  3
____ _ ____ _ ____ _ ____ _ ____ _ ____ _ ____
 72
    65
 73
     4
 40
5.5
 49
4.0
 49
-0.6
 49
0.3
 49
-0.6
  0
ENDTAB
  0
TABLE
  2
LAYER
 70
    12
  0
LAYER
  2
0
 70
     0
 62
     7
  6
CONTINUOUS
  0
LAYER
  2
NOTE
 70
     0
 62
     4
  6
CONTINUOUS
  0
LAYER
  2
BASIS
 70
     0
 62
     6
  6
DASHDOT
  0
LAYER
  2
OUTLINE
 70
     0
 62
     3
  6
CONTINUOUS
  0
LAYER
  2
DETAIL
 70
     0
 62
     5
  6
CONTINUOUS
  0
LAYER
  2
SIZE
 70
     0
 62
    30
  6
CONTINUOUS
  0
LAYER
  2
ARRANGE
 70
     0
 62
     1
  6
CONTINUOUS
  0
LAYER
  2
DEFPOINTS
 70
     0
 62
     7
  6
CONTINUOUS
  0
LAYER
  2
ETC
 70
     0
 62
    61
  6
CONTINUOUS
  0
LAYER
  2
FIX
 70
     0
 62
    11
  6
CONTINUOUS
  0
LAYER
  2
SERVICESPACE
 70
     0
 62
     2
  6
DASHDOT
  0
LAYER
  2
SYMBOLLINE
 70
     0
 62
    15
  6
CONTINUOUS
  0
ENDTAB
  0
TABLE
  2
STYLE
 70
     2
  0
STYLE
  2
STANDARD
 70
     0
 40
64.0
 41
0.9
 50
0.0
 71
     0
 42
64.0
  3
SIMPLEX.shx
  4
BIGFONT.shx
  0
STYLE
  2
ANNOTATIVE
 70
     0
 40
0.0
 41
1.0
 50
0.0
 71
     0
 42
0.2
  3
txt
  4

  0
ENDTAB
  0
TABLE
  2
VIEW
 70
     1
  0
VIEW
  2
ALL
 70
     0
 40
4282.6198079999986
 10
0.0
 20
41.309903999999989
 41
5940.0
 11
0.0
 21
0.0
 31
1.0
 12
0.0
 22
0.0
 32
0.0
 42
50.0
 43
0.0
 44
0.0
 50
0.0
 71
     0
  0
ENDTAB
  0
TABLE
  2
UCS
 70
     0
  0
ENDTAB
  0
TABLE
  2
APPID
 70
    17
  0
APPID
  2
ACAD
 70
     0
  0
APPID
  2
ACADANNOTATIVE
 70
     0
  0
APPID
  2
ACAD_MLEADERVER
 70
     0
  0
APPID
  2
AUTOCAD_POSTSCRIPT_FIGURE
 70
     0
  0
APPID
  2
ACAD_EXEMPT_FROM_CAD_STANDARDS
 70
     0
  0
APPID
  2
ACAD_PSEXT
 70
     0
  0
APPID
  2
ACAUTHENVIRON
 70
     0
  0
APPID
  2
GENIUS_GENOENT_13
 70
     0
  0
APPID
  2
GENIUS_GENCFG_13
 70
     0
  0
APPID
  2
GENIUS_GENCFG0_13
 70
     0
  0
APPID
  2
GENIUS_GENCFG1_13
 70
     0
  0
APPID
  2
GENIUS_GENCFG2_13
 70
     0
  0
APPID
  2
GENIUS_GENCFG3_13
 70
     0
  0
APPID
  2
GENIUS_GENCFG4_13
 70
     0
  0
APPID
  2
GENIUS_GEVCFG0_13
 70
     0
  0
APPID
  2
CONTENTBLOCKICON
 70
     0
  0
APPID
  2
CONTENTBLOCKDESCRIPTION
 70
     0
  0
ENDTAB
  0
TABLE
  2
DIMSTYLE
 70
     2
  0
DIMSTYLE
  2
STANDARD
 70
     0
  3

  4

  5

  6

  7

 40
1.0
 41
0.18
 42
0.0625
 43
0.38
 44
0.18
 45
0.0
 46
0.0
 47
0.0
 48
0.0
140
0.18
141
0.09
142
0.0
143
25.399999999999999
144
1.0
145
0.0
146
1.0
147
0.09
 71
     0
 72
     0
 73
     1
 74
     1
 75
     0
 76
     0
 77
     0
 78
     0
170
     0
171
     2
172
     0
173
     0
174
     0
175
     0
176
     7
177
     7
178
     7
  0
DIMSTYLE
  2
ANNOTATIVE
 70
     0
  3

  4

  5

  6

  7

 40
1.0
 41
0.18
 42
0.0625
 43
0.38
 44
0.18
 45
0.0
 46
0.0
 47
0.0
 48
0.0
140
0.18
141
0.09
142
0.0
143
25.399999999999999
144
1.0
145
0.0
146
1.0
147
0.09
 71
     0
 72
     0
 73
     1
 74
     1
 75
     0
 76
     0
 77
     0
 78
     0
170
     0
171
     2
172
     0
173
     0
174
     0
175
     0
176
     0
177
     0
178
     0
  0
ENDTAB
  0
ENDSEC
  0
SECTION
  2
BLOCKS
  0
BLOCK
  8
0
  2
$MODEL_SPACE
 70
     0
 10
0.0
 20
0.0
 30
0.0
  3
$MODEL_SPACE
  1

  0
ENDBLK
  5
76
  8
0
  0
BLOCK
 67
     1
  8
0
  2
$PAPER_SPACE
 70
     0
 10
0.0
 20
0.0
 30
0.0
  3
$PAPER_SPACE
  1

  0
ENDBLK
  5
72
 67
     1
  8
0
  0
BLOCK
  8
0
  2
DOT1
 70
     0
 10
0.0
 20
0.0
 30
0.0
  3
DOT1
  1

  0
CIRCLE
  5
99
  8
SIZE
  6
CONTINUOUS
 62
     7
 10
0.0
 20
0.0
 30
0.0
 40
3.0
  0
ENDBLK
  5
9A
  8
0
  0
BLOCK
  8
0
  2
_ORIGIN
 70
     0
 10
0.0
 20
0.0
 30
0.0
  3
_ORIGIN
  1

  0
CIRCLE
  5
9D
  8
0
  6
CONTINUOUS
 62
     7
 10
0.0
 20
0.0
 30
0.0
 40
0.5
  0
LINE
  5
9E
  8
0
  6
CONTINUOUS
 62
     7
 10
0.0
 20
0.0
 30
0.0
 11
-1.0
 21
0.0
 31
0.0
  0
ENDBLK
  5
9F
  8
0
  0
ENDSEC
  0
SECTION
  2
ENTITIES
  0
CIRCLE
  5
A3
  8
ARRANGE
  6
CONTINUOUS
 62
     1
 10
0.0
 20
0.0
 30
0.0
 40
40.0
  0
POINT
  5
A4
  8
ARRANGE
  6
CONTINUOUS
 62
     1
 10
0.0
 20
0.0
 30
0.0
 39
50.0
  0
LINE
  5
A5
  8
BASIS
  6
DASHDOT
 62
     6
 39
50.0
 10
0.0
 20
-146.03332399999999
 30
0.0
 11
0.0
 21
113.740731
 31
0.0
  0
LINE
  5
A6
  8
BASIS
  6
DASHDOT
 62
     6
 39
50.0
 10
124.073921
 20
0.0
 30
0.0
 11
-115.105343
 21
0.0
 31
0.0
  0
LINE
  5
A7
  8
NOTE
  6
CONTINUOUS
 62
     4
 39
50.0
 10
84.999979000000025
 20
77.999981000000005
 30
0.0
 11
133.207708
 21
147.23294999999999
 31
0.0
  0
LINE
  5
A8
  8
NOTE
  6
CONTINUOUS
 62
     4
 39
50.0
 10
133.207708
 20
147.23294999999999
 30
0.0
 11
806.24830299999996
 21
147.23294999999999
 31
0.0
  0
TEXT
  5
A9
  8
NOTE
  6
CONTINUOUS
 62
     4
 10
162.13299799999999
 20
165.03406899999999
 30
0.0
 40
40.0
  1
4-φ4.5ノックアウト取付用穴
 41
0.9
  0
LINE
  5
AA
  8
OUTLINE
  6
CONTINUOUS
 62
     3
 10
99.49997500000002
 20
84.999979000000025
 30
0.0
 11
99.49997500000002
 21
-96.503703000000002
 31
0.0
  0
LINE
  5
AB
  8
OUTLINE
  6
CONTINUOUS
 62
     3
 10
98.499975000000006
 20
-96.503703000000002
 30
0.0
 11
98.499975000000006
 21
-114.999971
 31
0.0
  0
LINE
  5
AC
  8
OUTLINE
  6
CONTINUOUS
 62
     3
 10
0.0
 20
-127.102822
 30
0.0
 11
108.999973
 21
-127.102822
 31
0.0
  0
LINE
  5
AD
  8
OUTLINE
  6
CONTINUOUS
 62
     3
 10
90.999977000000015
 20
-117.999971
 30
0.0
 11
108.999973
 21
-117.999971
 31
0.0
  0
LINE
  5
AE
  8
OUTLINE
  6
CONTINUOUS
 62
     3
 10
97.499976000000004
 20
-115.999971
 30
0.0
 11
90.999977000000015
 21
-115.999971
 31
0.0
  0
LINE
  5
AF
  8
OUTLINE
  6
CONTINUOUS
 62
     3
 10
90.999977000000015
 20
-115.999971
 30
0.0
 11
90.999977000000015
 21
-117.999971
 31
0.0
  0
ARC
  5
B0
  8
OUTLINE
  6
CONTINUOUS
 62
     3
 10
97.499976000000004
 20
-114.999971
 30
0.0
 40
1.0
 50
270.0
 51
0.0
  0
LINE
  5
B1
  8
OUTLINE
  6
CONTINUOUS
 62
     3
 10
109.999973
 20
-126.102822
 30
0.0
 11
109.999973
 21
-109.986549
 31
0.0
  0
LINE
  5
B2
  8
OUTLINE
  6
CONTINUOUS
 62
     3
 10
109.499973
 20
-119.85007299999999
 30
0.0
 11
109.499973
 21
-109.986549
 31
0.0
  0
ARC
  5
B3
  8
OUTLINE
  6
CONTINUOUS
 62
     3
 10
108.999973
 20
-126.102822
 30
0.0
 40
1.0
 50
270.0
 51
0.0
  0
LINE
  5
B4
  8
OUTLINE
  6
CONTINUOUS
 62
     3
 10
108.999973
 20
-119.85007299999999
 30
0.0
 11
109.499973
 21
-119.85007299999999
 31
0.0
  0
LINE
  5
B5
  8
OUTLINE
  6
CONTINUOUS
 62
     3
 10
108.999973
 20
-119.85007299999999
 30
0.0
 11
108.999973
 21
-117.99997399999999
 31
0.0
  0
LINE
  5
B6
  8
OUTLINE
  6
CONTINUOUS
 62
     3
 10
109.999973
 20
-109.986549
 30
0.0
 11
109.499973
 21
-109.986549
 31
0.0
  0
LINE
  5
B7
  8
OUTLINE
  6
CONTINUOUS
 62
     3
 10
98.499975000000006
 20
-96.503703000000002
 30
0.0
 11
99.49997500000002
 21
-96.503703000000002
 31
0.0
  0
LINE
  5
B8
  8
OUTLINE
  6
CONTINUOUS
 62
     3
 10
98.499975000000006
 20
92.499976999999987
 30
0.0
 11
0.0
 21
92.499976999999987
 31
0.0
  0
LINE
  5
B9
  8
OUTLINE
  6
CONTINUOUS
 62
     3
 10
98.499975000000006
 20
92.499976999999987
 30
0.0
 11
98.499975000000006
 21
84.999979000000025
 31
0.0
  0
LINE
  5
BA
  8
OUTLINE
  6
CONTINUOUS
 62
     3
 10
98.499975000000006
 20
92.499976999999987
 30
0.0
 11
98.499975000000006
 21
85.99997900000001
 31
0.0
  0
LINE
  5
BB
  8
OUTLINE
  6
CONTINUOUS
 62
     3
 10
98.499975000000006
 20
84.999979000000025
 30
0.0
 11
99.49997500000002
 21
84.999979000000025
 31
0.0
  0
LINE
  5
BC
  8
OUTLINE
  6
CONTINUOUS
 62
     3
 10
98.499975000000006
 20
92.499976999999987
 30
0.0
 11
94.458016000000015
 21
92.499976999999987
 31
0.0
  0
LINE
  5
BD
  8
OUTLINE
  6
CONTINUOUS
 62
     3
 10
98.499975000000006
 20
91.999977000000001
 30
0.0
 11
94.458016000000015
 21
91.999977000000001
 31
0.0
  0
ARC
  5
BE
  8
DETAIL
  6
CONTINUOUS
 62
     5
 10
0.0
 20
0.0
 30
0.0
 40
73.999981999999974
 50
5.3554009999999996
 51
90.0
  0
LINE
  5
BF
  8
DETAIL
  6
CONTINUOUS
 62
     5
 10
91.499977000000001
 20
83.999978999999996
 30
0.0
 11
91.499977000000001
 21
-115.999971
 31
0.0
  0
LINE
  5
C0
  8
DETAIL
  6
CONTINUOUS
 62
     5
 10
92.499976999999987
 20
83.999978999999996
 30
0.0
 11
92.499976999999987
 21
-115.999971
 31
0.0
  0
LINE
  5
C1
  8
DETAIL
  6
CONTINUOUS
 62
     5
 10
91.999977000000001
 20
83.999978999999996
 30
0.0
 11
91.999977000000001
 21
-96.503703000000002
 31
0.0
  0
LINE
  5
C2
  8
DETAIL
  6
CONTINUOUS
 62
     5
 10
99.49997500000002
 20
84.999979000000025
 30
0.0
 11
99.49997500000002
 21
-96.503703000000002
 31
0.0
  0
LINE
  5
C3
  8
DETAIL
  6
CONTINUOUS
 62
     5
 10
98.999975000000006
 20
84.999979000000025
 30
0.0
 11
98.999975000000006
 21
-96.503703000000002
 31
0.0
  0
ARC
  5
C4
  8
DETAIL
  6
CONTINUOUS
 62
     5
 10
0.0
 20
0.0
 30
0.0
 40
80.249980000000008
 50
270.0
 51
90.0
  0
ARC
  5
C5
  8
DETAIL
  6
CONTINUOUS
 62
     5
 10
0.0
 20
0.0
 30
0.0
 40
73.249981999999989
 50
270.0
 51
44.838163999999999
  0
ARC
  5
C6
  8
DETAIL
  6
CONTINUOUS
 62
     5
 10
0.0
 20
0.0
 30
0.0
 40
72.749981999999974
 50
270.0
 51
90.0
  0
ARC
  5
C7
  8
DETAIL
  6
CONTINUOUS
 62
     5
 10
0.0
 20
0.0
 30
0.0
 40
72.699981999999991
 50
270.0
 51
90.0
  0
ARC
  5
C8
  8
DETAIL
  6
CONTINUOUS
 62
     5
 10
0.0
 20
0.0
 30
0.0
 40
71.899981999999994
 50
270.0
 51
87.409251999999995
  0
ARC
  5
C9
  8
DETAIL
  6
CONTINUOUS
 62
     5
 10
0.0
 20
0.0
 30
0.0
 40
67.499983
 50
273.39729599999998
 51
86.602703999999989
  0
LINE
  5
CA
  8
DETAIL
  6
CONTINUOUS
 62
     5
 10
3.999998999999999
 20
68.499983
 30
0.0
 11
3.999998999999999
 21
4.499998999999999
 31
0.0
  0
LINE
  5
CB
  8
DETAIL
  6
CONTINUOUS
 62
     5
 10
3.199999
 20
68.499983
 30
0.0
 11
3.199999
 21
4.499998999999999
 31
0.0
  0
LINE
  5
CC
  8
DETAIL
  6
CONTINUOUS
 62
     5
 10
1.75
 20
9.2243509999999986
 30
0.0
 11
1.75
 21
19.299994999999999
 31
0.0
  0
LINE
  5
CD
  8
DETAIL
  6
CONTINUOUS
 62
     5
 10
98.499975000000006
 20
-96.503703000000002
 30
0.0
 11
98.499975000000006
 21
-114.999971
 31
0.0
  0
LINE
  5
CE
  8
DETAIL
  6
CONTINUOUS
 62
     5
 10
91.999977000000001
 20
-96.503703000000002
 30
0.0
 11
91.999977000000001
 21
-115.999971
 31
0.0
  0
LINE
  5
CF
  8
DETAIL
  6
CONTINUOUS
 62
     5
 10
0.0
 20
-120.200177
 30
0.0
 11
109.499973
 21
-120.200177
 31
0.0
  0
LINE
  5
D0
  8
DETAIL
  6
CONTINUOUS
 62
     5
 10
0.0
 20
-119.85007299999999
 30
0.0
 11
108.999973
 21
-119.85007299999999
 31
0.0
  0
LINE
  5
D1
  8
DETAIL
  6
CONTINUOUS
 62
     5
 10
0.0
 20
-126.57073200000001
 30
0.0
 11
108.999973
 21
-126.57073200000001
 31
0.0
  0
LINE
  5
D2
  8
DETAIL
  6
CONTINUOUS
 62
     5
 10
0.0
 20
-127.102822
 30
0.0
 11
108.999973
 21
-127.102822
 31
0.0
  0
LINE
  5
D3
  8
DETAIL
  6
CONTINUOUS
 62
     5
 10
0.0
 20
-116.999971
 30
0.0
 11
90.999977000000015
 21
-116.999971
 31
0.0
  0
LINE
  5
D4
  8
DETAIL
  6
CONTINUOUS
 62
     5
 10
0.0
 20
-116.499971
 30
0.0
 11
90.999977000000015
 21
-116.499971
 31
0.0
  0
LINE
  5
D5
  8
DETAIL
  6
CONTINUOUS
 62
     5
 10
90.999977000000015
 20
-117.999971
 30
0.0
 11
108.999973
 21
-117.999971
 31
0.0
  0
LINE
  5
D6
  8
DETAIL
  6
CONTINUOUS
 62
     5
 10
97.499976000000004
 20
-115.999971
 30
0.0
 11
90.999977000000015
 21
-115.999971
 31
0.0
  0
LINE
  5
D7
  8
DETAIL
  6
CONTINUOUS
 62
     5
 10
90.999977000000015
 20
-115.999971
 30
0.0
 11
90.999977000000015
 21
-117.999971
 31
0.0
  0
CIRCLE
  5
D8
  8
DETAIL
  6
CONTINUOUS
 62
     5
 10
85.49997900000001
 20
-110.499972
 30
0.0
 40
2.199999
  0
CIRCLE
  5
D9
  8
DETAIL
  6
CONTINUOUS
 62
     5
 10
85.49997900000001
 20
-110.499972
 30
0.0
 40
1.7
  0
ARC
  5
DA
  8
DETAIL
  6
CONTINUOUS
 62
     5
 10
97.499976000000004
 20
-114.999971
 30
0.0
 40
1.0
 50
270.0
 51
0.0
  0
LINE
  5
DB
  8
DETAIL
  6
CONTINUOUS
 62
     5
 10
109.999973
 20
-126.102822
 30
0.0
 11
109.999973
 21
-109.986549
 31
0.0
  0
LINE
  5
DC
  8
DETAIL
  6
CONTINUOUS
 62
     5
 10
109.499973
 20
-126.07073200000001
 30
0.0
 11
109.499973
 21
-109.986549
 31
0.0
  0
ARC
  5
DD
  8
DETAIL
  6
CONTINUOUS
 62
     5
 10
108.999973
 20
-126.102822
 30
0.0
 40
1.0
 50
270.0
 51
0.0
  0
ARC
  5
DE
  8
DETAIL
  6
CONTINUOUS
 62
     5
 10
108.999973
 20
-126.07073200000001
 30
0.0
 40
0.5
 50
270.0
 51
0.0
  0
LINE
  5
DF
  8
DETAIL
  6
CONTINUOUS
 62
     5
 10
108.999973
 20
-119.85007299999999
 30
0.0
 11
109.499973
 21
-119.85007299999999
 31
0.0
  0
LINE
  5
E0
  8
DETAIL
  6
CONTINUOUS
 62
     5
 10
108.999973
 20
-119.85007299999999
 30
0.0
 11
108.999973
 21
-117.99997399999999
 31
0.0
  0
LINE
  5
E1
  8
DETAIL
  6
CONTINUOUS
 62
     5
 10
109.999973
 20
-109.986549
 30
0.0
 11
109.499973
 21
-109.986549
 31
0.0
  0
ARC
  5
E2
  8
DETAIL
  6
CONTINUOUS
 62
     5
 10
0.0
 20
0.0
 30
0.0
 40
73.999981999999974
 50
270.0
 51
354.64459900000003
  0
LINE
  5
E3
  8
DETAIL
  6
CONTINUOUS
 62
     5
 10
36.803417000000003
 20
-73.745388000000005
 30
0.0
 11
32.294865000000001
 21
-65.936343999999991
 31
0.0
  0
LINE
  5
E4
  8
DETAIL
  6
CONTINUOUS
 62
     5
 10
41.155116
 20
-61.282755000000002
 30
0.0
 11
32.494865000000011
 21
-66.282753
 31
0.0
  0
LINE
  5
E5
  8
DETAIL
  6
CONTINUOUS
 62
     5
 10
40.955115999999997
 20
-60.936345000000003
 30
0.0
 11
32.294865000000001
 21
-65.936343999999991
 31
0.0
  0
LINE
  5
E6
  8
DETAIL
  6
CONTINUOUS
 62
     5
 10
3.999998999999999
 20
-4.499998999999999
 30
0.0
 11
3.999998999999999
 21
-68.499983
 31
0.0
  0
LINE
  5
E7
  8
DETAIL
  6
CONTINUOUS
 62
     5
 10
3.199999
 20
-4.499998999999999
 30
0.0
 11
3.199999
 21
-68.499983
 31
0.0
  0
LINE
  5
E8
  8
DETAIL
  6
CONTINUOUS
 62
     5
 10
2.5999989999999991
 20
-42.199989000000002
 30
0.0
 11
2.5999989999999991
 21
-64.199984000000001
 31
0.0
  0
ARC
  5
E9
  8
DETAIL
  6
CONTINUOUS
 62
     5
 10
0.0
 20
-76.799981000000002
 30
0.0
 40
1.75
 50
270.0
 51
90.0
  0
ARC
  5
EA
  8
DETAIL
  6
CONTINUOUS
 62
     5
 10
0.0
 20
-76.799981000000002
 30
0.0
 40
2.699999
 50
270.0
 51
90.0
  0
LINE
  5
EB
  8
DETAIL
  6
CONTINUOUS
 62
     5
 10
4.6686290000000001
 20
-68.799982999999997
 30
0.0
 11
0.0
 21
-68.799982999999997
 31
0.0
  0
LINE
  5
EC
  8
DETAIL
  6
CONTINUOUS
 62
     5
 10
0.0
 20
-64.199984000000001
 30
0.0
 11
2.5999989999999991
 21
-64.199984000000001
 31
0.0
  0
LINE
  5
ED
  8
DETAIL
  6
CONTINUOUS
 62
     5
 10
7.7133880000000001
 20
-71.182001999999997
 30
0.0
 11
5.7999989999999988
 21
-69.268608999999998
 31
0.0
  0
ARC
  5
EE
  8
DETAIL
  6
CONTINUOUS
 62
     5
 10
8.2790750000000006
 20
-70.616315999999998
 30
0.0
 40
0.8
 50
225.0
 51
276.686846
  0
ARC
  5
EF
  8
DETAIL
  6
CONTINUOUS
 62
     5
 10
4.6686290000000001
 20
-70.399981999999994
 30
0.0
 40
1.6000000000000001
 50
45.0
 51
90.0
  0
ARC
  5
F0
  8
DETAIL
  6
CONTINUOUS
 62
     5
 10
0.0
 20
0.0
 30
0.0
 40
67.499983
 50
271.485613
 51
272.717263
  0
LINE
  5
F1
  8
DETAIL
  6
CONTINUOUS
 62
     5
 10
3.199999
 20
-68.499983
 30
0.0
 11
3.999998999999999
 21
-68.499983
 31
0.0
  0
LINE
  5
F2
  8
DETAIL
  6
CONTINUOUS
 62
     5
 10
1.75
 20
-68.799982999999997
 30
0.0
 11
1.75
 21
-64.199984000000001
 31
0.0
  0
LINE
  5
F3
  8
DETAIL
  6
CONTINUOUS
 62
     5
 10
1.75
 20
-19.299994999999999
 30
0.0
 11
1.75
 21
-9.9353179999999988
 31
0.0
  0
LINE
  5
F4
  8
DETAIL
  6
CONTINUOUS
 62
     5
 10
3.199999
 20
-41.299990000000001
 30
0.0
 11
0.0
 21
-41.299990000000001
 31
0.0
  0
LINE
  5
F5
  8
DETAIL
  6
CONTINUOUS
 62
     5
 10
0.0
 20
-42.199989000000002
 30
0.0
 11
2.5999989999999991
 21
-42.199989000000002
 31
0.0
  0
LINE
  5
F6
  8
DETAIL
  6
CONTINUOUS
 62
     5
 10
1.75
 20
-42.199989000000002
 30
0.0
 11
1.75
 21
-41.299990000000001
 31
0.0
  0
LINE
  5
F7
  8
DETAIL
  6
CONTINUOUS
 62
     5
 10
3.199999
 20
-19.299994999999999
 30
0.0
 11
0.0
 21
-19.299994999999999
 31
0.0
  0
LINE
  5
F8
  8
DETAIL
  6
CONTINUOUS
 62
     5
 10
0.0
 20
-4.499998999999999
 30
0.0
 11
14.999995999999999
 21
-4.499998999999999
 31
0.0
  0
LINE
  5
F9
  8
DETAIL
  6
CONTINUOUS
 62
     5
 10
4.9799989999999994
 20
1.217743
 30
0.0
 11
13.487997
 21
-4.499998999999999
 31
0.0
  0
LINE
  5
FA
  8
DETAIL
  6
CONTINUOUS
 62
     5
 10
19.999994999999998
 20
4.499998999999999
 30
0.0
 11
0.0
 21
4.499998999999999
 31
0.0
  0
LINE
  5
FB
  8
DETAIL
  6
CONTINUOUS
 62
     5
 10
0.5
 20
-1.25
 30
0.0
 11
0.5
 21
-2.7499989999999999
 31
0.0
  0
LINE
  5
FC
  8
DETAIL
  6
CONTINUOUS
 62
     5
 10
3.199999
 20
2.413978999999999
 30
0.0
 11
3.199999
 21
-2.413975999999999
 31
0.0
  0
LINE
  5
FD
  8
DETAIL
  6
CONTINUOUS
 62
     5
 10
3.999998999999999
 20
1.876345999999999
 30
0.0
 11
3.999998999999999
 21
-1.8763430000000001
 31
0.0
  0
LINE
  5
FE
  8
DETAIL
  6
CONTINUOUS
 62
     5
 10
3.199999
 20
2.4999989999999999
 30
0.0
 11
3.199999
 21
-2.4999989999999999
 31
0.0
  0
LINE
  5
FF
  8
DETAIL
  6
CONTINUOUS
 62
     5
 10
4.9799989999999994
 20
2.4999989999999999
 30
0.0
 11
4.9799989999999994
 21
-2.4999989999999999
 31
0.0
  0
LINE
  5
100
  8
DETAIL
  6
CONTINUOUS
 62
     5
 10
3.999998999999999
 20
2.4999989999999999
 30
0.0
 11
3.999998999999999
 21
-2.4999989999999999
 31
0.0
  0
ARC
  5
101
  8
DETAIL
  6
CONTINUOUS
 62
     5
 10
2.4999989999999999
 20
-1.369289999999999
 30
0.0
 40
0.5
 50
262.87498399999998
 51
90.0
  0
ARC
  5
102
  8
DETAIL
  6
CONTINUOUS
 62
     5
 10
2.4999989999999999
 20
-2.3692889999999989
 30
0.0
 40
0.5
 50
335.13395300000002
 51
90.0
  0
LINE
  5
103
  8
DETAIL
  6
CONTINUOUS
 62
     5
 10
2.437983
 20
-1.8694259999999989
 30
0.0
 11
0.5
 21
-1.627179999999999
 31
0.0
  0
LINE
  5
104
  8
DETAIL
  6
CONTINUOUS
 62
     5
 10
0.5
 20
-2.7499989999999999
 30
0.0
 11
2.699999
 21
-2.7499989999999999
 31
0.0
  0
LINE
  5
105
  8
DETAIL
  6
CONTINUOUS
 62
     5
 10
0.0
 20
-9.9353179999999988
 30
0.0
 11
2.518996
 21
-9.9353179999999988
 31
0.0
  0
LINE
  5
106
  8
DETAIL
  6
CONTINUOUS
 62
     5
 10
2.437983
 20
-5.8694249999999988
 30
0.0
 11
0.0
 21
-5.564678999999999
 31
0.0
  0
LINE
  5
107
  8
DETAIL
  6
CONTINUOUS
 62
     5
 10
2.437983
 20
-6.8694249999999988
 30
0.0
 11
0.0
 21
-6.5646779999999989
 31
0.0
  0
LINE
  5
108
  8
DETAIL
  6
CONTINUOUS
 62
     5
 10
2.437983
 20
-7.8694249999999988
 30
0.0
 11
0.0
 21
-7.5646779999999989
 31
0.0
  0
LINE
  5
109
  8
DETAIL
  6
CONTINUOUS
 62
     5
 10
2.437983
 20
-8.8694240000000004
 30
0.0
 11
0.0
 21
-8.5646780000000007
 31
0.0
  0
LINE
  5
10A
  8
DETAIL
  6
CONTINUOUS
 62
     5
 10
2.437983
 20
-9.8694240000000004
 30
0.0
 11
0.0
 21
-9.5646780000000007
 31
0.0
  0
LINE
  5
10B
  8
DETAIL
  6
CONTINUOUS
 62
     5
 10
2.6672289999999998
 20
-4.8980819999999987
 30
0.0
 11
0.0
 21
-4.564678999999999
 31
0.0
  0
LINE
  5
10C
  8
DETAIL
  6
CONTINUOUS
 62
     5
 10
1.4825559999999991
 20
-2.7499989999999999
 30
0.0
 11
0.5
 21
-2.627178999999999
 31
0.0
  0
ARC
  5
10D
  8
DETAIL
  6
CONTINUOUS
 62
     5
 10
2.4999989999999999
 20
-9.3692879999999992
 30
0.0
 40
0.5
 50
262.87498399999998
 51
90.0
  0
ARC
  5
10E
  8
DETAIL
  6
CONTINUOUS
 62
     5
 10
2.4999989999999999
 20
-9.4356779999999993
 30
0.0
 40
0.5
 50
270.0
 51
3.8067299999999991
  0
LINE
  5
10F
  8
DETAIL
  6
CONTINUOUS
 62
     5
 10
2.699999
 20
-2.7499989999999999
 30
0.0
 11
3.199999
 21
-2.413975999999999
 31
0.0
  0
LINE
  5
110
  8
DETAIL
  6
CONTINUOUS
 62
     5
 10
4.9799989999999994
 20
-2.4999989999999999
 30
0.0
 11
3.199999
 21
-2.4999989999999999
 31
0.0
  0
ARC
  5
111
  8
DETAIL
  6
CONTINUOUS
 62
     5
 10
2.4999989999999999
 20
-8.3692879999999992
 30
0.0
 40
0.5
 50
262.87498399999998
 51
90.0
  0
ARC
  5
112
  8
DETAIL
  6
CONTINUOUS
 62
     5
 10
2.4999989999999999
 20
-7.3692880000000001
 30
0.0
 40
0.5
 50
262.87498399999998
 51
90.0
  0
ARC
  5
113
  8
DETAIL
  6
CONTINUOUS
 62
     5
 10
2.4999989999999999
 20
-6.3692880000000001
 30
0.0
 40
0.5
 50
262.87498399999998
 51
90.0
  0
ARC
  5
114
  8
DETAIL
  6
CONTINUOUS
 62
     5
 10
2.4999989999999999
 20
-5.3692890000000002
 30
0.0
 40
0.5
 50
262.87498399999998
 51
90.0
  0
ARC
  5
115
  8
DETAIL
  6
CONTINUOUS
 62
     5
 10
2.4999989999999999
 20
-4.3692890000000002
 30
0.0
 40
0.5
 50
262.87498399999998
 51
344.84559300000001
  0
LINE
  5
116
  8
DETAIL
  6
CONTINUOUS
 62
     5
 10
0.5
 20
2.7499989999999999
 30
0.0
 11
2.699999
 21
2.7499989999999999
 31
0.0
  0
LINE
  5
117
  8
DETAIL
  6
CONTINUOUS
 62
     5
 10
2.437983
 20
-0.8694259999999999
 30
0.0
 11
0.0
 21
-0.5646800000000001
 31
0.0
  0
LINE
  5
118
  8
DETAIL
  6
CONTINUOUS
 62
     5
 10
2.437983
 20
0.130573
 30
0.0
 11
0.0
 21
0.4353200000000001
 31
0.0
  0
LINE
  5
119
  8
DETAIL
  6
CONTINUOUS
 62
     5
 10
2.437983
 20
8.1305709999999998
 30
0.0
 11
0.0
 21
8.4353179999999988
 31
0.0
  0
LINE
  5
11A
  8
DETAIL
  6
CONTINUOUS
 62
     5
 10
2.6239129999999991
 20
9.1151110000000006
 30
0.0
 11
0.0
 21
9.4431009999999986
 31
0.0
  0
LINE
  5
11B
  8
DETAIL
  6
CONTINUOUS
 62
     5
 10
2.437983
 20
7.130571999999999
 30
0.0
 11
0.0
 21
7.4353179999999988
 31
0.0
  0
LINE
  5
11C
  8
DETAIL
  6
CONTINUOUS
 62
     5
 10
2.437983
 20
1.1305730000000001
 30
0.0
 11
0.5
 21
1.3728199999999999
 31
0.0
  0
LINE
  5
11D
  8
DETAIL
  6
CONTINUOUS
 62
     5
 10
2.437983
 20
2.1305730000000001
 30
0.0
 11
0.5
 21
2.3728189999999989
 31
0.0
  0
LINE
  5
11E
  8
DETAIL
  6
CONTINUOUS
 62
     5
 10
2.437983
 20
5.130571999999999
 30
0.0
 11
0.0
 21
5.4353189999999989
 31
0.0
  0
LINE
  5
11F
  8
DETAIL
  6
CONTINUOUS
 62
     5
 10
2.437983
 20
6.130571999999999
 30
0.0
 11
0.0
 21
6.4353179999999988
 31
0.0
  0
LINE
  5
120
  8
DETAIL
  6
CONTINUOUS
 62
     5
 10
0.0
 20
-1.25
 30
0.0
 11
0.5
 21
-1.25
 31
0.0
  0
LINE
  5
121
  8
DETAIL
  6
CONTINUOUS
 62
     5
 10
0.0
 20
1.25
 30
0.0
 11
0.5
 21
1.25
 31
0.0
  0
LINE
  5
122
  8
DETAIL
  6
CONTINUOUS
 62
     5
 10
0.5
 20
1.25
 30
0.0
 11
0.5
 21
2.7499989999999999
 31
0.0
  0
ARC
  5
123
  8
DETAIL
  6
CONTINUOUS
 62
     5
 10
2.4999989999999999
 20
5.6307089999999986
 30
0.0
 40
0.5
 50
262.87498399999998
 51
90.0
  0
LINE
  5
124
  8
DETAIL
  6
CONTINUOUS
 62
     5
 10
4.9799989999999994
 20
-1.21774
 30
0.0
 11
6.7919979999999986
 21
0.0
 31
0.0
  0
LINE
  5
125
  8
DETAIL
  6
CONTINUOUS
 62
     5
 10
2.699999
 20
2.7499989999999999
 30
0.0
 11
3.199999
 21
2.413978999999999
 31
0.0
  0
LINE
  5
126
  8
DETAIL
  6
CONTINUOUS
 62
     5
 10
4.9799989999999994
 20
2.4999989999999999
 30
0.0
 11
3.199999
 21
2.4999989999999999
 31
0.0
  0
ARC
  5
127
  8
DETAIL
  6
CONTINUOUS
 62
     5
 10
2.4999989999999999
 20
-0.36929
 30
0.0
 40
0.5
 50
262.87498399999998
 51
90.0
  0
ARC
  5
128
  8
DETAIL
  6
CONTINUOUS
 62
     5
 10
2.4999989999999999
 20
0.6307100000000001
 30
0.0
 40
0.5
 50
262.87498399999998
 51
90.0
  0
ARC
  5
129
  8
DETAIL
  6
CONTINUOUS
 62
     5
 10
2.4999989999999999
 20
1.6307100000000001
 30
0.0
 40
0.5
 50
262.87498399999998
 51
90.0
  0
ARC
  5
12A
  8
DETAIL
  6
CONTINUOUS
 62
     5
 10
2.4999989999999999
 20
2.6307089999999991
 30
0.0
 40
0.5
 50
262.87498399999998
 51
351.003221
  0
ARC
  5
12B
  8
DETAIL
  6
CONTINUOUS
 62
     5
 10
2.4999989999999999
 20
4.6307089999999986
 30
0.0
 40
0.5
 50
344.84559300000001
 51
90.0
  0
ARC
  5
12C
  8
DETAIL
  6
CONTINUOUS
 62
     5
 10
2.4999989999999999
 20
6.6307080000000003
 30
0.0
 40
0.5
 50
262.87498399999998
 51
90.0
  0
ARC
  5
12D
  8
DETAIL
  6
CONTINUOUS
 62
     5
 10
2.4999989999999999
 20
7.6307080000000003
 30
0.0
 40
0.5
 50
262.87498399999998
 51
90.0
  0
ARC
  5
12E
  8
DETAIL
  6
CONTINUOUS
 62
     5
 10
2.4999989999999999
 20
8.6307080000000003
 30
0.0
 40
0.5
 50
262.87498399999998
 51
82.874983999999998
  0
LINE
  5
12F
  8
DETAIL
  6
CONTINUOUS
 62
     5
 10
21.999994999999998
 20
2.4999989999999999
 30
0.0
 11
21.999994999999998
 21
-3.499998999999999
 31
0.0
  0
LINE
  5
130
  8
DETAIL
  6
CONTINUOUS
 62
     5
 10
14.999995999999999
 20
-4.499998999999999
 30
0.0
 11
14.999995999999999
 21
4.499998999999999
 31
0.0
  0
ARC
  5
131
  8
DETAIL
  6
CONTINUOUS
 62
     5
 10
18.499994999999998
 20
-3.499998999999999
 30
0.0
 40
1.0
 50
90.0
 51
180.0
  0
LINE
  5
132
  8
DETAIL
  6
CONTINUOUS
 62
     5
 10
17.499995999999999
 20
-4.499998999999999
 30
0.0
 11
14.999995999999999
 21
-4.499998999999999
 31
0.0
  0
LINE
  5
133
  8
DETAIL
  6
CONTINUOUS
 62
     5
 10
17.499995999999999
 20
-4.499998999999999
 30
0.0
 11
17.499995999999999
 21
-3.499998999999999
 31
0.0
  0
LINE
  5
134
  8
DETAIL
  6
CONTINUOUS
 62
     5
 10
19.999994999999998
 20
-2.4999989999999999
 30
0.0
 11
18.499994999999998
 21
-2.4999989999999999
 31
0.0
  0
LINE
  5
135
  8
DETAIL
  6
CONTINUOUS
 62
     5
 10
21.799994999999999
 20
-4.499998999999999
 30
0.0
 11
21.199995000000001
 21
-4.499998999999999
 31
0.0
  0
LINE
  5
136
  8
DETAIL
  6
CONTINUOUS
 62
     5
 10
21.799994999999999
 20
-4.499998999999999
 30
0.0
 11
21.999994999999998
 21
-3.499998999999999
 31
0.0
  0
LINE
  5
137
  8
DETAIL
  6
CONTINUOUS
 62
     5
 10
20.999994999999998
 20
-3.499998999999999
 30
0.0
 11
21.199995000000001
 21
-4.499998999999999
 31
0.0
  0
ARC
  5
138
  8
DETAIL
  6
CONTINUOUS
 62
     5
 10
19.999994999999998
 20
-3.499998999999999
 30
0.0
 40
1.0
 50
0.0
 51
90.0
  0
CIRCLE
  5
139
  8
DETAIL
  6
CONTINUOUS
 62
     5
 10
17.999995999999999
 20
1.0
 30
0.0
 40
2.0
  0
ARC
  5
13A
  8
DETAIL
  6
CONTINUOUS
 62
     5
 10
19.999994999999998
 20
2.4999989999999999
 30
0.0
 40
2.0
 50
0.0
 51
90.0
  0
LINE
  5
13B
  8
NOTE
  6
CONTINUOUS
 62
     4
 10
93.916642999999993
 20
-86.999977999999999
 30
0.0
 11
76.083314000000001
 21
-86.999977999999999
 31
0.0
  0
LINE
  5
13C
  8
DETAIL
  6
CONTINUOUS
 62
     5
 10
45.463671999999988
 20
-68.745389000000003
 30
0.0
 11
40.955115999999997
 21
-60.936345000000003
 31
0.0
  0
LINE
  5
13D
  8
DETAIL
  6
CONTINUOUS
 62
     5
 10
44.651119000000001
 20
-67.338009999999997
 30
0.0
 11
35.990867999999999
 21
-72.338009
 31
0.0
  0
LINE
  5
13E
  8
DETAIL
  6
CONTINUOUS
 62
     5
 10
44.45511599999999
 20
-66.998519999999985
 30
0.0
 11
35.794863999999997
 21
-71.998518999999973
 31
0.0
  0
LINE
  5
13F
  8
DETAIL
  6
CONTINUOUS
 62
     5
 10
45.395831999999999
 20
-68.627890000000008
 30
0.0
 11
36.735581000000003
 21
-73.627887999999999
 31
0.0
  0
LINE
  5
140
  8
DETAIL
  6
CONTINUOUS
 62
     5
 10
45.463671999999988
 20
-68.745389000000003
 30
0.0
 11
36.803417000000003
 21
-73.745388000000005
 31
0.0
  0
CIRCLE
  5
141
  8
DETAIL
  6
CONTINUOUS
 62
     5
 10
60.104061999999999
 20
-60.104061999999999
 30
0.0
 40
2.0
  0
CIRCLE
  5
142
  8
DETAIL
  6
CONTINUOUS
 62
     5
 10
60.104061999999999
 20
-60.104061999999999
 30
0.0
 40
1.5
  0
LINE
  5
143
  8
NOTE
  6
CONTINUOUS
 62
     4
 10
84.999979000000025
 20
-78.083314000000001
 30
0.0
 11
84.999979000000025
 21
-95.916643000000008
 31
0.0
  0
LINE
  5
144
  8
DETAIL
  6
CONTINUOUS
 62
     5
 10
98.499975000000006
 20
-96.503703000000002
 30
0.0
 11
99.49997500000002
 21
-96.503703000000002
 31
0.0
  0
ARC
  5
145
  8
DETAIL
  6
CONTINUOUS
 62
     5
 10
84.999979000000025
 20
-86.999977999999999
 30
0.0
 40
2.2499989999999999
 50
192.83958799999999
 51
167.16041200000001
  0
CIRCLE
  5
146
  8
DETAIL
  6
CONTINUOUS
 62
     5
 10
66.510733000000002
 20
-38.399990000000003
 30
0.0
 40
1.75
  0
CIRCLE
  5
147
  8
DETAIL
  6
CONTINUOUS
 62
     5
 10
66.510733000000002
 20
-38.399990000000003
 30
0.0
 40
2.699999
  0
LINE
  5
148
  8
DETAIL
  6
CONTINUOUS
 62
     5
 10
77.999981000000005
 20
4.999998999999999
 30
0.0
 11
77.999981000000005
 21
-4.999998999999999
 31
0.0
  0
LINE
  5
149
  8
DETAIL
  6
CONTINUOUS
 62
     5
 10
76.999981000000005
 20
-5.9999979999999997
 30
0.0
 11
74.672597999999994
 21
-5.9999979999999997
 31
0.0
  0
ARC
  5
14A
  8
DETAIL
  6
CONTINUOUS
 62
     5
 10
74.672597999999994
 20
-6.9999979999999988
 30
0.0
 40
1.0
 50
90.0
 51
174.644599
  0
ARC
  5
14B
  8
DETAIL
  6
CONTINUOUS
 62
     5
 10
76.999981000000005
 20
-4.999998999999999
 30
0.0
 40
1.0
 50
270.0
 51
0.0
  0
ARC
  5
14C
  8
DETAIL
  6
CONTINUOUS
 62
     5
 10
76.999981000000005
 20
4.999998999999999
 30
0.0
 40
1.0
 50
0.0
 51
90.0
  0
LINE
  5
14D
  8
DETAIL
  6
CONTINUOUS
 62
     5
 10
76.999981000000005
 20
5.999998999999999
 30
0.0
 11
74.672597999999994
 21
5.999998999999999
 31
0.0
  0
ARC
  5
14E
  8
DETAIL
  6
CONTINUOUS
 62
     5
 10
74.672597999999994
 20
6.9999979999999988
 30
0.0
 40
1.0
 50
185.355401
 51
270.0
  0
LINE
  5
14F
  8
DETAIL
  6
CONTINUOUS
 62
     5
 10
0.0
 20
85.49997900000001
 30
0.0
 11
90.999977000000015
 21
85.49997900000001
 31
0.0
  0
LINE
  5
150
  8
DETAIL
  6
CONTINUOUS
 62
     5
 10
0.0
 20
84.999979000000025
 30
0.0
 11
90.999977000000015
 21
84.999979000000025
 31
0.0
  0
LINE
  5
151
  8
DETAIL
  6
CONTINUOUS
 62
     5
 10
0.0
 20
84.49997900000001
 30
0.0
 11
90.999977000000015
 21
84.49997900000001
 31
0.0
  0
LINE
  5
152
  8
DETAIL
  6
CONTINUOUS
 62
     5
 10
0.0
 20
94.999976000000004
 30
0.0
 11
90.999977000000015
 21
94.999976000000004
 31
0.0
  0
LINE
  5
153
  8
DETAIL
  6
CONTINUOUS
 62
     5
 10
0.0
 20
94.499976000000004
 30
0.0
 11
90.999977000000015
 21
94.499976000000004
 31
0.0
  0
LINE
  5
154
  8
DETAIL
  6
CONTINUOUS
 62
     5
 10
98.499975000000006
 20
92.499976999999987
 30
0.0
 11
0.0
 21
92.499976999999987
 31
0.0
  0
LINE
  5
155
  8
DETAIL
  6
CONTINUOUS
 62
     5
 10
98.499975000000006
 20
91.999977000000001
 30
0.0
 11
0.0
 21
91.999977000000001
 31
0.0
  0
ARC
  5
156
  8
DETAIL
  6
CONTINUOUS
 62
     5
 10
0.0
 20
0.0
 30
0.0
 40
73.249981999999989
 50
45.391100999999999
 51
90.0
  0
LINE
  5
157
  8
DETAIL
  6
CONTINUOUS
 62
     5
 10
36.803417000000003
 20
73.745391999999995
 30
0.0
 11
32.294865000000001
 21
65.936346999999984
 31
0.0
  0
LINE
  5
158
  8
DETAIL
  6
CONTINUOUS
 62
     5
 10
32.494865000000011
 20
66.282756999999989
 30
0.0
 11
41.155116
 21
61.282757999999987
 31
0.0
  0
LINE
  5
159
  8
DETAIL
  6
CONTINUOUS
 62
     5
 10
32.294865000000001
 20
65.936346999999984
 30
0.0
 11
40.955115999999997
 21
60.936348000000002
 31
0.0
  0
LINE
  5
15A
  8
DETAIL
  6
CONTINUOUS
 62
     5
 10
2.5999989999999991
 20
41.299990000000001
 30
0.0
 11
2.5999989999999991
 21
19.299994999999999
 31
0.0
  0
LINE
  5
15B
  8
DETAIL
  6
CONTINUOUS
 62
     5
 10
0.0
 20
19.299994999999999
 30
0.0
 11
2.5999989999999991
 21
19.299994999999999
 31
0.0
  0
LINE
  5
15C
  8
DETAIL
  6
CONTINUOUS
 62
     5
 10
3.199999
 20
42.199989000000002
 30
0.0
 11
0.0
 21
42.199989000000002
 31
0.0
  0
LINE
  5
15D
  8
DETAIL
  6
CONTINUOUS
 62
     5
 10
0.0
 20
41.299990000000001
 30
0.0
 11
2.5999989999999991
 21
41.299990000000001
 31
0.0
  0
LINE
  5
15E
  8
DETAIL
  6
CONTINUOUS
 62
     5
 10
1.75
 20
41.299990000000001
 30
0.0
 11
1.75
 21
42.199989000000002
 31
0.0
  0
LINE
  5
15F
  8
DETAIL
  6
CONTINUOUS
 62
     5
 10
3.2499989999999999
 20
66.499983
 30
0.0
 11
0.0
 21
66.499983
 31
0.0
  0
LINE
  5
160
  8
DETAIL
  6
CONTINUOUS
 62
     5
 10
3.199999
 20
64.199984000000001
 30
0.0
 11
0.0
 21
64.199984000000001
 31
0.0
  0
LINE
  5
161
  8
DETAIL
  6
CONTINUOUS
 62
     5
 10
1.75
 20
64.199984000000001
 30
0.0
 11
1.75
 21
66.499983
 31
0.0
  0
LINE
  5
162
  8
DETAIL
  6
CONTINUOUS
 62
     5
 10
7.7133880000000001
 20
71.182006000000001
 30
0.0
 11
5.7999989999999988
 21
69.268613000000002
 31
0.0
  0
ARC
  5
163
  8
DETAIL
  6
CONTINUOUS
 62
     5
 10
4.6686290000000001
 20
70.399981999999994
 30
0.0
 40
1.6000000000000001
 50
270.0
 51
315.0
  0
LINE
  5
164
  8
DETAIL
  6
CONTINUOUS
 62
     5
 10
3.2499989999999999
 20
68.499983
 30
0.0
 11
3.2499989999999999
 21
72.627302
 31
0.0
  0
LINE
  5
165
  8
DETAIL
  6
CONTINUOUS
 62
     5
 10
4.6686290000000001
 20
68.799982999999997
 30
0.0
 11
3.2499989999999999
 21
68.799982999999997
 31
0.0
  0
LINE
  5
166
  8
DETAIL
  6
CONTINUOUS
 62
     5
 10
3.199999
 20
68.499983
 30
0.0
 11
3.999998999999999
 21
68.499983
 31
0.0
  0
ARC
  5
167
  8
DETAIL
  6
CONTINUOUS
 62
     5
 10
8.2790750000000006
 20
70.61631899999999
 30
0.0
 40
0.8
 50
83.313153999999983
 51
135.0
  0
ARC
  5
168
  8
DETAIL
  6
CONTINUOUS
 62
     5
 10
0.0
 20
76.799981000000002
 30
0.0
 40
1.75
 50
270.0
 51
90.0
  0
ARC
  5
169
  8
DETAIL
  6
CONTINUOUS
 62
     5
 10
0.0
 20
76.799981000000002
 30
0.0
 40
2.699999
 50
270.0
 51
90.0
  0
LINE
  5
16A
  8
NOTE
  6
CONTINUOUS
 62
     4
 10
84.999979000000025
 20
86.916644999999988
 30
0.0
 11
84.999979000000025
 21
69.083315999999996
 31
0.0
  0
LINE
  5
16B
  8
DETAIL
  6
CONTINUOUS
 62
     5
 10
36.735581000000003
 20
73.627892000000003
 30
0.0
 11
45.395831999999999
 21
68.627893
 31
0.0
  0
LINE
  5
16C
  8
DETAIL
  6
CONTINUOUS
 62
     5
 10
36.803417000000003
 20
73.745391999999995
 30
0.0
 11
45.463671999999988
 21
68.745393000000007
 31
0.0
  0
CIRCLE
  5
16D
  8
DETAIL
  6
CONTINUOUS
 62
     5
 10
66.510733000000002
 20
38.399990000000003
 30
0.0
 40
1.75
  0
CIRCLE
  5
16E
  8
DETAIL
  6
CONTINUOUS
 62
     5
 10
66.510733000000002
 20
38.399990000000003
 30
0.0
 40
2.699999
  0
ARC
  5
16F
  8
DETAIL
  6
CONTINUOUS
 62
     5
 10
0.0
 20
0.0
 30
0.0
 40
73.749981999999989
 50
45.228808000000008
 51
51.227389000000002
  0
LINE
  5
170
  8
DETAIL
  6
CONTINUOUS
 62
     5
 10
46.184538000000003
 20
57.498246000000002
 30
0.0
 11
45.871421999999988
 21
57.108426000000001
 31
0.0
  0
LINE
  5
171
  8
DETAIL
  6
CONTINUOUS
 62
     5
 10
56.745305999999999
 20
56.745305999999999
 30
0.0
 11
51.44200399999999
 21
51.442006999999997
 31
0.0
  0
LINE
  5
172
  8
DETAIL
  6
CONTINUOUS
 62
     5
 10
51.440796999999989
 20
52.147906999999996
 30
0.0
 11
51.44200399999999
 21
51.442006999999997
 31
0.0
  0
LINE
  5
173
  8
DETAIL
  6
CONTINUOUS
 62
     5
 10
51.940440000000002
 20
52.356949999999991
 30
0.0
 11
51.941650000000003
 21
51.649054
 31
0.0
  0
LINE
  5
174
  8
DETAIL
  6
CONTINUOUS
 62
     5
 10
45.463671999999988
 20
68.745393000000007
 30
0.0
 11
40.955115999999997
 21
60.936348000000002
 31
0.0
  0
LINE
  5
175
  8
DETAIL
  6
CONTINUOUS
 62
     5
 10
35.990867999999999
 20
72.338012000000006
 30
0.0
 11
44.651119000000001
 21
67.338013000000004
 31
0.0
  0
LINE
  5
176
  8
DETAIL
  6
CONTINUOUS
 62
     5
 10
35.794863999999997
 20
71.998521999999994
 30
0.0
 11
44.45511599999999
 21
66.998522999999992
 31
0.0
  0
CIRCLE
  5
177
  8
DETAIL
  6
CONTINUOUS
 62
     5
 10
60.104061999999999
 20
60.104061999999999
 30
0.0
 40
2.0
  0
CIRCLE
  5
178
  8
DETAIL
  6
CONTINUOUS
 62
     5
 10
60.104061999999999
 20
60.104061999999999
 30
0.0
 40
1.5
  0
LINE
  5
179
  8
NOTE
  6
CONTINUOUS
 62
     4
 10
93.916642999999993
 20
77.999981000000005
 30
0.0
 11
76.083314000000001
 21
77.999981000000005
 31
0.0
  0
LINE
  5
17A
  8
DETAIL
  6
CONTINUOUS
 62
     5
 10
98.499975000000006
 20
92.499976999999987
 30
0.0
 11
98.499975000000006
 21
84.999979000000025
 31
0.0
  0
LINE
  5
17B
  8
DETAIL
  6
CONTINUOUS
 62
     5
 10
98.499975000000006
 20
92.499976999999987
 30
0.0
 11
98.499975000000006
 21
85.99997900000001
 31
0.0
  0
LINE
  5
17C
  8
DETAIL
  6
CONTINUOUS
 62
     5
 10
90.999977000000015
 20
85.99997900000001
 30
0.0
 11
92.999977000000001
 21
85.99997900000001
 31
0.0
  0
LINE
  5
17D
  8
DETAIL
  6
CONTINUOUS
 62
     5
 10
90.999977000000015
 20
83.999978999999996
 30
0.0
 11
92.999977000000001
 21
83.999978999999996
 31
0.0
  0
ARC
  5
17E
  8
DETAIL
  6
CONTINUOUS
 62
     5
 10
84.999979000000025
 20
77.999981000000005
 30
0.0
 40
2.2499989999999999
 50
192.83958799999999
 51
167.16041200000001
  0
LINE
  5
17F
  8
DETAIL
  6
CONTINUOUS
 62
     5
 10
90.999977000000015
 20
85.99997900000001
 30
0.0
 11
90.999977000000015
 21
83.999978999999996
 31
0.0
  0
LINE
  5
180
  8
DETAIL
  6
CONTINUOUS
 62
     5
 10
92.999977000000001
 20
84.999979000000025
 30
0.0
 11
99.49997500000002
 21
84.999979000000025
 31
0.0
  0
LINE
  5
181
  8
DETAIL
  6
CONTINUOUS
 62
     5
 10
92.999977000000001
 20
85.99997900000001
 30
0.0
 11
92.999977000000001
 21
83.999978999999996
 31
0.0
  0
ARC
  5
182
  8
DETAIL
  6
CONTINUOUS
 62
     5
 10
90.999977000000015
 20
92.499976999999987
 30
0.0
 40
2.4999989999999999
 50
9.594068
 51
90.0
  0
ARC
  5
183
  8
DETAIL
  6
CONTINUOUS
 62
     5
 10
90.999977000000015
 20
92.499976999999987
 30
0.0
 40
2.0
 50
9.594068
 51
90.0
  0
LINE
  5
184
  8
DETAIL
  6
CONTINUOUS
 62
     5
 10
98.499975000000006
 20
92.499976999999987
 30
0.0
 11
94.458016000000015
 21
92.499976999999987
 31
0.0
  0
LINE
  5
185
  8
DETAIL
  6
CONTINUOUS
 62
     5
 10
98.499975000000006
 20
91.999977000000001
 30
0.0
 11
94.458016000000015
 21
91.999977000000001
 31
0.0
  0
ARC
  5
186
  8
DETAIL
  6
CONTINUOUS
 62
     5
 10
93.958016999999984
 20
92.999977000000001
 30
0.0
 40
0.5
 50
189.59406799999991
 51
270.0
  0
ARC
  5
187
  8
DETAIL
  6
CONTINUOUS
 62
     5
 10
93.958016999999984
 20
92.999977000000001
 30
0.0
 40
1.0
 50
189.59406799999991
 51
270.0
  0
CIRCLE
  5
188
  8
FIX
  6
CONTINUOUS
 62
    11
 39
50.0
 10
84.999979000000025
 20
-86.999977999999999
 30
0.0
 40
2.25
  0
CIRCLE
  5
189
  8
FIX
  6
CONTINUOUS
 62
    11
 39
50.0
 10
84.999979000000025
 20
77.999981000000005
 30
0.0
 40
2.25
  0
ARC
  5
18A
  8
DETAIL
  6
CONTINUOUS
 62
     5
 10
0.0
 20
0.0
 30
0.0
 40
73.999981999999974
 50
90.0
 51
174.644599
  0
LINE
  5
18B
  8
DETAIL
  6
CONTINUOUS
 62
     5
 10
-91.499977000000001
 20
83.999978999999996
 30
0.0
 11
-91.499977000000001
 21
-115.999971
 31
0.0
  0
LINE
  5
18C
  8
DETAIL
  6
CONTINUOUS
 62
     5
 10
-92.499976999999987
 20
83.999978999999996
 30
0.0
 11
-92.499976999999987
 21
-115.999971
 31
0.0
  0
LINE
  5
18D
  8
DETAIL
  6
CONTINUOUS
 62
     5
 10
-91.999977000000001
 20
83.999978999999996
 30
0.0
 11
-91.999977000000001
 21
-96.503703000000002
 31
0.0
  0
LINE
  5
18E
  8
DETAIL
  6
CONTINUOUS
 62
     5
 10
-99.49997500000002
 20
84.999979000000025
 30
0.0
 11
-99.49997500000002
 21
-96.503703000000002
 31
0.0
  0
LINE
  5
18F
  8
DETAIL
  6
CONTINUOUS
 62
     5
 10
-98.999975000000006
 20
84.999979000000025
 30
0.0
 11
-98.999975000000006
 21
-96.503703000000002
 31
0.0
  0
ARC
  5
190
  8
DETAIL
  6
CONTINUOUS
 62
     5
 10
0.0
 20
0.0
 30
0.0
 40
80.249980000000008
 50
90.0
 51
270.0
  0
ARC
  5
191
  8
DETAIL
  6
CONTINUOUS
 62
     5
 10
0.0
 20
0.0
 30
0.0
 40
73.249981999999989
 50
135.16183599999999
 51
270.0
  0
ARC
  5
192
  8
DETAIL
  6
CONTINUOUS
 62
     5
 10
0.0
 20
0.0
 30
0.0
 40
72.749981999999974
 50
90.0
 51
270.0
  0
ARC
  5
193
  8
DETAIL
  6
CONTINUOUS
 62
     5
 10
0.0
 20
0.0
 30
0.0
 40
72.699981999999991
 50
90.0
 51
270.0
  0
ARC
  5
194
  8
DETAIL
  6
CONTINUOUS
 62
     5
 10
0.0
 20
0.0
 30
0.0
 40
71.899981999999994
 50
92.590747999999977
 51
270.0
  0
ARC
  5
195
  8
DETAIL
  6
CONTINUOUS
 62
     5
 10
0.0
 20
0.0
 30
0.0
 40
67.499983
 50
93.397295999999997
 51
266.60270400000002
  0
LINE
  5
196
  8
DETAIL
  6
CONTINUOUS
 62
     5
 10
-3.999998999999999
 20
68.499983
 30
0.0
 11
-3.999998999999999
 21
4.499998999999999
 31
0.0
  0
LINE
  5
197
  8
DETAIL
  6
CONTINUOUS
 62
     5
 10
-3.199999
 20
68.499983
 30
0.0
 11
-3.199999
 21
4.499998999999999
 31
0.0
  0
LINE
  5
198
  8
DETAIL
  6
CONTINUOUS
 62
     5
 10
-1.75
 20
9.2243509999999986
 30
0.0
 11
-1.75
 21
19.299994999999999
 31
0.0
  0
LINE
  5
199
  8
DETAIL
  6
CONTINUOUS
 62
     5
 10
-98.499975000000006
 20
-96.503703000000002
 30
0.0
 11
-98.499975000000006
 21
-114.999971
 31
0.0
  0
LINE
  5
19A
  8
DETAIL
  6
CONTINUOUS
 62
     5
 10
-91.999977000000001
 20
-96.503703000000002
 30
0.0
 11
-91.999977000000001
 21
-115.999971
 31
0.0
  0
LINE
  5
19B
  8
DETAIL
  6
CONTINUOUS
 62
     5
 10
0.0
 20
-120.200177
 30
0.0
 11
-109.499973
 21
-120.200177
 31
0.0
  0
LINE
  5
19C
  8
DETAIL
  6
CONTINUOUS
 62
     5
 10
0.0
 20
-119.85007299999999
 30
0.0
 11
-108.999973
 21
-119.85007299999999
 31
0.0
  0
LINE
  5
19D
  8
DETAIL
  6
CONTINUOUS
 62
     5
 10
0.0
 20
-126.57073200000001
 30
0.0
 11
-108.999973
 21
-126.57073200000001
 31
0.0
  0
LINE
  5
19E
  8
DETAIL
  6
CONTINUOUS
 62
     5
 10
0.0
 20
-127.102822
 30
0.0
 11
-108.999973
 21
-127.102822
 31
0.0
  0
LINE
  5
19F
  8
DETAIL
  6
CONTINUOUS
 62
     5
 10
0.0
 20
-116.999971
 30
0.0
 11
-90.999977000000015
 21
-116.999971
 31
0.0
  0
LINE
  5
1A0
  8
DETAIL
  6
CONTINUOUS
 62
     5
 10
0.0
 20
-116.499971
 30
0.0
 11
-90.999977000000015
 21
-116.499971
 31
0.0
  0
LINE
  5
1A1
  8
DETAIL
  6
CONTINUOUS
 62
     5
 10
-90.999977000000015
 20
-117.999971
 30
0.0
 11
-108.999973
 21
-117.999971
 31
0.0
  0
LINE
  5
1A2
  8
DETAIL
  6
CONTINUOUS
 62
     5
 10
-97.499976000000004
 20
-115.999971
 30
0.0
 11
-90.999977000000015
 21
-115.999971
 31
0.0
  0
LINE
  5
1A3
  8
DETAIL
  6
CONTINUOUS
 62
     5
 10
-90.999977000000015
 20
-115.999971
 30
0.0
 11
-90.999977000000015
 21
-117.999971
 31
0.0
  0
CIRCLE
  5
1A4
  8
DETAIL
  6
CONTINUOUS
 62
     5
 10
-85.49997900000001
 20
-110.499972
 30
0.0
 40
2.199999
  0
CIRCLE
  5
1A5
  8
DETAIL
  6
CONTINUOUS
 62
     5
 10
-85.49997900000001
 20
-110.499972
 30
0.0
 40
1.7
  0
ARC
  5
1A6
  8
DETAIL
  6
CONTINUOUS
 62
     5
 10
-97.499976000000004
 20
-114.999971
 30
0.0
 40
1.0
 50
180.0
 51
270.0
  0
LINE
  5
1A7
  8
DETAIL
  6
CONTINUOUS
 62
     5
 10
-109.999973
 20
-126.102822
 30
0.0
 11
-109.999973
 21
-109.986549
 31
0.0
  0
LINE
  5
1A8
  8
DETAIL
  6
CONTINUOUS
 62
     5
 10
-109.499973
 20
-126.07073200000001
 30
0.0
 11
-109.499973
 21
-109.986549
 31
0.0
  0
ARC
  5
1A9
  8
DETAIL
  6
CONTINUOUS
 62
     5
 10
-108.999973
 20
-126.102822
 30
0.0
 40
1.0
 50
180.0
 51
270.0
  0
ARC
  5
1AA
  8
DETAIL
  6
CONTINUOUS
 62
     5
 10
-108.999973
 20
-126.07073200000001
 30
0.0
 40
0.5
 50
180.0
 51
270.0
  0
LINE
  5
1AB
  8
DETAIL
  6
CONTINUOUS
 62
     5
 10
-108.999973
 20
-119.85007299999999
 30
0.0
 11
-109.499973
 21
-119.85007299999999
 31
0.0
  0
LINE
  5
1AC
  8
DETAIL
  6
CONTINUOUS
 62
     5
 10
-108.999973
 20
-119.85007299999999
 30
0.0
 11
-108.999973
 21
-117.99997399999999
 31
0.0
  0
LINE
  5
1AD
  8
DETAIL
  6
CONTINUOUS
 62
     5
 10
-109.999973
 20
-109.986549
 30
0.0
 11
-109.499973
 21
-109.986549
 31
0.0
  0
ARC
  5
1AE
  8
DETAIL
  6
CONTINUOUS
 62
     5
 10
0.0
 20
0.0
 30
0.0
 40
73.999981999999974
 50
185.355401
 51
270.0
  0
LINE
  5
1AF
  8
DETAIL
  6
CONTINUOUS
 62
     5
 10
-36.803417000000003
 20
-73.745388000000005
 30
0.0
 11
-32.294865000000001
 21
-65.936343999999991
 31
0.0
  0
LINE
  5
1B0
  8
DETAIL
  6
CONTINUOUS
 62
     5
 10
-41.155116
 20
-61.282755000000002
 30
0.0
 11
-32.494865000000011
 21
-66.282753
 31
0.0
  0
LINE
  5
1B1
  8
DETAIL
  6
CONTINUOUS
 62
     5
 10
-40.955115999999997
 20
-60.936345000000003
 30
0.0
 11
-32.294865000000001
 21
-65.936343999999991
 31
0.0
  0
LINE
  5
1B2
  8
DETAIL
  6
CONTINUOUS
 62
     5
 10
-3.999998999999999
 20
-4.499998999999999
 30
0.0
 11
-3.999998999999999
 21
-68.499983
 31
0.0
  0
LINE
  5
1B3
  8
DETAIL
  6
CONTINUOUS
 62
     5
 10
-3.199999
 20
-4.499998999999999
 30
0.0
 11
-3.199999
 21
-68.499983
 31
0.0
  0
LINE
  5
1B4
  8
DETAIL
  6
CONTINUOUS
 62
     5
 10
-2.5999989999999991
 20
-42.199989000000002
 30
0.0
 11
-2.5999989999999991
 21
-64.199984000000001
 31
0.0
  0
ARC
  5
1B5
  8
DETAIL
  6
CONTINUOUS
 62
     5
 10
0.0
 20
-76.799981000000002
 30
0.0
 40
1.75
 50
90.0
 51
270.0
  0
ARC
  5
1B6
  8
DETAIL
  6
CONTINUOUS
 62
     5
 10
0.0
 20
-76.799981000000002
 30
0.0
 40
2.699999
 50
90.0
 51
270.0
  0
LINE
  5
1B7
  8
DETAIL
  6
CONTINUOUS
 62
     5
 10
-4.6686290000000001
 20
-68.799982999999997
 30
0.0
 11
0.0
 21
-68.799982999999997
 31
0.0
  0
LINE
  5
1B8
  8
DETAIL
  6
CONTINUOUS
 62
     5
 10
0.0
 20
-64.199984000000001
 30
0.0
 11
-2.5999989999999991
 21
-64.199984000000001
 31
0.0
  0
LINE
  5
1B9
  8
DETAIL
  6
CONTINUOUS
 62
     5
 10
-7.7133880000000001
 20
-71.182001999999997
 30
0.0
 11
-5.7999989999999988
 21
-69.268608999999998
 31
0.0
  0
ARC
  5
1BA
  8
DETAIL
  6
CONTINUOUS
 62
     5
 10
-8.2790750000000006
 20
-70.616315999999998
 30
0.0
 40
0.8
 50
263.313154
 51
315.0
  0
ARC
  5
1BB
  8
DETAIL
  6
CONTINUOUS
 62
     5
 10
-4.6686290000000001
 20
-70.399981999999994
 30
0.0
 40
1.6000000000000001
 50
90.0
 51
135.0
  0
ARC
  5
1BC
  8
DETAIL
  6
CONTINUOUS
 62
     5
 10
0.0
 20
0.0
 30
0.0
 40
67.499983
 50
267.282737
 51
268.514387
  0
LINE
  5
1BD
  8
DETAIL
  6
CONTINUOUS
 62
     5
 10
-3.199999
 20
-68.499983
 30
0.0
 11
-3.999998999999999
 21
-68.499983
 31
0.0
  0
LINE
  5
1BE
  8
DETAIL
  6
CONTINUOUS
 62
     5
 10
-1.75
 20
-68.799982999999997
 30
0.0
 11
-1.75
 21
-64.199984000000001
 31
0.0
  0
LINE
  5
1BF
  8
DETAIL
  6
CONTINUOUS
 62
     5
 10
-1.75
 20
-19.299994999999999
 30
0.0
 11
-1.75
 21
-9.9353179999999988
 31
0.0
  0
LINE
  5
1C0
  8
DETAIL
  6
CONTINUOUS
 62
     5
 10
-3.199999
 20
-41.299990000000001
 30
0.0
 11
0.0
 21
-41.299990000000001
 31
0.0
  0
LINE
  5
1C1
  8
DETAIL
  6
CONTINUOUS
 62
     5
 10
0.0
 20
-42.199989000000002
 30
0.0
 11
-2.5999989999999991
 21
-42.199989000000002
 31
0.0
  0
LINE
  5
1C2
  8
DETAIL
  6
CONTINUOUS
 62
     5
 10
-1.75
 20
-42.199989000000002
 30
0.0
 11
-1.75
 21
-41.299990000000001
 31
0.0
  0
LINE
  5
1C3
  8
DETAIL
  6
CONTINUOUS
 62
     5
 10
-3.199999
 20
-19.299994999999999
 30
0.0
 11
0.0
 21
-19.299994999999999
 31
0.0
  0
LINE
  5
1C4
  8
DETAIL
  6
CONTINUOUS
 62
     5
 10
0.0
 20
-4.499998999999999
 30
0.0
 11
-14.999995999999999
 21
-4.499998999999999
 31
0.0
  0
LINE
  5
1C5
  8
DETAIL
  6
CONTINUOUS
 62
     5
 10
-4.9799989999999994
 20
1.217743
 30
0.0
 11
-13.487997
 21
-4.499998999999999
 31
0.0
  0
LINE
  5
1C6
  8
DETAIL
  6
CONTINUOUS
 62
     5
 10
-19.999994999999998
 20
4.499998999999999
 30
0.0
 11
0.0
 21
4.499998999999999
 31
0.0
  0
LINE
  5
1C7
  8
DETAIL
  6
CONTINUOUS
 62
     5
 10
-0.5
 20
-1.25
 30
0.0
 11
-0.5
 21
-2.7499989999999999
 31
0.0
  0
LINE
  5
1C8
  8
DETAIL
  6
CONTINUOUS
 62
     5
 10
-3.199999
 20
2.413978999999999
 30
0.0
 11
-3.199999
 21
-2.413975999999999
 31
0.0
  0
LINE
  5
1C9
  8
DETAIL
  6
CONTINUOUS
 62
     5
 10
-3.999998999999999
 20
1.876345999999999
 30
0.0
 11
-3.999998999999999
 21
-1.8763430000000001
 31
0.0
  0
LINE
  5
1CA
  8
DETAIL
  6
CONTINUOUS
 62
     5
 10
-3.199999
 20
2.4999989999999999
 30
0.0
 11
-3.199999
 21
-2.4999989999999999
 31
0.0
  0
LINE
  5
1CB
  8
DETAIL
  6
CONTINUOUS
 62
     5
 10
-4.9799989999999994
 20
2.4999989999999999
 30
0.0
 11
-4.9799989999999994
 21
-2.4999989999999999
 31
0.0
  0
LINE
  5
1CC
  8
DETAIL
  6
CONTINUOUS
 62
     5
 10
-3.999998999999999
 20
2.4999989999999999
 30
0.0
 11
-3.999998999999999
 21
-2.4999989999999999
 31
0.0
  0
ARC
  5
1CD
  8
DETAIL
  6
CONTINUOUS
 62
     5
 10
-2.4999989999999999
 20
-1.369289999999999
 30
0.0
 40
0.5
 50
90.0
 51
277.12501600000002
  0
ARC
  5
1CE
  8
DETAIL
  6
CONTINUOUS
 62
     5
 10
-2.4999989999999999
 20
-2.3692889999999989
 30
0.0
 40
0.5
 50
90.0
 51
204.86604700000001
  0
LINE
  5
1CF
  8
DETAIL
  6
CONTINUOUS
 62
     5
 10
-2.437983
 20
-1.8694259999999989
 30
0.0
 11
-0.5
 21
-1.627179999999999
 31
0.0
  0
LINE
  5
1D0
  8
DETAIL
  6
CONTINUOUS
 62
     5
 10
-0.5
 20
-2.7499989999999999
 30
0.0
 11
-2.699999
 21
-2.7499989999999999
 31
0.0
  0
LINE
  5
1D1
  8
DETAIL
  6
CONTINUOUS
 62
     5
 10
0.0
 20
-9.9353179999999988
 30
0.0
 11
-2.518996
 21
-9.9353179999999988
 31
0.0
  0
LINE
  5
1D2
  8
DETAIL
  6
CONTINUOUS
 62
     5
 10
-2.437983
 20
-5.8694249999999988
 30
0.0
 11
0.0
 21
-5.564678999999999
 31
0.0
  0
LINE
  5
1D3
  8
DETAIL
  6
CONTINUOUS
 62
     5
 10
-2.437983
 20
-6.8694249999999988
 30
0.0
 11
0.0
 21
-6.5646779999999989
 31
0.0
  0
LINE
  5
1D4
  8
DETAIL
  6
CONTINUOUS
 62
     5
 10
-2.437983
 20
-7.8694249999999988
 30
0.0
 11
0.0
 21
-7.5646779999999989
 31
0.0
  0
LINE
  5
1D5
  8
DETAIL
  6
CONTINUOUS
 62
     5
 10
-2.437983
 20
-8.8694240000000004
 30
0.0
 11
0.0
 21
-8.5646780000000007
 31
0.0
  0
LINE
  5
1D6
  8
DETAIL
  6
CONTINUOUS
 62
     5
 10
-2.437983
 20
-9.8694240000000004
 30
0.0
 11
0.0
 21
-9.5646780000000007
 31
0.0
  0
LINE
  5
1D7
  8
DETAIL
  6
CONTINUOUS
 62
     5
 10
-2.6672289999999998
 20
-4.8980819999999987
 30
0.0
 11
0.0
 21
-4.564678999999999
 31
0.0
  0
LINE
  5
1D8
  8
DETAIL
  6
CONTINUOUS
 62
     5
 10
-1.4825559999999991
 20
-2.7499989999999999
 30
0.0
 11
-0.5
 21
-2.627178999999999
 31
0.0
  0
ARC
  5
1D9
  8
DETAIL
  6
CONTINUOUS
 62
     5
 10
-2.4999989999999999
 20
-9.3692879999999992
 30
0.0
 40
0.5
 50
90.0
 51
277.12501600000002
  0
ARC
  5
1DA
  8
DETAIL
  6
CONTINUOUS
 62
     5
 10
-2.4999989999999999
 20
-9.4356779999999993
 30
0.0
 40
0.5
 50
176.19327000000001
 51
270.0
  0
LINE
  5
1DB
  8
DETAIL
  6
CONTINUOUS
 62
     5
 10
-2.699999
 20
-2.7499989999999999
 30
0.0
 11
-3.199999
 21
-2.413975999999999
 31
0.0
  0
LINE
  5
1DC
  8
DETAIL
  6
CONTINUOUS
 62
     5
 10
-4.9799989999999994
 20
-2.4999989999999999
 30
0.0
 11
-3.199999
 21
-2.4999989999999999
 31
0.0
  0
ARC
  5
1DD
  8
DETAIL
  6
CONTINUOUS
 62
     5
 10
-2.4999989999999999
 20
-8.3692879999999992
 30
0.0
 40
0.5
 50
90.0
 51
277.12501600000002
  0
ARC
  5
1DE
  8
DETAIL
  6
CONTINUOUS
 62
     5
 10
-2.4999989999999999
 20
-7.3692880000000001
 30
0.0
 40
0.5
 50
90.0
 51
277.12501600000002
  0
ARC
  5
1DF
  8
DETAIL
  6
CONTINUOUS
 62
     5
 10
-2.4999989999999999
 20
-6.3692880000000001
 30
0.0
 40
0.5
 50
90.0
 51
277.12501600000002
  0
ARC
  5
1E0
  8
DETAIL
  6
CONTINUOUS
 62
     5
 10
-2.4999989999999999
 20
-5.3692890000000002
 30
0.0
 40
0.5
 50
90.0
 51
277.12501600000002
  0
ARC
  5
1E1
  8
DETAIL
  6
CONTINUOUS
 62
     5
 10
-2.4999989999999999
 20
-4.3692890000000002
 30
0.0
 40
0.5
 50
195.15440699999999
 51
277.12501600000002
  0
LINE
  5
1E2
  8
DETAIL
  6
CONTINUOUS
 62
     5
 10
-0.5
 20
2.7499989999999999
 30
0.0
 11
-2.699999
 21
2.7499989999999999
 31
0.0
  0
LINE
  5
1E3
  8
DETAIL
  6
CONTINUOUS
 62
     5
 10
-2.437983
 20
-0.8694259999999999
 30
0.0
 11
0.0
 21
-0.5646800000000001
 31
0.0
  0
LINE
  5
1E4
  8
DETAIL
  6
CONTINUOUS
 62
     5
 10
-2.437983
 20
0.130573
 30
0.0
 11
0.0
 21
0.4353200000000001
 31
0.0
  0
LINE
  5
1E5
  8
DETAIL
  6
CONTINUOUS
 62
     5
 10
-2.437983
 20
8.1305709999999998
 30
0.0
 11
0.0
 21
8.4353179999999988
 31
0.0
  0
LINE
  5
1E6
  8
DETAIL
  6
CONTINUOUS
 62
     5
 10
-2.6239129999999991
 20
9.1151110000000006
 30
0.0
 11
0.0
 21
9.4431009999999986
 31
0.0
  0
LINE
  5
1E7
  8
DETAIL
  6
CONTINUOUS
 62
     5
 10
-2.437983
 20
7.130571999999999
 30
0.0
 11
0.0
 21
7.4353179999999988
 31
0.0
  0
LINE
  5
1E8
  8
DETAIL
  6
CONTINUOUS
 62
     5
 10
-2.437983
 20
1.1305730000000001
 30
0.0
 11
-0.5
 21
1.3728199999999999
 31
0.0
  0
LINE
  5
1E9
  8
DETAIL
  6
CONTINUOUS
 62
     5
 10
-2.437983
 20
2.1305730000000001
 30
0.0
 11
-0.5
 21
2.3728189999999989
 31
0.0
  0
LINE
  5
1EA
  8
DETAIL
  6
CONTINUOUS
 62
     5
 10
-2.437983
 20
5.130571999999999
 30
0.0
 11
0.0
 21
5.4353189999999989
 31
0.0
  0
LINE
  5
1EB
  8
DETAIL
  6
CONTINUOUS
 62
     5
 10
-2.437983
 20
6.130571999999999
 30
0.0
 11
0.0
 21
6.4353179999999988
 31
0.0
  0
LINE
  5
1EC
  8
DETAIL
  6
CONTINUOUS
 62
     5
 10
0.0
 20
-1.25
 30
0.0
 11
-0.5
 21
-1.25
 31
0.0
  0
LINE
  5
1ED
  8
DETAIL
  6
CONTINUOUS
 62
     5
 10
0.0
 20
1.25
 30
0.0
 11
-0.5
 21
1.25
 31
0.0
  0
LINE
  5
1EE
  8
DETAIL
  6
CONTINUOUS
 62
     5
 10
-0.5
 20
1.25
 30
0.0
 11
-0.5
 21
2.7499989999999999
 31
0.0
  0
ARC
  5
1EF
  8
DETAIL
  6
CONTINUOUS
 62
     5
 10
-2.4999989999999999
 20
5.6307089999999986
 30
0.0
 40
0.5
 50
90.0
 51
277.12501600000002
  0
LINE
  5
1F0
  8
DETAIL
  6
CONTINUOUS
 62
     5
 10
-4.9799989999999994
 20
-1.21774
 30
0.0
 11
-6.7919979999999986
 21
0.0
 31
0.0
  0
LINE
  5
1F1
  8
DETAIL
  6
CONTINUOUS
 62
     5
 10
-2.699999
 20
2.7499989999999999
 30
0.0
 11
-3.199999
 21
2.413978999999999
 31
0.0
  0
LINE
  5
1F2
  8
DETAIL
  6
CONTINUOUS
 62
     5
 10
-4.9799989999999994
 20
2.4999989999999999
 30
0.0
 11
-3.199999
 21
2.4999989999999999
 31
0.0
  0
ARC
  5
1F3
  8
DETAIL
  6
CONTINUOUS
 62
     5
 10
-2.4999989999999999
 20
-0.36929
 30
0.0
 40
0.5
 50
90.0
 51
277.12501600000002
  0
ARC
  5
1F4
  8
DETAIL
  6
CONTINUOUS
 62
     5
 10
-2.4999989999999999
 20
0.6307100000000001
 30
0.0
 40
0.5
 50
90.0
 51
277.12501600000002
  0
ARC
  5
1F5
  8
DETAIL
  6
CONTINUOUS
 62
     5
 10
-2.4999989999999999
 20
1.6307100000000001
 30
0.0
 40
0.5
 50
90.0
 51
277.12501600000002
  0
ARC
  5
1F6
  8
DETAIL
  6
CONTINUOUS
 62
     5
 10
-2.4999989999999999
 20
2.6307089999999991
 30
0.0
 40
0.5
 50
188.996779
 51
277.12501600000002
  0
ARC
  5
1F7
  8
DETAIL
  6
CONTINUOUS
 62
     5
 10
-2.4999989999999999
 20
4.6307089999999986
 30
0.0
 40
0.5
 50
90.0
 51
195.15440699999999
  0
ARC
  5
1F8
  8
DETAIL
  6
CONTINUOUS
 62
     5
 10
-2.4999989999999999
 20
6.6307080000000003
 30
0.0
 40
0.5
 50
90.0
 51
277.12501600000002
  0
ARC
  5
1F9
  8
DETAIL
  6
CONTINUOUS
 62
     5
 10
-2.4999989999999999
 20
7.6307080000000003
 30
0.0
 40
0.5
 50
90.0
 51
277.12501600000002
  0
ARC
  5
1FA
  8
DETAIL
  6
CONTINUOUS
 62
     5
 10
-2.4999989999999999
 20
8.6307080000000003
 30
0.0
 40
0.5
 50
97.125016000000016
 51
277.12501600000002
  0
LINE
  5
1FB
  8
DETAIL
  6
CONTINUOUS
 62
     5
 10
-21.999994999999998
 20
2.4999989999999999
 30
0.0
 11
-21.999994999999998
 21
-3.499998999999999
 31
0.0
  0
LINE
  5
1FC
  8
DETAIL
  6
CONTINUOUS
 62
     5
 10
-14.999995999999999
 20
-4.499998999999999
 30
0.0
 11
-14.999995999999999
 21
4.499998999999999
 31
0.0
  0
ARC
  5
1FD
  8
DETAIL
  6
CONTINUOUS
 62
     5
 10
-18.499994999999998
 20
-3.499998999999999
 30
0.0
 40
1.0
 50
0.0
 51
90.0
  0
LINE
  5
1FE
  8
DETAIL
  6
CONTINUOUS
 62
     5
 10
-17.499995999999999
 20
-4.499998999999999
 30
0.0
 11
-14.999995999999999
 21
-4.499998999999999
 31
0.0
  0
LINE
  5
1FF
  8
DETAIL
  6
CONTINUOUS
 62
     5
 10
-17.499995999999999
 20
-4.499998999999999
 30
0.0
 11
-17.499995999999999
 21
-3.499998999999999
 31
0.0
  0
LINE
  5
200
  8
DETAIL
  6
CONTINUOUS
 62
     5
 10
-19.999994999999998
 20
-2.4999989999999999
 30
0.0
 11
-18.499994999999998
 21
-2.4999989999999999
 31
0.0
  0
LINE
  5
201
  8
DETAIL
  6
CONTINUOUS
 62
     5
 10
-21.799994999999999
 20
-4.499998999999999
 30
0.0
 11
-21.199995000000001
 21
-4.499998999999999
 31
0.0
  0
LINE
  5
202
  8
DETAIL
  6
CONTINUOUS
 62
     5
 10
-21.799994999999999
 20
-4.499998999999999
 30
0.0
 11
-21.999994999999998
 21
-3.499998999999999
 31
0.0
  0
LINE
  5
203
  8
DETAIL
  6
CONTINUOUS
 62
     5
 10
-20.999994999999998
 20
-3.499998999999999
 30
0.0
 11
-21.199995000000001
 21
-4.499998999999999
 31
0.0
  0
ARC
  5
204
  8
DETAIL
  6
CONTINUOUS
 62
     5
 10
-19.999994999999998
 20
-3.499998999999999
 30
0.0
 40
1.0
 50
90.0
 51
180.0
  0
CIRCLE
  5
205
  8
DETAIL
  6
CONTINUOUS
 62
     5
 10
-17.999995999999999
 20
1.0
 30
0.0
 40
2.0
  0
ARC
  5
206
  8
DETAIL
  6
CONTINUOUS
 62
     5
 10
-19.999994999999998
 20
2.4999989999999999
 30
0.0
 40
2.0
 50
90.0
 51
180.0
  0
LINE
  5
207
  8
NOTE
  6
CONTINUOUS
 62
     4
 10
-93.916642999999993
 20
-86.999977999999999
 30
0.0
 11
-76.083314000000001
 21
-86.999977999999999
 31
0.0
  0
LINE
  5
208
  8
DETAIL
  6
CONTINUOUS
 62
     5
 10
-45.463671999999988
 20
-68.745389000000003
 30
0.0
 11
-40.955115999999997
 21
-60.936345000000003
 31
0.0
  0
LINE
  5
209
  8
DETAIL
  6
CONTINUOUS
 62
     5
 10
-44.651119000000001
 20
-67.338009999999997
 30
0.0
 11
-35.990867999999999
 21
-72.338009
 31
0.0
  0
LINE
  5
20A
  8
DETAIL
  6
CONTINUOUS
 62
     5
 10
-44.45511599999999
 20
-66.998519999999985
 30
0.0
 11
-35.794863999999997
 21
-71.998518999999973
 31
0.0
  0
LINE
  5
20B
  8
DETAIL
  6
CONTINUOUS
 62
     5
 10
-45.395831999999999
 20
-68.627890000000008
 30
0.0
 11
-36.735581000000003
 21
-73.627887999999999
 31
0.0
  0
LINE
  5
20C
  8
DETAIL
  6
CONTINUOUS
 62
     5
 10
-45.463671999999988
 20
-68.745389000000003
 30
0.0
 11
-36.803417000000003
 21
-73.745388000000005
 31
0.0
  0
CIRCLE
  5
20D
  8
DETAIL
  6
CONTINUOUS
 62
     5
 10
-60.104061999999999
 20
-60.104061999999999
 30
0.0
 40
2.0
  0
CIRCLE
  5
20E
  8
DETAIL
  6
CONTINUOUS
 62
     5
 10
-60.104061999999999
 20
-60.104061999999999
 30
0.0
 40
1.5
  0
LINE
  5
20F
  8
NOTE
  6
CONTINUOUS
 62
     4
 10
-84.999979000000025
 20
-78.083314000000001
 30
0.0
 11
-84.999979000000025
 21
-95.916643000000008
 31
0.0
  0
LINE
  5
210
  8
DETAIL
  6
CONTINUOUS
 62
     5
 10
-98.499975000000006
 20
-96.503703000000002
 30
0.0
 11
-99.49997500000002
 21
-96.503703000000002
 31
0.0
  0
ARC
  5
211
  8
DETAIL
  6
CONTINUOUS
 62
     5
 10
-84.999979000000025
 20
-86.999977999999999
 30
0.0
 40
2.2499989999999999
 50
12.839587999999999
 51
347.16041200000001
  0
CIRCLE
  5
212
  8
DETAIL
  6
CONTINUOUS
 62
     5
 10
-66.510733000000002
 20
-38.399990000000003
 30
0.0
 40
1.75
  0
CIRCLE
  5
213
  8
DETAIL
  6
CONTINUOUS
 62
     5
 10
-66.510733000000002
 20
-38.399990000000003
 30
0.0
 40
2.699999
  0
LINE
  5
214
  8
DETAIL
  6
CONTINUOUS
 62
     5
 10
-77.999981000000005
 20
4.999998999999999
 30
0.0
 11
-77.999981000000005
 21
-4.999998999999999
 31
0.0
  0
LINE
  5
215
  8
DETAIL
  6
CONTINUOUS
 62
     5
 10
-76.999981000000005
 20
-5.9999979999999997
 30
0.0
 11
-74.672597999999994
 21
-5.9999979999999997
 31
0.0
  0
ARC
  5
216
  8
DETAIL
  6
CONTINUOUS
 62
     5
 10
-74.672597999999994
 20
-6.9999979999999988
 30
0.0
 40
1.0
 50
5.3554009999999996
 51
90.0
  0
ARC
  5
217
  8
DETAIL
  6
CONTINUOUS
 62
     5
 10
-76.999981000000005
 20
-4.999998999999999
 30
0.0
 40
1.0
 50
180.0
 51
270.0
  0
ARC
  5
218
  8
DETAIL
  6
CONTINUOUS
 62
     5
 10
-76.999981000000005
 20
4.999998999999999
 30
0.0
 40
1.0
 50
90.0
 51
180.0
  0
LINE
  5
219
  8
DETAIL
  6
CONTINUOUS
 62
     5
 10
-76.999981000000005
 20
5.999998999999999
 30
0.0
 11
-74.672597999999994
 21
5.999998999999999
 31
0.0
  0
ARC
  5
21A
  8
DETAIL
  6
CONTINUOUS
 62
     5
 10
-74.672597999999994
 20
6.9999979999999988
 30
0.0
 40
1.0
 50
270.0
 51
354.64459900000003
  0
LINE
  5
21B
  8
DETAIL
  6
CONTINUOUS
 62
     5
 10
0.0
 20
85.49997900000001
 30
0.0
 11
-90.999977000000015
 21
85.49997900000001
 31
0.0
  0
LINE
  5
21C
  8
DETAIL
  6
CONTINUOUS
 62
     5
 10
0.0
 20
84.999979000000025
 30
0.0
 11
-90.999977000000015
 21
84.999979000000025
 31
0.0
  0
LINE
  5
21D
  8
DETAIL
  6
CONTINUOUS
 62
     5
 10
0.0
 20
84.49997900000001
 30
0.0
 11
-90.999977000000015
 21
84.49997900000001
 31
0.0
  0
LINE
  5
21E
  8
DETAIL
  6
CONTINUOUS
 62
     5
 10
0.0
 20
94.999976000000004
 30
0.0
 11
-90.999977000000015
 21
94.999976000000004
 31
0.0
  0
LINE
  5
21F
  8
DETAIL
  6
CONTINUOUS
 62
     5
 10
0.0
 20
94.499976000000004
 30
0.0
 11
-90.999977000000015
 21
94.499976000000004
 31
0.0
  0
LINE
  5
220
  8
DETAIL
  6
CONTINUOUS
 62
     5
 10
-98.499975000000006
 20
92.499976999999987
 30
0.0
 11
0.0
 21
92.499976999999987
 31
0.0
  0
LINE
  5
221
  8
DETAIL
  6
CONTINUOUS
 62
     5
 10
-98.499975000000006
 20
91.999977000000001
 30
0.0
 11
0.0
 21
91.999977000000001
 31
0.0
  0
ARC
  5
222
  8
DETAIL
  6
CONTINUOUS
 62
     5
 10
0.0
 20
0.0
 30
0.0
 40
73.249981999999989
 50
90.0
 51
134.60889900000001
  0
LINE
  5
223
  8
DETAIL
  6
CONTINUOUS
 62
     5
 10
-36.803417000000003
 20
73.745391999999995
 30
0.0
 11
-32.294865000000001
 21
65.936346999999984
 31
0.0
  0
LINE
  5
224
  8
DETAIL
  6
CONTINUOUS
 62
     5
 10
-32.494865000000011
 20
66.282756999999989
 30
0.0
 11
-41.155116
 21
61.282757999999987
 31
0.0
  0
LINE
  5
225
  8
DETAIL
  6
CONTINUOUS
 62
     5
 10
-32.294865000000001
 20
65.936346999999984
 30
0.0
 11
-40.955115999999997
 21
60.936348000000002
 31
0.0
  0
LINE
  5
226
  8
DETAIL
  6
CONTINUOUS
 62
     5
 10
-2.5999989999999991
 20
41.299990000000001
 30
0.0
 11
-2.5999989999999991
 21
19.299994999999999
 31
0.0
  0
LINE
  5
227
  8
DETAIL
  6
CONTINUOUS
 62
     5
 10
0.0
 20
19.299994999999999
 30
0.0
 11
-2.5999989999999991
 21
19.299994999999999
 31
0.0
  0
LINE
  5
228
  8
DETAIL
  6
CONTINUOUS
 62
     5
 10
-3.199999
 20
42.199989000000002
 30
0.0
 11
0.0
 21
42.199989000000002
 31
0.0
  0
LINE
  5
229
  8
DETAIL
  6
CONTINUOUS
 62
     5
 10
0.0
 20
41.299990000000001
 30
0.0
 11
-2.5999989999999991
 21
41.299990000000001
 31
0.0
  0
LINE
  5
22A
  8
DETAIL
  6
CONTINUOUS
 62
     5
 10
-1.75
 20
41.299990000000001
 30
0.0
 11
-1.75
 21
42.199989000000002
 31
0.0
  0
LINE
  5
22B
  8
DETAIL
  6
CONTINUOUS
 62
     5
 10
-3.2499989999999999
 20
66.499983
 30
0.0
 11
0.0
 21
66.499983
 31
0.0
  0
LINE
  5
22C
  8
DETAIL
  6
CONTINUOUS
 62
     5
 10
-3.199999
 20
64.199984000000001
 30
0.0
 11
0.0
 21
64.199984000000001
 31
0.0
  0
LINE
  5
22D
  8
DETAIL
  6
CONTINUOUS
 62
     5
 10
-1.75
 20
64.199984000000001
 30
0.0
 11
-1.75
 21
66.499983
 31
0.0
  0
LINE
  5
22E
  8
DETAIL
  6
CONTINUOUS
 62
     5
 10
-7.7133880000000001
 20
71.182006000000001
 30
0.0
 11
-5.7999989999999988
 21
69.268613000000002
 31
0.0
  0
ARC
  5
22F
  8
DETAIL
  6
CONTINUOUS
 62
     5
 10
-4.6686290000000001
 20
70.399981999999994
 30
0.0
 40
1.6000000000000001
 50
225.0
 51
270.0
  0
LINE
  5
230
  8
DETAIL
  6
CONTINUOUS
 62
     5
 10
-3.2499989999999999
 20
68.499983
 30
0.0
 11
-3.2499989999999999
 21
72.627302
 31
0.0
  0
LINE
  5
231
  8
DETAIL
  6
CONTINUOUS
 62
     5
 10
-4.6686290000000001
 20
68.799982999999997
 30
0.0
 11
-3.2499989999999999
 21
68.799982999999997
 31
0.0
  0
LINE
  5
232
  8
DETAIL
  6
CONTINUOUS
 62
     5
 10
-3.199999
 20
68.499983
 30
0.0
 11
-3.999998999999999
 21
68.499983
 31
0.0
  0
ARC
  5
233
  8
DETAIL
  6
CONTINUOUS
 62
     5
 10
-8.2790750000000006
 20
70.61631899999999
 30
0.0
 40
0.8
 50
45.0
 51
96.686845999999974
  0
ARC
  5
234
  8
DETAIL
  6
CONTINUOUS
 62
     5
 10
0.0
 20
76.799981000000002
 30
0.0
 40
1.75
 50
90.0
 51
270.0
  0
ARC
  5
235
  8
DETAIL
  6
CONTINUOUS
 62
     5
 10
0.0
 20
76.799981000000002
 30
0.0
 40
2.699999
 50
90.0
 51
270.0
  0
LINE
  5
236
  8
NOTE
  6
CONTINUOUS
 62
     4
 10
-84.999979000000025
 20
86.916644999999988
 30
0.0
 11
-84.999979000000025
 21
69.083315999999996
 31
0.0
  0
LINE
  5
237
  8
DETAIL
  6
CONTINUOUS
 62
     5
 10
-36.735581000000003
 20
73.627892000000003
 30
0.0
 11
-45.395831999999999
 21
68.627893
 31
0.0
  0
LINE
  5
238
  8
DETAIL
  6
CONTINUOUS
 62
     5
 10
-36.803417000000003
 20
73.745391999999995
 30
0.0
 11
-45.463671999999988
 21
68.745393000000007
 31
0.0
  0
CIRCLE
  5
239
  8
DETAIL
  6
CONTINUOUS
 62
     5
 10
-66.510733000000002
 20
38.399990000000003
 30
0.0
 40
1.75
  0
CIRCLE
  5
23A
  8
DETAIL
  6
CONTINUOUS
 62
     5
 10
-66.510733000000002
 20
38.399990000000003
 30
0.0
 40
2.699999
  0
ARC
  5
23B
  8
DETAIL
  6
CONTINUOUS
 62
     5
 10
0.0
 20
0.0
 30
0.0
 40
73.749981999999989
 50
128.77261100000001
 51
134.77119200000001
  0
LINE
  5
23C
  8
DETAIL
  6
CONTINUOUS
 62
     5
 10
-46.184538000000003
 20
57.498246000000002
 30
0.0
 11
-45.871421999999988
 21
57.108426000000001
 31
0.0
  0
LINE
  5
23D
  8
DETAIL
  6
CONTINUOUS
 62
     5
 10
-56.745305999999999
 20
56.745305999999999
 30
0.0
 11
-51.44200399999999
 21
51.442006999999997
 31
0.0
  0
LINE
  5
23E
  8
DETAIL
  6
CONTINUOUS
 62
     5
 10
-51.440796999999989
 20
52.147906999999996
 30
0.0
 11
-51.44200399999999
 21
51.442006999999997
 31
0.0
  0
LINE
  5
23F
  8
DETAIL
  6
CONTINUOUS
 62
     5
 10
-51.940440000000002
 20
52.356949999999991
 30
0.0
 11
-51.941650000000003
 21
51.649054
 31
0.0
  0
LINE
  5
240
  8
DETAIL
  6
CONTINUOUS
 62
     5
 10
-45.463671999999988
 20
68.745393000000007
 30
0.0
 11
-40.955115999999997
 21
60.936348000000002
 31
0.0
  0
LINE
  5
241
  8
DETAIL
  6
CONTINUOUS
 62
     5
 10
-35.990867999999999
 20
72.338012000000006
 30
0.0
 11
-44.651119000000001
 21
67.338013000000004
 31
0.0
  0
LINE
  5
242
  8
DETAIL
  6
CONTINUOUS
 62
     5
 10
-35.794863999999997
 20
71.998521999999994
 30
0.0
 11
-44.45511599999999
 21
66.998522999999992
 31
0.0
  0
CIRCLE
  5
243
  8
DETAIL
  6
CONTINUOUS
 62
     5
 10
-60.104061999999999
 20
60.104061999999999
 30
0.0
 40
2.0
  0
CIRCLE
  5
244
  8
DETAIL
  6
CONTINUOUS
 62
     5
 10
-60.104061999999999
 20
60.104061999999999
 30
0.0
 40
1.5
  0
LINE
  5
245
  8
NOTE
  6
CONTINUOUS
 62
     4
 10
-93.916642999999993
 20
77.999981000000005
 30
0.0
 11
-76.083314000000001
 21
77.999981000000005
 31
0.0
  0
LINE
  5
246
  8
DETAIL
  6
CONTINUOUS
 62
     5
 10
-98.499975000000006
 20
92.499976999999987
 30
0.0
 11
-98.499975000000006
 21
84.999979000000025
 31
0.0
  0
LINE
  5
247
  8
DETAIL
  6
CONTINUOUS
 62
     5
 10
-98.499975000000006
 20
92.499976999999987
 30
0.0
 11
-98.499975000000006
 21
85.99997900000001
 31
0.0
  0
LINE
  5
248
  8
DETAIL
  6
CONTINUOUS
 62
     5
 10
-90.999977000000015
 20
85.99997900000001
 30
0.0
 11
-92.999977000000001
 21
85.99997900000001
 31
0.0
  0
LINE
  5
249
  8
DETAIL
  6
CONTINUOUS
 62
     5
 10
-90.999977000000015
 20
83.999978999999996
 30
0.0
 11
-92.999977000000001
 21
83.999978999999996
 31
0.0
  0
ARC
  5
24A
  8
DETAIL
  6
CONTINUOUS
 62
     5
 10
-84.999979000000025
 20
77.999981000000005
 30
0.0
 40
2.2499989999999999
 50
12.839587999999999
 51
347.16041200000001
  0
LINE
  5
24B
  8
DETAIL
  6
CONTINUOUS
 62
     5
 10
-90.999977000000015
 20
85.99997900000001
 30
0.0
 11
-90.999977000000015
 21
83.999978999999996
 31
0.0
  0
LINE
  5
24C
  8
DETAIL
  6
CONTINUOUS
 62
     5
 10
-92.999977000000001
 20
84.999979000000025
 30
0.0
 11
-99.49997500000002
 21
84.999979000000025
 31
0.0
  0
LINE
  5
24D
  8
DETAIL
  6
CONTINUOUS
 62
     5
 10
-92.999977000000001
 20
85.99997900000001
 30
0.0
 11
-92.999977000000001
 21
83.999978999999996
 31
0.0
  0
ARC
  5
24E
  8
DETAIL
  6
CONTINUOUS
 62
     5
 10
-90.999977000000015
 20
92.499976999999987
 30
0.0
 40
2.4999989999999999
 50
90.0
 51
170.40593200000001
  0
ARC
  5
24F
  8
DETAIL
  6
CONTINUOUS
 62
     5
 10
-90.999977000000015
 20
92.499976999999987
 30
0.0
 40
2.0
 50
90.0
 51
170.40593200000001
  0
LINE
  5
250
  8
DETAIL
  6
CONTINUOUS
 62
     5
 10
-98.499975000000006
 20
92.499976999999987
 30
0.0
 11
-94.458016000000015
 21
92.499976999999987
 31
0.0
  0
LINE
  5
251
  8
DETAIL
  6
CONTINUOUS
 62
     5
 10
-98.499975000000006
 20
91.999977000000001
 30
0.0
 11
-94.458016000000015
 21
91.999977000000001
 31
0.0
  0
ARC
  5
252
  8
DETAIL
  6
CONTINUOUS
 62
     5
 10
-93.958016999999984
 20
92.999977000000001
 30
0.0
 40
0.5
 50
270.0
 51
350.40593200000001
  0
ARC
  5
253
  8
DETAIL
  6
CONTINUOUS
 62
     5
 10
-93.958016999999984
 20
92.999977000000001
 30
0.0
 40
1.0
 50
270.0
 51
350.40593200000001
  0
CIRCLE
  5
254
  8
FIX
  6
CONTINUOUS
 62
    11
 39
50.0
 10
-84.999979000000025
 20
-86.999977999999999
 30
0.0
 40
2.25
  0
CIRCLE
  5
255
  8
FIX
  6
CONTINUOUS
 62
    11
 39
50.0
 10
-84.999979000000025
 20
77.999981000000005
 30
0.0
 40
2.25
  0
LINE
  5
256
  8
OUTLINE
  6
CONTINUOUS
 62
     3
 10
-99.49997500000002
 20
84.999979000000025
 30
0.0
 11
-99.49997500000002
 21
-96.503703000000002
 31
0.0
  0
LINE
  5
257
  8
OUTLINE
  6
CONTINUOUS
 62
     3
 10
-98.499975000000006
 20
-96.503703000000002
 30
0.0
 11
-98.499975000000006
 21
-114.999971
 31
0.0
  0
LINE
  5
258
  8
OUTLINE
  6
CONTINUOUS
 62
     3
 10
0.0
 20
-127.102822
 30
0.0
 11
-108.999973
 21
-127.102822
 31
0.0
  0
LINE
  5
259
  8
OUTLINE
  6
CONTINUOUS
 62
     3
 10
-90.999977000000015
 20
-117.999971
 30
0.0
 11
-108.999973
 21
-117.999971
 31
0.0
  0
LINE
  5
25A
  8
OUTLINE
  6
CONTINUOUS
 62
     3
 10
-97.499976000000004
 20
-115.999971
 30
0.0
 11
-90.999977000000015
 21
-115.999971
 31
0.0
  0
LINE
  5
25B
  8
OUTLINE
  6
CONTINUOUS
 62
     3
 10
-90.999977000000015
 20
-115.999971
 30
0.0
 11
-90.999977000000015
 21
-117.999971
 31
0.0
  0
ARC
  5
25C
  8
OUTLINE
  6
CONTINUOUS
 62
     3
 10
-97.499976000000004
 20
-114.999971
 30
0.0
 40
1.0
 50
180.0
 51
270.0
  0
LINE
  5
25D
  8
OUTLINE
  6
CONTINUOUS
 62
     3
 10
-109.999973
 20
-126.102822
 30
0.0
 11
-109.999973
 21
-109.986549
 31
0.0
  0
LINE
  5
25E
  8
OUTLINE
  6
CONTINUOUS
 62
     3
 10
-109.499973
 20
-119.85007299999999
 30
0.0
 11
-109.499973
 21
-109.986549
 31
0.0
  0
ARC
  5
25F
  8
OUTLINE
  6
CONTINUOUS
 62
     3
 10
-108.999973
 20
-126.102822
 30
0.0
 40
1.0
 50
180.0
 51
270.0
  0
LINE
  5
260
  8
OUTLINE
  6
CONTINUOUS
 62
     3
 10
-108.999973
 20
-119.85007299999999
 30
0.0
 11
-109.499973
 21
-119.85007299999999
 31
0.0
  0
LINE
  5
261
  8
OUTLINE
  6
CONTINUOUS
 62
     3
 10
-108.999973
 20
-119.85007299999999
 30
0.0
 11
-108.999973
 21
-117.99997399999999
 31
0.0
  0
LINE
  5
262
  8
OUTLINE
  6
CONTINUOUS
 62
     3
 10
-109.999973
 20
-109.986549
 30
0.0
 11
-109.499973
 21
-109.986549
 31
0.0
  0
LINE
  5
263
  8
OUTLINE
  6
CONTINUOUS
 62
     3
 10
-98.499975000000006
 20
-96.503703000000002
 30
0.0
 11
-99.49997500000002
 21
-96.503703000000002
 31
0.0
  0
LINE
  5
264
  8
OUTLINE
  6
CONTINUOUS
 62
     3
 10
-98.499975000000006
 20
92.499976999999987
 30
0.0
 11
0.0
 21
92.499976999999987
 31
0.0
  0
LINE
  5
265
  8
OUTLINE
  6
CONTINUOUS
 62
     3
 10
-98.499975000000006
 20
92.499976999999987
 30
0.0
 11
-98.499975000000006
 21
84.999979000000025
 31
0.0
  0
LINE
  5
266
  8
OUTLINE
  6
CONTINUOUS
 62
     3
 10
-98.499975000000006
 20
92.499976999999987
 30
0.0
 11
-98.499975000000006
 21
85.99997900000001
 31
0.0
  0
LINE
  5
267
  8
OUTLINE
  6
CONTINUOUS
 62
     3
 10
-98.499975000000006
 20
84.999979000000025
 30
0.0
 11
-99.49997500000002
 21
84.999979000000025
 31
0.0
  0
LINE
  5
268
  8
OUTLINE
  6
CONTINUOUS
 62
     3
 10
-98.499975000000006
 20
92.499976999999987
 30
0.0
 11
-94.458016000000015
 21
92.499976999999987
 31
0.0
  0
LINE
  5
269
  8
OUTLINE
  6
CONTINUOUS
 62
     3
 10
-98.499975000000006
 20
91.999977000000001
 30
0.0
 11
-94.458016000000015
 21
91.999977000000001
 31
0.0
  0
LINE
  5
26A
  8
SIZE
  6
CONTINUOUS
 62
    30
 10
113.91664299999999
 20
77.999981000000005
 30
0.0
 11
284.55840599999999
 21
77.999980000000008
 31
0.0
  0
LINE
  5
26B
  8
SIZE
  6
CONTINUOUS
 62
    30
 10
113.91664299999999
 20
-86.999977999999999
 30
0.0
 11
284.55840599999999
 21
-86.999977999999999
 31
0.0
  0
LINE
  5
26C
  8
SIZE
  6
CONTINUOUS
 62
    30
 10
264.55840599999999
 20
89.999980000000008
 30
0.0
 11
264.55840599999999
 21
101.99998100000001
 31
0.0
  0
LINE
  5
26D
  8
SIZE
  6
CONTINUOUS
 62
    30
 10
264.55840599999999
 20
-98.999978000000013
 30
0.0
 11
264.55840599999999
 21
-110.999978
 31
0.0
  0
LINE
  5
26E
  8
SIZE
  6
CONTINUOUS
 62
    30
 10
264.55840599999999
 20
77.999980000000008
 30
0.0
 11
264.55840599999999
 21
-86.999977999999999
 31
0.0
  0
CIRCLE
  5
26F
  8
SIZE
  6
CONTINUOUS
 62
    30
 10
264.55840599999999
 20
77.999980000000008
 30
0.0
 40
6.0
  0
LINE
  5
270
  8
SIZE
  6
CONTINUOUS
 62
    30
 10
264.55840599999999
 20
77.999980000000008
 30
0.0
 11
264.55840599999999
 21
89.999980000000008
 31
0.0
  0
CIRCLE
  5
271
  8
SIZE
  6
CONTINUOUS
 62
    30
 10
264.55840599999999
 20
-86.999977999999999
 30
0.0
 40
6.0
  0
LINE
  5
272
  8
SIZE
  6
CONTINUOUS
 62
    30
 10
264.55840599999999
 20
-86.999977999999999
 30
0.0
 11
264.55840599999999
 21
-98.999978000000013
 31
0.0
  0
TEXT
  5
273
  8
SIZE
  6
CONTINUOUS
 62
    30
 10
239.55840599999999
 20
-73.071427571428572
 30
0.0
 40
64.0
  1
165
 50
90.0
 41
0.9
 72
     1
 11
239.55840599999999
 21
-4.499998999999999
 31
0.0
  0
POINT
  5
274
  8
DEFPOINTS
  6
CONTINUOUS
 62
    30
 10
93.916642999999993
 20
77.999981000000005
 30
0.0
  0
POINT
  5
275
  8
DEFPOINTS
  6
CONTINUOUS
 62
    30
 10
93.916642999999993
 20
-86.999977999999999
 30
0.0
  0
POINT
  5
276
  8
DEFPOINTS
  6
CONTINUOUS
 62
    30
 10
264.55840599999999
 20
-86.999977999999999
 30
0.0
  0
LINE
  5
277
  8
SIZE
  6
CONTINUOUS
 62
    30
 10
-84.999979000000025
 20
106.916645
 30
0.0
 11
-84.999979000000025
 21
157.61463900000001
 31
0.0
  0
LINE
  5
278
  8
SIZE
  6
CONTINUOUS
 62
    30
 10
84.999979000000025
 20
106.916645
 30
0.0
 11
84.999979000000025
 21
157.61463900000001
 31
0.0
  0
LINE
  5
279
  8
SIZE
  6
CONTINUOUS
 62
    30
 10
-96.99997900000001
 20
137.61463900000001
 30
0.0
 11
-108.999979
 21
137.61463900000001
 31
0.0
  0
LINE
  5
27A
  8
SIZE
  6
CONTINUOUS
 62
    30
 10
96.99997900000001
 20
137.61463900000001
 30
0.0
 11
108.999979
 21
137.61463900000001
 31
0.0
  0
LINE
  5
27B
  8
SIZE
  6
CONTINUOUS
 62
    30
 10
-84.999979000000025
 20
137.61463900000001
 30
0.0
 11
84.999979000000025
 21
137.61463900000001
 31
0.0
  0
CIRCLE
  5
27C
  8
SIZE
  6
CONTINUOUS
 62
    30
 10
-84.999979000000025
 20
137.61463900000001
 30
0.0
 40
6.0
  0
LINE
  5
27D
  8
SIZE
  6
CONTINUOUS
 62
    30
 10
-84.999979000000025
 20
137.61463900000001
 30
0.0
 11
-96.99997900000001
 21
137.61463900000001
 31
0.0
  0
CIRCLE
  5
27E
  8
SIZE
  6
CONTINUOUS
 62
    30
 10
84.999979000000025
 20
137.61463900000001
 30
0.0
 40
6.0
  0
LINE
  5
27F
  8
SIZE
  6
CONTINUOUS
 62
    30
 10
84.999979000000025
 20
137.61463900000001
 30
0.0
 11
96.99997900000001
 21
137.61463900000001
 31
0.0
  0
TEXT
  5
280
  8
SIZE
  6
CONTINUOUS
 62
    30
 10
-68.571428571428569
 20
162.61463900000001
 30
0.0
 40
64.0
  1
170
 41
0.9
 72
     1
 11
0.0
 21
162.61463900000001
 31
0.0
  0
POINT
  5
281
  8
DEFPOINTS
  6
CONTINUOUS
 62
    30
 10
-84.999979000000025
 20
86.916644999999988
 30
0.0
  0
POINT
  5
282
  8
DEFPOINTS
  6
CONTINUOUS
 62
    30
 10
84.999979000000025
 20
86.916644999999988
 30
0.0
  0
POINT
  5
283
  8
DEFPOINTS
  6
CONTINUOUS
 62
    30
 10
84.999979000000025
 20
137.61463900000001
 30
0.0
  0
LINE
  5
284
  8
SIZE
  6
CONTINUOUS
 62
    30
 10
-135.105343
 20
0.0
 30
0.0
 11
-172.00525500000001
 21
0.0
 31
0.0
  0
LINE
  5
285
  8
SIZE
  6
CONTINUOUS
 62
    30
 10
-116.478996
 20
92.499976999999987
 30
0.0
 11
-172.00525500000001
 21
92.499976999999987
 31
0.0
  0
LINE
  5
286
  8
SIZE
  6
CONTINUOUS
 62
    30
 10
-152.00525500000001
 20
-12.0
 30
0.0
 11
-152.00525500000001
 21
-24.0
 31
0.0
  0
LINE
  5
287
  8
SIZE
  6
CONTINUOUS
 62
    30
 10
-152.00525500000001
 20
104.499977
 30
0.0
 11
-152.00525500000001
 21
116.499977
 31
0.0
  0
LINE
  5
288
  8
SIZE
  6
CONTINUOUS
 62
    30
 10
-152.00525500000001
 20
0.0
 30
0.0
 11
-152.00525500000001
 21
92.499976999999987
 31
0.0
  0
CIRCLE
  5
289
  8
SIZE
  6
CONTINUOUS
 62
    30
 10
-152.00525500000001
 20
0.0
 30
0.0
 40
6.0
  0
LINE
  5
28A
  8
SIZE
  6
CONTINUOUS
 62
    30
 10
-152.00525500000001
 20
0.0
 30
0.0
 11
-152.00525500000001
 21
-12.0
 31
0.0
  0
CIRCLE
  5
28B
  8
SIZE
  6
CONTINUOUS
 62
    30
 10
-152.00525500000001
 20
92.499976999999987
 30
0.0
 40
6.0
  0
LINE
  5
28C
  8
SIZE
  6
CONTINUOUS
 62
    30
 10
-152.00525500000001
 20
92.499976999999987
 30
0.0
 11
-152.00525500000001
 21
104.499977
 31
0.0
  0
TEXT
  5
28D
  8
SIZE
  6
CONTINUOUS
 62
    30
 10
-177.00525500000001
 20
-0.3785834285714245
 30
0.0
 40
64.0
  1
93
 50
90.0
 41
0.9
 72
     1
 11
-177.00525500000001
 21
46.249988000000002
 31
0.0
  0
POINT
  5
28E
  8
DEFPOINTS
  6
CONTINUOUS
 62
    30
 10
-115.105343
 20
0.0
 30
0.0
  0
POINT
  5
28F
  8
DEFPOINTS
  6
CONTINUOUS
 62
    30
 10
-96.478995999999995
 20
92.499976999999987
 30
0.0
  0
POINT
  5
290
  8
DEFPOINTS
  6
CONTINUOUS
 62
    30
 10
-152.00525500000001
 20
92.499976999999987
 30
0.0
  0
LINE
  5
291
  8
SIZE
  6
CONTINUOUS
 62
    30
 10
-99.749975000000006
 20
104.999979
 30
0.0
 11
-99.749975000000006
 21
277.61463900000001
 31
0.0
  0
LINE
  5
292
  8
SIZE
  6
CONTINUOUS
 62
    30
 10
99.749975000000006
 20
104.999979
 30
0.0
 11
99.749975000000006
 21
277.61463900000001
 31
0.0
  0
LINE
  5
293
  8
SIZE
  6
CONTINUOUS
 62
    30
 10
-87.749975000000006
 20
257.61463900000001
 30
0.0
 11
87.749975000000006
 21
257.61463900000001
 31
0.0
  0
CIRCLE
  5
294
  8
SIZE
  6
CONTINUOUS
 62
    30
 10
-99.749975000000006
 20
257.61463900000001
 30
0.0
 40
6.0
  0
LINE
  5
295
  8
SIZE
  6
CONTINUOUS
 62
    30
 10
-99.749975000000006
 20
257.61463900000001
 30
0.0
 11
-87.749975000000006
 21
257.61463900000001
 31
0.0
  0
CIRCLE
  5
296
  8
SIZE
  6
CONTINUOUS
 62
    30
 10
99.749975000000006
 20
257.61463900000001
 30
0.0
 40
6.0
  0
LINE
  5
297
  8
SIZE
  6
CONTINUOUS
 62
    30
 10
99.749975000000006
 20
257.61463900000001
 30
0.0
 11
87.749975000000006
 21
257.61463900000001
 31
0.0
  0
TEXT
  5
298
  8
SIZE
  6
CONTINUOUS
 62
    30
 10
-74.05714285714285
 20
282.61463900000001
 30
0.0
 40
64.0
  1
200
 41
0.9
 72
     1
 11
0.0
 21
282.61463900000001
 31
0.0
  0
POINT
  5
299
  8
DEFPOINTS
  6
CONTINUOUS
 62
    30
 10
-99.749975000000006
 20
84.999979000000025
 30
0.0
  0
POINT
  5
29A
  8
DEFPOINTS
  6
CONTINUOUS
 62
    30
 10
99.749975000000006
 20
84.999979000000025
 30
0.0
  0
POINT
  5
29B
  8
DEFPOINTS
  6
CONTINUOUS
 62
    30
 10
99.749975000000006
 20
257.61463900000001
 30
0.0
  0
LINE
  5
29C
  8
SIZE
  6
CONTINUOUS
 62
    30
 10
-109.999973
 20
-146.102822
 30
0.0
 11
-109.999973
 21
-300.023414
 31
0.0
  0
LINE
  5
29D
  8
SIZE
  6
CONTINUOUS
 62
    30
 10
109.999973
 20
-146.102822
 30
0.0
 11
109.999973
 21
-300.023414
 31
0.0
  0
LINE
  5
29E
  8
SIZE
  6
CONTINUOUS
 62
    30
 10
-97.999973000000011
 20
-280.023414
 30
0.0
 11
97.999973000000011
 21
-280.023414
 31
0.0
  0
CIRCLE
  5
29F
  8
SIZE
  6
CONTINUOUS
 62
    30
 10
-109.999973
 20
-280.023414
 30
0.0
 40
6.0
  0
LINE
  5
2A0
  8
SIZE
  6
CONTINUOUS
 62
    30
 10
-109.999973
 20
-280.023414
 30
0.0
 11
-97.999973000000011
 21
-280.023414
 31
0.0
  0
CIRCLE
  5
2A1
  8
SIZE
  6
CONTINUOUS
 62
    30
 10
109.999973
 20
-280.023414
 30
0.0
 40
6.0
  0
LINE
  5
2A2
  8
SIZE
  6
CONTINUOUS
 62
    30
 10
109.999973
 20
-280.023414
 30
0.0
 11
97.999973000000011
 21
-280.023414
 31
0.0
  0
TEXT
  5
2A3
  8
SIZE
  6
CONTINUOUS
 62
    30
 10
-74.05714285714285
 20
-255.023414
 30
0.0
 40
64.0
  1
220
 41
0.9
 72
     1
 11
0.0
 21
-255.023414
 31
0.0
  0
POINT
  5
2A4
  8
DEFPOINTS
  6
CONTINUOUS
 62
    30
 10
-109.999973
 20
-126.102822
 30
0.0
  0
POINT
  5
2A5
  8
DEFPOINTS
  6
CONTINUOUS
 62
    30
 10
109.999973
 20
-126.102822
 30
0.0
  0
POINT
  5
2A6
  8
DEFPOINTS
  6
CONTINUOUS
 62
    30
 10
109.999973
 20
-280.023414
 30
0.0
  0
LINE
  5
2A7
  8
SIZE
  6
CONTINUOUS
 62
    30
 10
-356.64994300000001
 20
-228.03925000000001
 30
0.0
 11
-71.823430000000002
 21
-45.923353000000013
 31
0.0
  0
LINE
  5
2A8
  8
SIZE
  6
CONTINUOUS
 62
    30
 10
71.823430000000002
 20
45.923353000000013
 30
0.0
 11
81.933474999999987
 21
52.387638000000003
 31
0.0
  0
TEXT
  5
2A9
  8
SIZE
  6
CONTINUOUS
 62
    30
 10
-361.07116607824071
 20
-201.19262098222899
 30
0.0
 40
64.0
  1
φ147
 50
32.594508000000012
 41
0.9
 72
     1
 11
-269.32969800000001
 21
-142.533894
 31
0.0
  0
LINE
  5
2AA
  8
SIZE
  6
CONTINUOUS
 62
    30
 10
61.713385000000002
 20
39.459066999999997
 30
0.0
 11
-61.713385000000002
 21
-39.459066999999997
 31
0.0
  0
CIRCLE
  5
2AB
  8
SIZE
  6
CONTINUOUS
 62
    30
 10
61.713385000000002
 20
39.459066999999997
 30
0.0
 40
6.0
  0
LINE
  5
2AC
  8
SIZE
  6
CONTINUOUS
 62
    30
 10
61.713385000000002
 20
39.459066999999997
 30
0.0
 11
71.823430000000002
 21
45.923353000000013
 31
0.0
  0
CIRCLE
  5
2AD
  8
SIZE
  6
CONTINUOUS
 62
    30
 10
-61.713385000000002
 20
-39.459066999999997
 30
0.0
 40
6.0
  0
LINE
  5
2AE
  8
SIZE
  6
CONTINUOUS
 62
    30
 10
-61.713385000000002
 20
-39.459066999999997
 30
0.0
 11
-71.823430000000002
 21
-45.923353000000013
 31
0.0
  0
POINT
  5
2AF
  8
DEFPOINTS
  6
CONTINUOUS
 62
    30
 10
-61.713385000000002
 20
-39.459066999999997
 30
0.0
  0
POINT
  5
2B0
  8
DEFPOINTS
  6
CONTINUOUS
 62
    30
 10
61.713385000000002
 20
39.459066999999997
 30
0.0
  0
LINE
  5
2B1
  8
NOTE
  6
CONTINUOUS
 62
     4
 39
50.0
 10
84.999979000000025
 20
77.999981000000005
 30
0.0
 11
95.882066000000009
 21
84.407741000000001
 31
0.0
  0
LINE
  5
2B2
  8
NOTE
  6
CONTINUOUS
 62
     4
 39
50.0
 10
84.999979000000025
 20
77.999980000000008
 30
0.0
 11
87.234340000000003
 21
90.429253999999986
 31
0.0
  0
TEXT
  5
2BB
  8
ETC
  6
CONTINUOUS
 62
    61
 10
413.8802813830095
 20
559.59354781275795
 30
0.0
 40
40.0
  1
P-18JSD_3
 41
0.9
  0
TEXT
  5
2BC
  8
ETC
  6
CONTINUOUS
 62
    61
 10
409.6942873830094
 20
498.89726881275811
 30
0.0
 40
40.0
  1
システム部材
 41
0.9
  0
TEXT
  5
2BD
  8
ETC
  6
CONTINUOUS
 62
    61
 10
460.3017903830094
 20
417.02715781275799
 30
0.0
 40
40.0
  1
P-18JSD
 41
0.9
  0
TEXT
  5
2BE
  8
ETC
  6
CONTINUOUS
 62
    61
 10
460.3017903830094
 20
356.8095307636504
 30
0.0
 40
40.0
  1
P-18JSQD
 41
0.9
  0
ENDSEC
  0
EOF
