  0
SECTION
  2
HEADER
  9
$ACADVER
  1
AC1009
  9
$INSBASE
 10
0.0
 20
0.0
 30
0.0
  9
$EXTMIN
 10
-760.89933662547264
 20
-330.36803015317861
 30
-0.0030518556252446
  9
$EXTMAX
 10
708.78297018211015
 20
621.00220532273124
 30
50.003052088470113
  9
$LIMMIN
 10
-2970.0
 20
-2100.0
  9
$LIMMAX
 10
2970.0
 20
2100.0
  9
$ORTHOMODE
 70
     1
  9
$REGENMODE
 70
     1
  9
$FILLMODE
 70
     1
  9
$QTEXTMODE
 70
     0
  9
$MIRRTEXT
 70
     0
  9
$DRAGMODE
 70
     2
  9
$LTSCALE
 40
20.0
  9
$OSMODE
 70
    37
  9
$ATTMODE
 70
     1
  9
$TEXTSIZE
 40
64.0
  9
$TRACEWID
 40
0.05
  9
$TEXTSTYLE
  7
STANDARD
  9
$CLAYER
  8
SIZE
  9
$CELTYPE
  6
CONTINUOUS
  9
$CECOLOR
 62
     7
  9
$DIMSCALE
 40
1.0
  9
$DIMASZ
 40
12.0
  9
$DIMEXO
 40
20.0
  9
$DIMDLI
 40
200.0
  9
$DIMRND
 40
0.0
  9
$DIMDLE
 40
0.0
  9
$DIMEXE
 40
20.0
  9
$DIMTP
 40
0.0
  9
$DIMTM
 40
0.0
  9
$DIMTXT
 40
64.0
  9
$DIMCEN
 40
0.09
  9
$DIMTSZ
 40
0.0
  9
$DIMTOL
 70
     0
  9
$DIMLIM
 70
     0
  9
$DIMTIH
 70
     0
  9
$DIMTOH
 70
     0
  9
$DIMSE1
 70
     0
  9
$DIMSE2
 70
     0
  9
$DIMTAD
 70
     1
  9
$DIMZIN
 70
     8
  9
$DIMBLK
  1
DOT1
  9
$DIMASO
 70
     1
  9
$DIMSHO
 70
     0
  9
$DIMPOST
  1

  9
$DIMAPOST
  1

  9
$DIMALT
 70
     0
  9
$DIMALTD
 70
     2
  9
$DIMALTF
 40
25.399999999999999
  9
$DIMLFAC
 40
1.0
  9
$DIMTOFL
 70
     1
  9
$DIMTVP
 40
0.0
  9
$DIMTIX
 70
     1
  9
$DIMSOXD
 70
     0
  9
$DIMSAH
 70
     1
  9
$DIMBLK1
  1
ORIGIN
  9
$DIMBLK2
  1
ORIGIN
  9
$DIMSTYLE
  2
STANDARD
  9
$DIMCLRD
 70
     7
  9
$DIMCLRE
 70
     7
  9
$DIMCLRT
 70
     7
  9
$DIMTFAC
 40
1.0
  9
$DIMGAP
 40
25.0
  9
$LUNITS
 70
     2
  9
$LUPREC
 70
     4
  9
$SKETCHINC
 40
0.1
  9
$FILLETRAD
 40
3.0
  9
$AUNITS
 70
     1
  9
$AUPREC
 70
     3
  9
$MENU
  1
ACAD
  9
$ELEVATION
 40
0.0
  9
$PELEVATION
 40
0.0
  9
$THICKNESS
 40
50.0
  9
$LIMCHECK
 70
     0
  9
$BLIPMODE
 70
     0
  9
$CHAMFERA
 40
0.0
  9
$CHAMFERB
 40
0.0
  9
$SKPOLY
 70
     0
  9
$TDCREATE
 40
2453019.6230103709
  9
$TDUPDATE
 40
2454963.5873981938
  9
$TDINDWG
 40
1.6698032060000001
  9
$TDUSRTIMER
 40
1.6698032060000001
  9
$USRTIMER
 70
     1
  9
$ANGBASE
 50
0.0
  9
$ANGDIR
 70
     0
  9
$PDMODE
 70
     3
  9
$PDSIZE
 40
-2.0
  9
$PLINEWID
 40
0.0
  9
$COORDS
 70
     0
  9
$SPLFRAME
 70
     0
  9
$SPLINETYPE
 70
     6
  9
$SPLINESEGS
 70
     8
  9
$ATTDIA
 70
     0
  9
$ATTREQ
 70
     1
  9
$HANDLING
 70
     1
  9
$HANDSEED
  5
25B
  9
$SURFTAB1
 70
     6
  9
$SURFTAB2
 70
     6
  9
$SURFTYPE
 70
     6
  9
$SURFU
 70
     6
  9
$SURFV
 70
     6
  9
$UCSNAME
  2

  9
$UCSORG
 10
0.0
 20
0.0
 30
0.0
  9
$UCSXDIR
 10
1.0
 20
0.0
 30
0.0
  9
$UCSYDIR
 10
0.0
 20
1.0
 30
0.0
  9
$PUCSNAME
  2

  9
$PUCSORG
 10
0.0
 20
0.0
 30
0.0
  9
$PUCSXDIR
 10
1.0
 20
0.0
 30
0.0
  9
$PUCSYDIR
 10
0.0
 20
1.0
 30
0.0
  9
$USERI1
 70
     0
  9
$USERI2
 70
     0
  9
$USERI3
 70
     0
  9
$USERI4
 70
     0
  9
$USERI5
 70
     0
  9
$USERR1
 40
20.0
  9
$USERR2
 40
0.0
  9
$USERR3
 40
0.0
  9
$USERR4
 40
0.0
  9
$USERR5
 40
0.0
  9
$WORLDVIEW
 70
     1
  9
$SHADEDGE
 70
     3
  9
$SHADEDIF
 70
    70
  9
$TILEMODE
 70
     1
  9
$MAXACTVP
 70
    48
  9
$PLIMCHECK
 70
     0
  9
$PEXTMIN
 10
-1.0000000000000000E+020
 20
-1.0000000000000000E+020
 30
-1.0000000000000000E+020
  9
$PEXTMAX
 10
1.0000000000000000E+020
 20
1.0000000000000000E+020
 30
1.0000000000000000E+020
  9
$PLIMMIN
 10
0.0
 20
0.0
  9
$PLIMMAX
 10
12.0
 20
9.0
  9
$UNITMODE
 70
     0
  9
$VISRETAIN
 70
     0
  9
$PLINEGEN
 70
     0
  9
$PSLTSCALE
 70
     0
  0
ENDSEC
  0
SECTION
  2
TABLES
  0
TABLE
  2
VPORT
 70
     1
  0
VPORT
  2
*ACTIVE
 70
     0
 10
0.0
 20
0.0
 11
1.0
 21
1.0
 12
-39.727219607133982
 22
104.9106710236729
 13
0.0
 23
0.0
 14
1.0
 24
1.0
 15
0.0
 25
0.0
 16
0.0
 26
0.0
 36
1.0
 17
0.0
 27
0.0
 37
0.0
 40
1268.397794769726
 41
1.3098995695839311
 42
50.0
 43
0.0
 44
0.0
 50
0.0
 51
0.0
 71
     0
 72
  1000
 73
     1
 74
     0
 75
     0
 76
     0
 77
     0
 78
     0
  0
ENDTAB
  0
TABLE
  2
LTYPE
 70
     3
  0
LTYPE
  2
CONTINUOUS
 70
     0
  3
実線
 72
    65
 73
     0
 40
0.0
  0
LTYPE
  2
DASHDOT
 70
     0
  3
____ _ ____ _ ____ _ ____ _ ____ _ ____ _ ____
 72
    65
 73
     4
 40
5.5
 49
4.0
 49
-0.6
 49
0.3
 49
-0.6
  0
ENDTAB
  0
TABLE
  2
LAYER
 70
    12
  0
LAYER
  2
0
 70
     0
 62
     7
  6
CONTINUOUS
  0
LAYER
  2
SIZE
 70
     0
 62
    30
  6
CONTINUOUS
  0
LAYER
  2
BASIS
 70
     0
 62
     6
  6
DASHDOT
  0
LAYER
  2
OUTLINE
 70
     0
 62
     3
  6
CONTINUOUS
  0
LAYER
  2
DETAIL
 70
     0
 62
     5
  6
CONTINUOUS
  0
LAYER
  2
ARRANGE
 70
     0
 62
     1
  6
CONTINUOUS
  0
LAYER
  2
DEFPOINTS
 70
     0
 62
     7
  6
CONTINUOUS
  0
LAYER
  2
ETC
 70
     0
 62
    61
  6
CONTINUOUS
  0
LAYER
  2
FIX
 70
     0
 62
    11
  6
CONTINUOUS
  0
LAYER
  2
NOTE
 70
     0
 62
     4
  6
CONTINUOUS
  0
LAYER
  2
SERVICESPACE
 70
     0
 62
     2
  6
DASHDOT
  0
LAYER
  2
SYMBOLLINE
 70
     0
 62
    15
  6
CONTINUOUS
  0
ENDTAB
  0
TABLE
  2
STYLE
 70
     2
  0
STYLE
  2
STANDARD
 70
     0
 40
64.0
 41
0.9
 50
0.0
 71
     0
 42
64.0
  3
SIMPLEX.shx
  4
BIGFONT.shx
  0
STYLE
  2
ANNOTATIVE
 70
     0
 40
0.0
 41
1.0
 50
0.0
 71
     0
 42
0.2
  3
txt
  4

  0
ENDTAB
  0
TABLE
  2
VIEW
 70
     1
  0
VIEW
  2
ALL
 70
     0
 40
4282.6198079999986
 10
0.0
 20
41.309903999999989
 41
5940.0
 11
0.0
 21
0.0
 31
1.0
 12
0.0
 22
0.0
 32
0.0
 42
50.0
 43
0.0
 44
0.0
 50
0.0
 71
     0
  0
ENDTAB
  0
TABLE
  2
UCS
 70
     0
  0
ENDTAB
  0
TABLE
  2
APPID
 70
    17
  0
APPID
  2
ACAD
 70
     0
  0
APPID
  2
ACADANNOTATIVE
 70
     0
  0
APPID
  2
ACAD_MLEADERVER
 70
     0
  0
APPID
  2
AUTOCAD_POSTSCRIPT_FIGURE
 70
     0
  0
APPID
  2
ACAD_EXEMPT_FROM_CAD_STANDARDS
 70
     0
  0
APPID
  2
ACAD_PSEXT
 70
     0
  0
APPID
  2
ACAUTHENVIRON
 70
     0
  0
APPID
  2
GENIUS_GENOENT_13
 70
     0
  0
APPID
  2
GENIUS_GENCFG_13
 70
     0
  0
APPID
  2
GENIUS_GENCFG0_13
 70
     0
  0
APPID
  2
GENIUS_GENCFG1_13
 70
     0
  0
APPID
  2
GENIUS_GENCFG2_13
 70
     0
  0
APPID
  2
GENIUS_GENCFG3_13
 70
     0
  0
APPID
  2
GENIUS_GENCFG4_13
 70
     0
  0
APPID
  2
GENIUS_GEVCFG0_13
 70
     0
  0
APPID
  2
CONTENTBLOCKICON
 70
     0
  0
APPID
  2
CONTENTBLOCKDESCRIPTION
 70
     0
  0
ENDTAB
  0
TABLE
  2
DIMSTYLE
 70
     2
  0
DIMSTYLE
  2
STANDARD
 70
     0
  3

  4

  5

  6

  7

 40
1.0
 41
0.18
 42
0.0625
 43
0.38
 44
0.18
 45
0.0
 46
0.0
 47
0.0
 48
0.0
140
0.18
141
0.09
142
0.0
143
25.399999999999999
144
1.0
145
0.0
146
1.0
147
0.09
 71
     0
 72
     0
 73
     1
 74
     1
 75
     0
 76
     0
 77
     0
 78
     0
170
     0
171
     2
172
     0
173
     0
174
     0
175
     0
176
     7
177
     7
178
     7
  0
DIMSTYLE
  2
ANNOTATIVE
 70
     0
  3

  4

  5

  6

  7

 40
1.0
 41
0.18
 42
0.0625
 43
0.38
 44
0.18
 45
0.0
 46
0.0
 47
0.0
 48
0.0
140
0.18
141
0.09
142
0.0
143
25.399999999999999
144
1.0
145
0.0
146
1.0
147
0.09
 71
     0
 72
     0
 73
     1
 74
     1
 75
     0
 76
     0
 77
     0
 78
     0
170
     0
171
     2
172
     0
173
     0
174
     0
175
     0
176
     0
177
     0
178
     0
  0
ENDTAB
  0
ENDSEC
  0
SECTION
  2
BLOCKS
  0
BLOCK
  8
0
  2
$MODEL_SPACE
 70
     0
 10
0.0
 20
0.0
 30
0.0
  3
$MODEL_SPACE
  1

  0
ENDBLK
  5
76
  8
0
  0
BLOCK
 67
     1
  8
0
  2
$PAPER_SPACE
 70
     0
 10
0.0
 20
0.0
 30
0.0
  3
$PAPER_SPACE
  1

  0
ENDBLK
  5
72
 67
     1
  8
0
  0
BLOCK
  8
0
  2
DOT1
 70
     0
 10
0.0
 20
0.0
 30
0.0
  3
DOT1
  1

  0
CIRCLE
  5
99
  8
SIZE
  6
CONTINUOUS
 62
     7
 10
0.0
 20
0.0
 30
0.0
 40
3.0
  0
ENDBLK
  5
9A
  8
0
  0
BLOCK
  8
0
  2
_ORIGIN
 70
     0
 10
0.0
 20
0.0
 30
0.0
  3
_ORIGIN
  1

  0
CIRCLE
  5
9D
  8
0
  6
CONTINUOUS
 62
     7
 10
0.0
 20
0.0
 30
0.0
 40
0.5
  0
LINE
  5
9E
  8
0
  6
CONTINUOUS
 62
     7
 10
0.0
 20
0.0
 30
0.0
 11
-1.0
 21
0.0
 31
0.0
  0
ENDBLK
  5
9F
  8
0
  0
ENDSEC
  0
SECTION
  2
ENTITIES
  0
CIRCLE
  5
A3
  8
ARRANGE
  6
CONTINUOUS
 62
     1
 10
0.0
 20
0.0
 30
0.0
 40
40.0
  0
POINT
  5
A4
  8
ARRANGE
  6
CONTINUOUS
 62
     1
 10
0.0
 20
0.0
 30
0.0
 39
50.0
  0
LINE
  5
A5
  8
BASIS
  6
DASHDOT
 62
     6
 39
50.0
 10
87.630631999999991
 20
0.0
 30
0.0
 11
-109.999972
 21
0.0
 31
0.0
  0
LINE
  5
A6
  8
NOTE
  6
CONTINUOUS
 62
     4
 39
50.0
 10
-7.4503130000000004
 20
78.0
 30
0.0
 11
-108.39575600000001
 21
357.22585500000002
 31
0.0
  0
LINE
  5
A7
  8
NOTE
  6
CONTINUOUS
 62
     4
 39
50.0
 10
-760.64224999999988
 20
357.22585500000002
 30
0.0
 11
-108.39575600000001
 21
357.22585500000002
 31
0.0
  0
TEXT
  5
A8
  8
NOTE
  6
CONTINUOUS
 62
     4
 10
-746.829474
 20
367.94612899999998
 30
0.0
 40
40.0
  1
4-φ4.5ノックアウト取付用穴
 41
0.9
  0
LINE
  5
A9
  8
OUTLINE
  6
CONTINUOUS
 62
     3
 10
-100.49997500000001
 20
-106.999973
 30
0.0
 11
-100.49997500000001
 21
91.999977000000001
 31
0.0
  0
LINE
  5
AA
  8
OUTLINE
  6
CONTINUOUS
 62
     3
 10
72.499981999999989
 20
-71.099981999999983
 30
0.0
 11
72.499981999999989
 21
71.099981999999983
 31
0.0
  0
LINE
  5
AB
  8
OUTLINE
  6
CONTINUOUS
 62
     3
 10
0.0
 20
-73.249981999999989
 30
0.0
 11
70.499981999999989
 21
-73.249981999999989
 31
0.0
  0
LINE
  5
AC
  8
OUTLINE
  6
CONTINUOUS
 62
     3
 10
0.0
 20
-73.249981999999989
 30
0.0
 11
0.0
 21
-120.149867
 31
0.0
  0
LINE
  5
AD
  8
OUTLINE
  6
CONTINUOUS
 62
     3
 10
-100.49997500000001
 20
-106.999973
 30
0.0
 11
-11.775744
 21
-106.999973
 31
0.0
  0
LINE
  5
AE
  8
OUTLINE
  6
CONTINUOUS
 62
     3
 10
-88.499977999999999
 20
-106.999973
 30
0.0
 11
-88.999977999999984
 21
-106.999973
 31
0.0
  0
LINE
  5
AF
  8
OUTLINE
  6
CONTINUOUS
 62
     3
 10
-23.999994000000001
 20
-106.999973
 30
0.0
 11
-82.092445999999995
 21
-106.999973
 31
0.0
  0
LINE
  5
B0
  8
OUTLINE
  6
CONTINUOUS
 62
     3
 10
-16.990919000000002
 20
-116.392488
 30
0.0
 11
-8.4999979999999997
 21
-113.30204500000001
 31
0.0
  0
LINE
  5
B1
  8
OUTLINE
  6
CONTINUOUS
 62
     3
 10
-18.793848999999991
 20
-127.69047500000001
 30
0.0
 11
-0.6579800000000001
 21
-121.089556
 31
0.0
  0
LINE
  5
B2
  8
OUTLINE
  6
CONTINUOUS
 62
     3
 10
-18.964859000000001
 20
-127.220628
 30
0.0
 11
-18.964859000000001
 21
-119.211564
 31
0.0
  0
LINE
  5
B3
  8
OUTLINE
  6
CONTINUOUS
 62
     3
 10
-18.793848999999991
 20
-127.69047500000001
 30
0.0
 11
-18.964859000000001
 21
-127.220628
 31
0.0
  0
ARC
  5
B4
  8
OUTLINE
  6
CONTINUOUS
 62
     3
 10
-15.964859000000001
 20
-119.211564
 30
0.0
 40
2.9999989999999999
 50
110.0
 51
180.0
  0
LINE
  5
B5
  8
OUTLINE
  6
CONTINUOUS
 62
     3
 10
-8.4999979999999997
 20
-113.30204500000001
 30
0.0
 11
-1.3420199999999991
 21
-110.696752
 31
0.0
  0
LINE
  5
B6
  8
OUTLINE
  6
CONTINUOUS
 62
     3
 10
-11.775744
 20
-106.999973
 30
0.0
 11
-8.4999979999999997
 21
-106.999973
 31
0.0
  0
LINE
  5
B7
  8
OUTLINE
  6
CONTINUOUS
 62
     3
 10
-7.9999979999999988
 20
-113.120058
 30
0.0
 11
-7.9999979999999988
 21
-107.00962
 31
0.0
  0
LINE
  5
B8
  8
OUTLINE
  6
CONTINUOUS
 62
     3
 10
-9.2999980000000004
 20
-107.00962
 30
0.0
 11
-7.9999979999999988
 21
-107.00962
 31
0.0
  0
ARC
  5
B9
  8
OUTLINE
  6
CONTINUOUS
 62
     3
 10
-1.0
 20
-120.149867
 30
0.0
 40
1.0
 50
290.0
 51
0.0
  0
ARC
  5
BA
  8
OUTLINE
  6
CONTINUOUS
 62
     3
 10
-1.0
 20
-111.63644499999999
 30
0.0
 40
1.0
 50
0.0
 51
110.0
  0
LINE
  5
BB
  8
OUTLINE
  6
CONTINUOUS
 62
     3
 10
70.499981999999989
 20
-73.249981999999989
 30
0.0
 11
70.499981999999989
 21
-72.649175
 31
0.0
  0
LINE
  5
BC
  8
OUTLINE
  6
CONTINUOUS
 62
     3
 10
70.499981999999989
 20
-72.699981999999991
 30
0.0
 11
70.899981999999994
 21
-72.699981999999991
 31
0.0
  0
ARC
  5
BD
  8
OUTLINE
  6
CONTINUOUS
 62
     3
 10
70.899981999999994
 20
-71.099981999999983
 30
0.0
 40
1.6000000000000001
 50
270.0
 51
0.0
  0
LINE
  5
BE
  8
OUTLINE
  6
CONTINUOUS
 62
     3
 10
0.0
 20
73.249981999999989
 30
0.0
 11
70.499981999999989
 21
73.249981999999989
 31
0.0
  0
LINE
  5
BF
  8
OUTLINE
  6
CONTINUOUS
 62
     3
 10
-86.499977999999984
 20
92.999977000000001
 30
0.0
 11
-29.499993
 21
92.999977000000001
 31
0.0
  0
LINE
  5
C0
  8
OUTLINE
  6
CONTINUOUS
 62
     3
 10
-29.999991999999999
 20
92.999977000000001
 30
0.0
 11
-85.999977999999999
 21
92.999977000000001
 31
0.0
  0
LINE
  5
C1
  8
OUTLINE
  6
CONTINUOUS
 62
     3
 10
-99.49997500000002
 20
92.999977000000001
 30
0.0
 11
-87.618010999999996
 21
92.999977000000001
 31
0.0
  0
ARC
  5
C2
  8
OUTLINE
  6
CONTINUOUS
 62
     3
 10
-99.49997500000002
 20
91.999977000000001
 30
0.0
 40
1.0
 50
90.0
 51
180.0
  0
LINE
  5
C3
  8
OUTLINE
  6
CONTINUOUS
 62
     3
 10
-87.618010999999996
 20
92.999977000000001
 30
0.0
 11
-86.499977999999984
 21
92.999977000000001
 31
0.0
  0
LINE
  5
C4
  8
OUTLINE
  6
CONTINUOUS
 62
     3
 10
-18.854099000000001
 20
92.999977000000001
 30
0.0
 11
-12.145894
 21
92.999977000000001
 31
0.0
  0
LINE
  5
C5
  8
OUTLINE
  6
CONTINUOUS
 62
     3
 10
-28.381959999999999
 20
92.999977000000001
 30
0.0
 11
-18.854099000000001
 21
92.999977000000001
 31
0.0
  0
LINE
  5
C6
  8
OUTLINE
  6
CONTINUOUS
 62
     3
 10
-29.499993
 20
92.999977000000001
 30
0.0
 11
-28.381959999999999
 21
92.999977000000001
 31
0.0
  0
LINE
  5
C7
  8
OUTLINE
  6
CONTINUOUS
 62
     3
 10
-7.4999979999999988
 20
85.999977999999999
 30
0.0
 11
-7.4999979999999988
 21
91.499977000000001
 31
0.0
  0
LINE
  5
C8
  8
OUTLINE
  6
CONTINUOUS
 62
     3
 10
-7.4999979999999988
 20
85.999977999999999
 30
0.0
 11
-7.4999979999999988
 21
92.999977000000001
 31
0.0
  0
LINE
  5
C9
  8
OUTLINE
  6
CONTINUOUS
 62
     3
 10
0.0
 20
83.999978999999996
 30
0.0
 11
-7.4999979999999988
 21
83.999978999999996
 31
0.0
  0
LINE
  5
CA
  8
OUTLINE
  6
CONTINUOUS
 62
     3
 10
-0.5
 20
85.49997900000001
 30
0.0
 11
-6.9999979999999988
 21
85.49997900000001
 31
0.0
  0
LINE
  5
CB
  8
OUTLINE
  6
CONTINUOUS
 62
     3
 10
-0.5
 20
84.49997900000001
 30
0.0
 11
-6.9999979999999988
 21
84.49997900000001
 31
0.0
  0
ARC
  5
CC
  8
OUTLINE
  6
CONTINUOUS
 62
     3
 10
-6.9999979999999988
 20
83.999978999999996
 30
0.0
 40
0.5
 50
90.0
 51
180.0
  0
ARC
  5
CD
  8
OUTLINE
  6
CONTINUOUS
 62
     3
 10
-6.9999979999999988
 20
85.999977999999999
 30
0.0
 40
0.5
 50
180.0
 51
270.0
  0
LINE
  5
CE
  8
OUTLINE
  6
CONTINUOUS
 62
     3
 10
0.0
 20
83.999978999999996
 30
0.0
 11
0.0
 21
73.249981999999989
 31
0.0
  0
ARC
  5
CF
  8
OUTLINE
  6
CONTINUOUS
 62
     3
 10
-0.5
 20
84.999979000000025
 30
0.0
 40
0.5
 50
270.0
 51
90.0
  0
LINE
  5
D0
  8
OUTLINE
  6
CONTINUOUS
 62
     3
 10
-12.145894
 20
92.999977000000001
 30
0.0
 11
-7.4999979999999988
 21
92.999977000000001
 31
0.0
  0
LINE
  5
D1
  8
OUTLINE
  6
CONTINUOUS
 62
     3
 10
70.499981999999989
 20
73.249981999999989
 30
0.0
 11
70.499981999999989
 21
72.649175
 31
0.0
  0
LINE
  5
D2
  8
OUTLINE
  6
CONTINUOUS
 62
     3
 10
70.499981999999989
 20
72.649175
 30
0.0
 11
70.899981999999994
 21
72.699981999999991
 31
0.0
  0
ARC
  5
D3
  8
OUTLINE
  6
CONTINUOUS
 62
     3
 10
70.899981999999994
 20
71.099981999999983
 30
0.0
 40
1.6000000000000001
 50
0.0
 51
90.0
  0
LINE
  5
D4
  8
OUTLINE
  6
CONTINUOUS
 62
     3
 10
62.466721
 20
73.249981999999989
 30
0.0
 11
70.499981999999989
 21
73.249981999999989
 31
0.0
  0
LINE
  5
D5
  8
DETAIL
  6
CONTINUOUS
 62
     5
 10
-7.9999979999999988
 20
-74.249981000000005
 30
0.0
 11
-7.9999979999999988
 21
74.249981000000005
 31
0.0
  0
LINE
  5
D6
  8
DETAIL
  6
CONTINUOUS
 62
     5
 10
-7.4999979999999988
 20
-73.383955
 30
0.0
 11
-7.4999979999999988
 21
73.383957999999993
 31
0.0
  0
LINE
  5
D7
  8
DETAIL
  6
CONTINUOUS
 62
     5
 10
-7.4999979999999988
 20
-106.999973
 30
0.0
 11
-7.4999979999999988
 21
85.999977999999999
 31
0.0
  0
LINE
  5
D8
  8
DETAIL
  6
CONTINUOUS
 62
     5
 10
-88.252341000000015
 20
-106.999973
 30
0.0
 11
-88.252341000000015
 21
92.999977000000001
 31
0.0
  0
LINE
  5
D9
  8
DETAIL
  6
CONTINUOUS
 62
     5
 10
-95.999976000000004
 20
-106.999973
 30
0.0
 11
-95.999976000000004
 21
92.999977000000001
 31
0.0
  0
LINE
  5
DA
  8
DETAIL
  6
CONTINUOUS
 62
     5
 10
-99.999975000000006
 20
-106.999973
 30
0.0
 11
-99.999975000000006
 21
92.866001999999995
 31
0.0
  0
LINE
  5
DB
  8
DETAIL
  6
CONTINUOUS
 62
     5
 10
-100.49997500000001
 20
-106.999973
 30
0.0
 11
-100.49997500000001
 21
91.999977000000001
 31
0.0
  0
LINE
  5
DC
  8
DETAIL
  6
CONTINUOUS
 62
     5
 10
-8.4999979999999997
 20
-80.249980000000008
 30
0.0
 11
-8.4999979999999997
 21
80.249980000000008
 31
0.0
  0
LINE
  5
DD
  8
DETAIL
  6
CONTINUOUS
 62
     5
 10
-7.9999979999999988
 20
0.0
 30
0.0
 11
-7.9999979999999988
 21
80.249980000000008
 31
0.0
  0
LINE
  5
DE
  8
DETAIL
  6
CONTINUOUS
 62
     5
 10
72.499981999999989
 20
-71.099981999999983
 30
0.0
 11
72.499981999999989
 21
71.099981999999983
 31
0.0
  0
LINE
  5
DF
  8
DETAIL
  6
CONTINUOUS
 62
     5
 10
0.0
 20
-73.249981999999989
 30
0.0
 11
70.499981999999989
 21
-73.249981999999989
 31
0.0
  0
LINE
  5
E0
  8
DETAIL
  6
CONTINUOUS
 62
     5
 10
0.0
 20
-72.749981999999974
 30
0.0
 11
70.499981999999989
 21
-72.749981999999974
 31
0.0
  0
LINE
  5
E1
  8
DETAIL
  6
CONTINUOUS
 62
     5
 10
-9.2999980000000004
 20
-109.009619
 30
0.0
 11
-9.2999980000000004
 21
-102.009621
 31
0.0
  0
LINE
  5
E2
  8
DETAIL
  6
CONTINUOUS
 62
     5
 10
-9.2999980000000004
 20
-109.009619
 30
0.0
 11
-9.2999980000000004
 21
-102.009621
 31
0.0
  0
ARC
  5
E3
  8
DETAIL
  6
CONTINUOUS
 62
     5
 10
-2.8999990000000002
 20
-105.50962
 30
0.0
 40
8.9999979999999997
 50
163.39845199999999
 51
196.60153099999999
  0
LINE
  5
E4
  8
DETAIL
  6
CONTINUOUS
 62
     5
 10
-7.9999979999999988
 20
-107.00962
 30
0.0
 11
-7.9999979999999988
 21
-104.009621
 31
0.0
  0
LINE
  5
E5
  8
DETAIL
  6
CONTINUOUS
 62
     5
 10
-7.4999979999999988
 20
-108.22167
 30
0.0
 11
-7.4999979999999988
 21
-102.82167099999999
 31
0.0
  0
LINE
  5
E6
  8
DETAIL
  6
CONTINUOUS
 62
     5
 10
0.0
 20
-72.749981999999974
 30
0.0
 11
0.0
 21
-120.149867
 31
0.0
  0
LINE
  5
E7
  8
DETAIL
  6
CONTINUOUS
 62
     5
 10
-7.9999979999999988
 20
-106.999973
 30
0.0
 11
-7.9999979999999988
 21
-104.009621
 31
0.0
  0
LINE
  5
E8
  8
DETAIL
  6
CONTINUOUS
 62
     5
 10
-8.4999979999999997
 20
-106.999973
 30
0.0
 11
-8.4999979999999997
 21
-104.009621
 31
0.0
  0
LINE
  5
E9
  8
DETAIL
  6
CONTINUOUS
 62
     5
 10
-9.2999980000000004
 20
-107.00962
 30
0.0
 11
-9.2999980000000004
 21
-104.009621
 31
0.0
  0
LINE
  5
EA
  8
DETAIL
  6
CONTINUOUS
 62
     5
 10
-100.49997500000001
 20
-106.999973
 30
0.0
 11
-11.775744
 21
-106.999973
 31
0.0
  0
LINE
  5
EB
  8
DETAIL
  6
CONTINUOUS
 62
     5
 10
-88.499977999999999
 20
-106.999973
 30
0.0
 11
-88.999977999999984
 21
-106.999973
 31
0.0
  0
LINE
  5
EC
  8
DETAIL
  6
CONTINUOUS
 62
     5
 10
-23.999994000000001
 20
-106.999973
 30
0.0
 11
-82.092445999999995
 21
-106.999973
 31
0.0
  0
LINE
  5
ED
  8
DETAIL
  6
CONTINUOUS
 62
     5
 10
-16.990919000000002
 20
-116.392488
 30
0.0
 11
-8.4999979999999997
 21
-113.30204500000001
 31
0.0
  0
LINE
  5
EE
  8
DETAIL
  6
CONTINUOUS
 62
     5
 10
-18.793848999999991
 20
-127.69047500000001
 30
0.0
 11
-0.6579800000000001
 21
-121.089556
 31
0.0
  0
LINE
  5
EF
  8
DETAIL
  6
CONTINUOUS
 62
     5
 10
-18.964859000000001
 20
-127.220628
 30
0.0
 11
-18.964859000000001
 21
-119.211564
 31
0.0
  0
LINE
  5
F0
  8
DETAIL
  6
CONTINUOUS
 62
     5
 10
-18.793848999999991
 20
-127.69047500000001
 30
0.0
 11
-18.964859000000001
 21
-127.220628
 31
0.0
  0
ARC
  5
F1
  8
DETAIL
  6
CONTINUOUS
 62
     5
 10
-15.964859000000001
 20
-119.211564
 30
0.0
 40
2.9999989999999999
 50
110.0
 51
180.0
  0
LINE
  5
F2
  8
DETAIL
  6
CONTINUOUS
 62
     5
 10
-8.4999979999999997
 20
-113.30204500000001
 30
0.0
 11
-1.3420199999999991
 21
-110.696752
 31
0.0
  0
LINE
  5
F3
  8
DETAIL
  6
CONTINUOUS
 62
     5
 10
-9.2999980000000004
 20
-109.009619
 30
0.0
 11
-10.279021999999999
 21
-109.009619
 31
0.0
  0
LINE
  5
F4
  8
DETAIL
  6
CONTINUOUS
 62
     5
 10
-11.775744
 20
-106.999973
 30
0.0
 11
-8.4999979999999997
 21
-106.999973
 31
0.0
  0
ARC
  5
F5
  8
DETAIL
  6
CONTINUOUS
 62
     5
 10
-10.279021999999999
 20
-107.709621
 30
0.0
 40
1.299998999999999
 50
196.60153099999999
 51
270.0
  0
LINE
  5
F6
  8
DETAIL
  6
CONTINUOUS
 62
     5
 10
-7.9999979999999988
 20
-113.120058
 30
0.0
 11
-7.9999979999999988
 21
-107.00962
 31
0.0
  0
LINE
  5
F7
  8
DETAIL
  6
CONTINUOUS
 62
     5
 10
-8.4999979999999997
 20
-107.68552
 30
0.0
 11
-8.4999979999999997
 21
-107.00962
 31
0.0
  0
LINE
  5
F8
  8
DETAIL
  6
CONTINUOUS
 62
     5
 10
-7.4999979999999988
 20
-112.938075
 30
0.0
 11
-7.4999979999999988
 21
-108.22167
 31
0.0
  0
LINE
  5
F9
  8
DETAIL
  6
CONTINUOUS
 62
     5
 10
-8.4999979999999997
 20
-106.999973
 30
0.0
 11
-7.4999979999999988
 21
-106.999973
 31
0.0
  0
LINE
  5
FA
  8
DETAIL
  6
CONTINUOUS
 62
     5
 10
-9.2999980000000004
 20
-107.00962
 30
0.0
 11
-9.2999980000000004
 21
-109.009619
 31
0.0
  0
LINE
  5
FB
  8
DETAIL
  6
CONTINUOUS
 62
     5
 10
-9.2999980000000004
 20
-107.00962
 30
0.0
 11
-8.4999979999999997
 21
-107.00962
 31
0.0
  0
LINE
  5
FC
  8
DETAIL
  6
CONTINUOUS
 62
     5
 10
-9.2999980000000004
 20
-109.009619
 30
0.0
 11
-8.4999979999999997
 21
-109.009619
 31
0.0
  0
LINE
  5
FD
  8
DETAIL
  6
CONTINUOUS
 62
     5
 10
-8.4999979999999997
 20
-109.009619
 30
0.0
 11
-8.4999979999999997
 21
-107.00962
 31
0.0
  0
ARC
  5
FE
  8
DETAIL
  6
CONTINUOUS
 62
     5
 10
-1.0
 20
-120.149867
 30
0.0
 40
1.0
 50
290.0
 51
0.0
  0
ARC
  5
FF
  8
DETAIL
  6
CONTINUOUS
 62
     5
 10
-1.0
 20
-111.63644499999999
 30
0.0
 40
1.0
 50
0.0
 51
110.0
  0
LINE
  5
100
  8
DETAIL
  6
CONTINUOUS
 62
     5
 10
-7.9999979999999988
 20
-73.131947999999994
 30
0.0
 11
-7.9999979999999988
 21
0.0
 31
0.0
  0
LINE
  5
101
  8
DETAIL
  6
CONTINUOUS
 62
     5
 10
-7.9999979999999988
 20
-78.299980000000005
 30
0.0
 11
-7.9999979999999988
 21
-75.299981000000002
 31
0.0
  0
LINE
  5
102
  8
DETAIL
  6
CONTINUOUS
 62
     5
 10
-7.4999979999999988
 20
-78.299980000000005
 30
0.0
 11
-7.4999979999999988
 21
-75.299981000000002
 31
0.0
  0
LINE
  5
103
  8
DETAIL
  6
CONTINUOUS
 62
     5
 10
-7.9999979999999988
 20
-77.868014000000002
 30
0.0
 11
-7.9999979999999988
 21
-75.631947999999994
 31
0.0
  0
LINE
  5
104
  8
DETAIL
  6
CONTINUOUS
 62
     5
 10
-6.4999979999999997
 20
-74.799981000000002
 30
0.0
 11
-6.4999979999999997
 21
-78.799980000000005
 31
0.0
  0
ARC
  5
105
  8
DETAIL
  6
CONTINUOUS
 62
     5
 10
-5.7363619999999997
 20
-76.799981000000002
 30
0.0
 40
3.8636359999999992
 50
135.66730799999999
 51
224.33269200000001
  0
LINE
  5
106
  8
DETAIL
  6
CONTINUOUS
 62
     5
 10
-7.4999979999999988
 20
-74.799981000000002
 30
0.0
 11
-7.4999979999999988
 21
-78.799980000000005
 31
0.0
  0
LINE
  5
107
  8
DETAIL
  6
CONTINUOUS
 62
     5
 10
-8.4999979999999997
 20
-79.499979999999994
 30
0.0
 11
-8.4999979999999997
 21
-74.099981
 31
0.0
  0
LINE
  5
108
  8
DETAIL
  6
CONTINUOUS
 62
     5
 10
-7.4999979999999988
 20
-102.82167099999999
 30
0.0
 11
-7.4999979999999988
 21
-78.299980000000005
 31
0.0
  0
LINE
  5
109
  8
DETAIL
  6
CONTINUOUS
 62
     5
 10
-7.9999979999999988
 20
-96.499976000000004
 30
0.0
 11
-7.9999979999999988
 21
-78.299980000000005
 31
0.0
  0
LINE
  5
10A
  8
DETAIL
  6
CONTINUOUS
 62
     5
 10
-9.2999980000000004
 20
-104.009621
 30
0.0
 11
-7.9999979999999988
 21
-104.009621
 31
0.0
  0
LINE
  5
10B
  8
DETAIL
  6
CONTINUOUS
 62
     5
 10
-7.9999979999999988
 20
-104.009621
 30
0.0
 11
-7.9999979999999988
 21
-96.499976000000004
 31
0.0
  0
LINE
  5
10C
  8
DETAIL
  6
CONTINUOUS
 62
     5
 10
-7.9999979999999988
 20
-104.009621
 30
0.0
 11
-7.9999979999999988
 21
-97.999975000000006
 31
0.0
  0
LINE
  5
10D
  8
DETAIL
  6
CONTINUOUS
 62
     5
 10
-9.2999980000000004
 20
-102.009621
 30
0.0
 11
-10.279021999999999
 21
-102.009621
 31
0.0
  0
ARC
  5
10E
  8
DETAIL
  6
CONTINUOUS
 62
     5
 10
-10.279021999999999
 20
-103.30962
 30
0.0
 40
1.299998999999999
 50
90.0
 51
163.39845199999999
  0
LINE
  5
10F
  8
DETAIL
  6
CONTINUOUS
 62
     5
 10
-9.2999980000000004
 20
-102.009621
 30
0.0
 11
-9.2999980000000004
 21
-104.009621
 31
0.0
  0
LINE
  5
110
  8
DETAIL
  6
CONTINUOUS
 62
     5
 10
-9.2999980000000004
 20
-104.009621
 30
0.0
 11
-8.4999979999999997
 21
-104.009621
 31
0.0
  0
LINE
  5
111
  8
DETAIL
  6
CONTINUOUS
 62
     5
 10
-7.9999979999999988
 20
-80.249980000000008
 30
0.0
 11
-7.9999979999999988
 21
-78.299980000000005
 31
0.0
  0
LINE
  5
112
  8
DETAIL
  6
CONTINUOUS
 62
     5
 10
-7.9999979999999988
 20
-80.249980000000008
 30
0.0
 11
-8.4999979999999997
 21
-80.249980000000008
 31
0.0
  0
LINE
  5
113
  8
DETAIL
  6
CONTINUOUS
 62
     5
 10
-7.4999979999999988
 20
-78.299980000000005
 30
0.0
 11
-8.4999979999999997
 21
-78.299980000000005
 31
0.0
  0
ARC
  5
114
  8
DETAIL
  6
CONTINUOUS
 62
     5
 10
-6.9999979999999988
 20
-78.799980000000005
 30
0.0
 40
0.5
 50
180.0
 51
0.0
  0
ARC
  5
115
  8
DETAIL
  6
CONTINUOUS
 62
     5
 10
-6.9999979999999988
 20
-62.354061000000002
 30
0.0
 40
0.5
 50
90.0
 51
180.0
  0
ARC
  5
116
  8
DETAIL
  6
CONTINUOUS
 62
     5
 10
-6.9999979999999988
 20
-62.354061000000002
 30
0.0
 40
1.0
 50
120.0
 51
180.0
  0
LINE
  5
117
  8
DETAIL
  6
CONTINUOUS
 62
     5
 10
-7.4999979999999988
 20
-75.299981000000002
 30
0.0
 11
-7.4999979999999988
 21
-73.383955
 31
0.0
  0
LINE
  5
118
  8
DETAIL
  6
CONTINUOUS
 62
     5
 10
-7.9999979999999988
 20
-75.299981000000002
 30
0.0
 11
-7.9999979999999988
 21
-74.249981000000005
 31
0.0
  0
LINE
  5
119
  8
DETAIL
  6
CONTINUOUS
 62
     5
 10
-7.9999979999999988
 20
-75.049981000000002
 30
0.0
 11
-7.4999979999999988
 21
-75.049981000000002
 31
0.0
  0
LINE
  5
11A
  8
DETAIL
  6
CONTINUOUS
 62
     5
 10
-7.9999979999999988
 20
-73.999981999999974
 30
0.0
 11
-7.4999979999999988
 21
-73.999981999999974
 31
0.0
  0
LINE
  5
11B
  8
DETAIL
  6
CONTINUOUS
 62
     5
 10
-7.9999979999999988
 20
-75.631947999999994
 30
0.0
 11
-7.9999979999999988
 21
-74.249981000000005
 31
0.0
  0
LINE
  5
11C
  8
DETAIL
  6
CONTINUOUS
 62
     5
 10
-7.4999979999999988
 20
-75.299981000000002
 30
0.0
 11
-8.4999979999999997
 21
-75.299981000000002
 31
0.0
  0
ARC
  5
11D
  8
DETAIL
  6
CONTINUOUS
 62
     5
 10
-6.9999979999999988
 20
-74.799981000000002
 30
0.0
 40
0.5
 50
0.0
 51
180.0
  0
LINE
  5
11E
  8
DETAIL
  6
CONTINUOUS
 62
     5
 10
-6.3999980000000001
 20
-61.854061000000002
 30
0.0
 11
-6.3999980000000001
 21
-58.354061999999999
 31
0.0
  0
LINE
  5
11F
  8
DETAIL
  6
CONTINUOUS
 62
     5
 10
-6.9999979999999988
 20
-61.854061000000002
 30
0.0
 11
-6.3999980000000001
 21
-61.854061000000002
 31
0.0
  0
LINE
  5
120
  8
DETAIL
  6
CONTINUOUS
 62
     5
 10
-6.9999979999999988
 20
-58.854061999999999
 30
0.0
 11
-6.3999980000000001
 21
-58.854061999999999
 31
0.0
  0
LINE
  5
121
  8
DETAIL
  6
CONTINUOUS
 62
     5
 10
-6.9999979999999988
 20
-61.354061000000002
 30
0.0
 11
-6.3999980000000001
 21
-61.354061000000002
 31
0.0
  0
LINE
  5
122
  8
DETAIL
  6
CONTINUOUS
 62
     5
 10
-6.9999979999999988
 20
-58.354061999999999
 30
0.0
 11
-6.3999980000000001
 21
-58.354061999999999
 31
0.0
  0
ARC
  5
123
  8
DETAIL
  6
CONTINUOUS
 62
     5
 10
-6.9999979999999988
 20
-57.854061999999999
 30
0.0
 40
0.5
 50
180.0
 51
270.0
  0
ARC
  5
124
  8
DETAIL
  6
CONTINUOUS
 62
     5
 10
-6.9999979999999988
 20
-57.854061999999999
 30
0.0
 40
1.0
 50
180.0
 51
240.0
  0
ARC
  5
125
  8
DETAIL
  6
CONTINUOUS
 62
     5
 10
-6.9999979999999988
 20
-62.354061000000002
 30
0.0
 40
1.0
 50
90.0
 51
120.0
  0
ARC
  5
126
  8
DETAIL
  6
CONTINUOUS
 62
     5
 10
-6.9999979999999988
 20
-57.854061999999999
 30
0.0
 40
1.0
 50
240.0
 51
270.0
  0
LINE
  5
127
  8
DETAIL
  6
CONTINUOUS
 62
     5
 10
-7.9999979999999988
 20
-58.704062
 30
0.0
 11
-7.4999979999999988
 21
-58.704062
 31
0.0
  0
ARC
  5
128
  8
DETAIL
  6
CONTINUOUS
 62
     5
 10
-5.7363619999999997
 20
-38.399990000000003
 30
0.0
 40
3.8636359999999992
 50
135.66730799999999
 51
224.33269200000001
  0
LINE
  5
129
  8
DETAIL
  6
CONTINUOUS
 62
     5
 10
-6.4999979999999997
 20
-36.399991
 30
0.0
 11
-6.4999979999999997
 21
-40.399990000000003
 31
0.0
  0
LINE
  5
12A
  8
DETAIL
  6
CONTINUOUS
 62
     5
 10
-7.4999979999999988
 20
-36.399991
 30
0.0
 11
-7.4999979999999988
 21
-40.399990000000003
 31
0.0
  0
LINE
  5
12B
  8
DETAIL
  6
CONTINUOUS
 62
     5
 10
-8.4999979999999997
 20
-41.099990000000012
 30
0.0
 11
-8.4999979999999997
 21
-35.699990999999997
 31
0.0
  0
LINE
  5
12C
  8
DETAIL
  6
CONTINUOUS
 62
     5
 10
-7.9999979999999988
 20
-40.149990000000003
 30
0.0
 11
-7.4999979999999988
 21
-40.149990000000003
 31
0.0
  0
ARC
  5
12D
  8
DETAIL
  6
CONTINUOUS
 62
     5
 10
-6.9999979999999988
 20
-40.399990000000003
 30
0.0
 40
0.5
 50
180.0
 51
0.0
  0
LINE
  5
12E
  8
DETAIL
  6
CONTINUOUS
 62
     5
 10
-7.4999979999999988
 20
-39.899990000000003
 30
0.0
 11
-8.4999979999999997
 21
-39.899990000000003
 31
0.0
  0
LINE
  5
12F
  8
DETAIL
  6
CONTINUOUS
 62
     5
 10
-7.9999979999999988
 20
-36.649991
 30
0.0
 11
-7.4999979999999988
 21
-36.649991
 31
0.0
  0
ARC
  5
130
  8
DETAIL
  6
CONTINUOUS
 62
     5
 10
-6.9999979999999988
 20
-36.399991
 30
0.0
 40
0.5
 50
0.0
 51
180.0
  0
LINE
  5
131
  8
DETAIL
  6
CONTINUOUS
 62
     5
 10
-7.4999979999999988
 20
-36.899991
 30
0.0
 11
-8.4999979999999997
 21
-36.899991
 31
0.0
  0
LINE
  5
132
  8
DETAIL
  6
CONTINUOUS
 62
     5
 10
70.499981999999989
 20
-73.249981999999989
 30
0.0
 11
70.499981999999989
 21
-72.699981999999991
 31
0.0
  0
LINE
  5
133
  8
DETAIL
  6
CONTINUOUS
 62
     5
 10
70.499981999999989
 20
-72.699981999999991
 30
0.0
 11
70.899981999999994
 21
-72.699981999999991
 31
0.0
  0
ARC
  5
134
  8
DETAIL
  6
CONTINUOUS
 62
     5
 10
70.899981999999994
 20
-71.099981999999983
 30
0.0
 40
1.6000000000000001
 50
270.0
 51
0.0
  0
LINE
  5
135
  8
DETAIL
  6
CONTINUOUS
 62
     5
 10
0.0
 20
72.749981999999974
 30
0.0
 11
70.499981999999989
 21
72.749981999999974
 31
0.0
  0
LINE
  5
136
  8
DETAIL
  6
CONTINUOUS
 62
     5
 10
0.0
 20
73.249981999999989
 30
0.0
 11
70.499981999999989
 21
73.249981999999989
 31
0.0
  0
LINE
  5
137
  8
DETAIL
  6
CONTINUOUS
 62
     5
 10
-86.499977999999984
 20
92.999977000000001
 30
0.0
 11
-29.499993
 21
92.999977000000001
 31
0.0
  0
LINE
  5
138
  8
DETAIL
  6
CONTINUOUS
 62
     5
 10
-86.499977999999984
 20
93.499977000000015
 30
0.0
 11
-29.499993
 21
93.499977000000015
 31
0.0
  0
LINE
  5
139
  8
DETAIL
  6
CONTINUOUS
 62
     5
 10
-29.999991999999999
 20
92.999977000000001
 30
0.0
 11
-85.999977999999999
 21
92.999977000000001
 31
0.0
  0
LINE
  5
13A
  8
DETAIL
  6
CONTINUOUS
 62
     5
 10
-99.49997500000002
 20
92.999977000000001
 30
0.0
 11
-87.618010999999996
 21
92.999977000000001
 31
0.0
  0
ARC
  5
13B
  8
DETAIL
  6
CONTINUOUS
 62
     5
 10
-99.49997500000002
 20
91.999977000000001
 30
0.0
 40
1.0
 50
90.0
 51
180.0
  0
ARC
  5
13C
  8
DETAIL
  6
CONTINUOUS
 62
     5
 10
-87.618010999999996
 20
93.499977000000015
 30
0.0
 40
0.5
 50
270.0
 51
318.189685
  0
LINE
  5
13D
  8
DETAIL
  6
CONTINUOUS
 62
     5
 10
-87.618010999999996
 20
92.999977000000001
 30
0.0
 11
-86.499977999999984
 21
92.999977000000001
 31
0.0
  0
ARC
  5
13E
  8
DETAIL
  6
CONTINUOUS
 62
     5
 10
-86.499977999999984
 20
92.499976999999987
 30
0.0
 40
1.0
 50
90.0
 51
138.189685
  0
LINE
  5
13F
  8
DETAIL
  6
CONTINUOUS
 62
     5
 10
-7.9999979999999988
 20
36.649991
 30
0.0
 11
-7.4999979999999988
 21
36.649991
 31
0.0
  0
LINE
  5
140
  8
DETAIL
  6
CONTINUOUS
 62
     5
 10
-7.9999979999999988
 20
40.149990000000003
 30
0.0
 11
-7.4999979999999988
 21
40.149990000000003
 31
0.0
  0
ARC
  5
141
  8
DETAIL
  6
CONTINUOUS
 62
     5
 10
-5.7363619999999997
 20
38.399990000000003
 30
0.0
 40
3.8636359999999992
 50
135.66730799999999
 51
224.33269200000001
  0
LINE
  5
142
  8
DETAIL
  6
CONTINUOUS
 62
     5
 10
-6.4999979999999997
 20
36.399991
 30
0.0
 11
-6.4999979999999997
 21
40.399990000000003
 31
0.0
  0
LINE
  5
143
  8
DETAIL
  6
CONTINUOUS
 62
     5
 10
-7.4999979999999988
 20
36.399991
 30
0.0
 11
-7.4999979999999988
 21
40.399990000000003
 31
0.0
  0
ARC
  5
144
  8
DETAIL
  6
CONTINUOUS
 62
     5
 10
-6.9999979999999988
 20
36.399991
 30
0.0
 40
0.5
 50
180.0
 51
0.0
  0
ARC
  5
145
  8
DETAIL
  6
CONTINUOUS
 62
     5
 10
-6.9999979999999988
 20
40.399990000000003
 30
0.0
 40
0.5
 50
0.0
 51
180.0
  0
LINE
  5
146
  8
DETAIL
  6
CONTINUOUS
 62
     5
 10
-8.4999979999999997
 20
41.099990000000012
 30
0.0
 11
-8.4999979999999997
 21
35.699990999999997
 31
0.0
  0
LINE
  5
147
  8
DETAIL
  6
CONTINUOUS
 62
     5
 10
-7.4999979999999988
 20
39.899990000000003
 30
0.0
 11
-8.4999979999999997
 21
39.899990000000003
 31
0.0
  0
LINE
  5
148
  8
DETAIL
  6
CONTINUOUS
 62
     5
 10
-7.4999979999999988
 20
36.899991
 30
0.0
 11
-8.4999979999999997
 21
36.899991
 31
0.0
  0
ARC
  5
149
  8
DETAIL
  6
CONTINUOUS
 62
     5
 10
-6.9999979999999988
 20
57.854061999999999
 30
0.0
 40
1.0
 50
120.0
 51
180.0
  0
ARC
  5
14A
  8
DETAIL
  6
CONTINUOUS
 62
     5
 10
-6.9999979999999988
 20
57.854061999999999
 30
0.0
 40
0.5
 50
90.0
 51
180.0
  0
LINE
  5
14B
  8
DETAIL
  6
CONTINUOUS
 62
     5
 10
-7.9999979999999988
 20
61.504061
 30
0.0
 11
-7.4999979999999988
 21
61.504061
 31
0.0
  0
ARC
  5
14C
  8
DETAIL
  6
CONTINUOUS
 62
     5
 10
-6.9999979999999988
 20
62.354061000000002
 30
0.0
 40
1.0
 50
240.0
 51
270.0
  0
ARC
  5
14D
  8
DETAIL
  6
CONTINUOUS
 62
     5
 10
-6.9999979999999988
 20
57.854061999999999
 30
0.0
 40
1.0
 50
90.0
 51
120.0
  0
ARC
  5
14E
  8
DETAIL
  6
CONTINUOUS
 62
     5
 10
-6.9999979999999988
 20
62.354061000000002
 30
0.0
 40
1.0
 50
180.0
 51
240.0
  0
ARC
  5
14F
  8
DETAIL
  6
CONTINUOUS
 62
     5
 10
-6.9999979999999988
 20
62.354061000000002
 30
0.0
 40
0.5
 50
180.0
 51
270.0
  0
LINE
  5
150
  8
DETAIL
  6
CONTINUOUS
 62
     5
 10
-6.9999979999999988
 20
61.854061000000002
 30
0.0
 11
-6.3999980000000001
 21
61.854061000000002
 31
0.0
  0
LINE
  5
151
  8
DETAIL
  6
CONTINUOUS
 62
     5
 10
-6.9999979999999988
 20
58.854061999999999
 30
0.0
 11
-6.3999980000000001
 21
58.854061999999999
 31
0.0
  0
LINE
  5
152
  8
DETAIL
  6
CONTINUOUS
 62
     5
 10
-6.9999979999999988
 20
61.354061000000002
 30
0.0
 11
-6.3999980000000001
 21
61.354061000000002
 31
0.0
  0
LINE
  5
153
  8
DETAIL
  6
CONTINUOUS
 62
     5
 10
-6.9999979999999988
 20
58.354061999999999
 30
0.0
 11
-6.3999980000000001
 21
58.354061999999999
 31
0.0
  0
LINE
  5
154
  8
DETAIL
  6
CONTINUOUS
 62
     5
 10
-6.3999980000000001
 20
58.354061999999999
 30
0.0
 11
-6.3999980000000001
 21
61.854061000000002
 31
0.0
  0
LINE
  5
155
  8
DETAIL
  6
CONTINUOUS
 62
     5
 10
-18.854099000000001
 20
92.999977000000001
 30
0.0
 11
-12.145894
 21
92.999977000000001
 31
0.0
  0
ARC
  5
156
  8
DETAIL
  6
CONTINUOUS
 62
     5
 10
-15.499995999999999
 20
92.499976999999987
 30
0.0
 40
2.9999989999999999
 50
16.60155
 51
163.39845
  0
LINE
  5
157
  8
DETAIL
  6
CONTINUOUS
 62
     5
 10
-28.381959999999999
 20
92.999977000000001
 30
0.0
 11
-18.854099000000001
 21
92.999977000000001
 31
0.0
  0
LINE
  5
158
  8
DETAIL
  6
CONTINUOUS
 62
     5
 10
-29.499993
 20
92.999977000000001
 30
0.0
 11
-28.381959999999999
 21
92.999977000000001
 31
0.0
  0
ARC
  5
159
  8
DETAIL
  6
CONTINUOUS
 62
     5
 10
-29.499993
 20
92.499976999999987
 30
0.0
 40
0.5
 50
41.810315000000003
 51
90.0
  0
ARC
  5
15A
  8
DETAIL
  6
CONTINUOUS
 62
     5
 10
-28.381959999999999
 20
93.499977000000015
 30
0.0
 40
0.5
 50
221.81031500000009
 51
270.0
  0
ARC
  5
15B
  8
DETAIL
  6
CONTINUOUS
 62
     5
 10
-29.499993
 20
92.499976999999987
 30
0.0
 40
1.0
 50
41.810315000000003
 51
90.0
  0
ARC
  5
15C
  8
DETAIL
  6
CONTINUOUS
 62
     5
 10
-18.854099000000001
 20
93.499977000000015
 30
0.0
 40
0.5
 50
270.0
 51
343.39845000000003
  0
LINE
  5
15D
  8
DETAIL
  6
CONTINUOUS
 62
     5
 10
-7.4999979999999988
 20
85.999977999999999
 30
0.0
 11
-7.4999979999999988
 21
91.499977000000001
 31
0.0
  0
LINE
  5
15E
  8
DETAIL
  6
CONTINUOUS
 62
     5
 10
-7.4999979999999988
 20
85.999977999999999
 30
0.0
 11
-7.4999979999999988
 21
92.999977000000001
 31
0.0
  0
LINE
  5
15F
  8
DETAIL
  6
CONTINUOUS
 62
     5
 10
0.0
 20
83.999978999999996
 30
0.0
 11
-7.4999979999999988
 21
83.999978999999996
 31
0.0
  0
LINE
  5
160
  8
DETAIL
  6
CONTINUOUS
 62
     5
 10
-0.5
 20
85.49997900000001
 30
0.0
 11
-6.9999979999999988
 21
85.49997900000001
 31
0.0
  0
LINE
  5
161
  8
DETAIL
  6
CONTINUOUS
 62
     5
 10
-0.5
 20
84.49997900000001
 30
0.0
 11
-6.9999979999999988
 21
84.49997900000001
 31
0.0
  0
LINE
  5
162
  8
DETAIL
  6
CONTINUOUS
 62
     5
 10
-7.9999979999999988
 20
78.299980000000005
 30
0.0
 11
-7.9999979999999988
 21
83.999978999999996
 31
0.0
  0
LINE
  5
163
  8
DETAIL
  6
CONTINUOUS
 62
     5
 10
-7.4999979999999988
 20
73.383957999999993
 30
0.0
 11
-7.4999979999999988
 21
83.999978999999996
 31
0.0
  0
LINE
  5
164
  8
DETAIL
  6
CONTINUOUS
 62
     5
 10
-7.9999979999999988
 20
75.299981000000002
 30
0.0
 11
-7.9999979999999988
 21
78.299980000000005
 31
0.0
  0
LINE
  5
165
  8
DETAIL
  6
CONTINUOUS
 62
     5
 10
-7.9999979999999988
 20
74.249981000000005
 30
0.0
 11
-7.9999979999999988
 21
75.299981000000002
 31
0.0
  0
LINE
  5
166
  8
DETAIL
  6
CONTINUOUS
 62
     5
 10
-7.9999979999999988
 20
78.549980000000005
 30
0.0
 11
-7.4999979999999988
 21
78.549980000000005
 31
0.0
  0
LINE
  5
167
  8
DETAIL
  6
CONTINUOUS
 62
     5
 10
-7.9999979999999988
 20
75.049981000000002
 30
0.0
 11
-7.4999979999999988
 21
75.049981000000002
 31
0.0
  0
LINE
  5
168
  8
DETAIL
  6
CONTINUOUS
 62
     5
 10
-7.9999979999999988
 20
73.999981000000005
 30
0.0
 11
-7.4999979999999988
 21
73.999981000000005
 31
0.0
  0
LINE
  5
169
  8
DETAIL
  6
CONTINUOUS
 62
     5
 10
-7.9999979999999988
 20
80.249980000000008
 30
0.0
 11
-8.4999979999999997
 21
80.249980000000008
 31
0.0
  0
LINE
  5
16A
  8
DETAIL
  6
CONTINUOUS
 62
     5
 10
-8.4999979999999997
 20
79.499979999999994
 30
0.0
 11
-8.4999979999999997
 21
74.099981
 31
0.0
  0
ARC
  5
16B
  8
DETAIL
  6
CONTINUOUS
 62
     5
 10
-5.7363619999999997
 20
76.799981000000002
 30
0.0
 40
3.8636359999999992
 50
135.66730799999999
 51
224.33269200000001
  0
LINE
  5
16C
  8
DETAIL
  6
CONTINUOUS
 62
     5
 10
-7.4999979999999988
 20
78.299980000000005
 30
0.0
 11
-8.4999979999999997
 21
78.299980000000005
 31
0.0
  0
LINE
  5
16D
  8
DETAIL
  6
CONTINUOUS
 62
     5
 10
-7.4999979999999988
 20
75.299981000000002
 30
0.0
 11
-8.4999979999999997
 21
75.299981000000002
 31
0.0
  0
LINE
  5
16E
  8
DETAIL
  6
CONTINUOUS
 62
     5
 10
-7.4999979999999988
 20
74.799981000000002
 30
0.0
 11
-7.4999979999999988
 21
78.799980000000005
 31
0.0
  0
ARC
  5
16F
  8
DETAIL
  6
CONTINUOUS
 62
     5
 10
-6.9999979999999988
 20
74.799981000000002
 30
0.0
 40
0.5
 50
180.0
 51
0.0
  0
LINE
  5
170
  8
DETAIL
  6
CONTINUOUS
 62
     5
 10
-6.4999979999999997
 20
74.799981000000002
 30
0.0
 11
-6.4999979999999997
 21
78.799980000000005
 31
0.0
  0
ARC
  5
171
  8
DETAIL
  6
CONTINUOUS
 62
     5
 10
-6.9999979999999988
 20
78.799980000000005
 30
0.0
 40
0.5
 50
0.0
 51
180.0
  0
LINE
  5
172
  8
DETAIL
  6
CONTINUOUS
 62
     5
 10
-7.4999979999999988
 20
83.999978999999996
 30
0.0
 11
-7.9999979999999988
 21
83.999978999999996
 31
0.0
  0
LINE
  5
173
  8
DETAIL
  6
CONTINUOUS
 62
     5
 10
-7.9999979999999988
 20
80.999980000000008
 30
0.0
 11
-7.4999979999999988
 21
80.999980000000008
 31
0.0
  0
ARC
  5
174
  8
DETAIL
  6
CONTINUOUS
 62
     5
 10
-6.9999979999999988
 20
83.999978999999996
 30
0.0
 40
0.5
 50
90.0
 51
180.0
  0
ARC
  5
175
  8
DETAIL
  6
CONTINUOUS
 62
     5
 10
-6.9999979999999988
 20
85.999977999999999
 30
0.0
 40
0.5
 50
180.0
 51
270.0
  0
LINE
  5
176
  8
DETAIL
  6
CONTINUOUS
 62
     5
 10
0.0
 20
83.999978999999996
 30
0.0
 11
0.0
 21
-96.449923999999996
 31
0.0
  0
ARC
  5
177
  8
DETAIL
  6
CONTINUOUS
 62
     5
 10
-0.5
 20
84.999979000000025
 30
0.0
 40
0.5
 50
270.0
 51
90.0
  0
LINE
  5
178
  8
DETAIL
  6
CONTINUOUS
 62
     5
 10
-12.145894
 20
92.999977000000001
 30
0.0
 11
-7.4999979999999988
 21
92.999977000000001
 31
0.0
  0
ARC
  5
179
  8
DETAIL
  6
CONTINUOUS
 62
     5
 10
-12.145894
 20
93.499977000000015
 30
0.0
 40
0.5
 50
196.60155
 51
270.0
  0
LINE
  5
17A
  8
DETAIL
  6
CONTINUOUS
 62
     5
 10
70.499981999999989
 20
73.249981999999989
 30
0.0
 11
70.499981999999989
 21
72.699981999999991
 31
0.0
  0
ARC
  5
17B
  8
DETAIL
  6
CONTINUOUS
 62
     5
 10
62.466721
 20
75.825151000000005
 30
0.0
 40
2.5751689999999989
 50
211.13894199999999
 51
270.0
  0
LINE
  5
17C
  8
DETAIL
  6
CONTINUOUS
 62
     5
 10
70.499981999999989
 20
72.699981999999991
 30
0.0
 11
70.899981999999994
 21
72.699981999999991
 31
0.0
  0
ARC
  5
17D
  8
DETAIL
  6
CONTINUOUS
 62
     5
 10
70.899981999999994
 20
71.099981999999983
 30
0.0
 40
1.6000000000000001
 50
0.0
 51
90.0
  0
ARC
  5
17E
  8
DETAIL
  6
CONTINUOUS
 62
     5
 10
49.682780999999999
 20
68.101530000000011
 30
0.0
 40
12.360810000000001
 50
31.138942
 51
88.999418999999989
  0
ARC
  5
17F
  8
DETAIL
  6
CONTINUOUS
 62
     5
 10
49.682780999999999
 20
68.101530000000011
 30
0.0
 40
12.772837000000001
 50
31.138942
 51
87.719523999999993
  0
LINE
  5
180
  8
DETAIL
  6
CONTINUOUS
 62
     5
 10
49.199847999999989
 20
82.398459000000003
 30
0.0
 11
49.898631000000002
 21
80.460456999999977
 31
0.0
  0
LINE
  5
181
  8
DETAIL
  6
CONTINUOUS
 62
     5
 10
49.587451000000001
 20
82.538216000000006
 30
0.0
 11
50.191027000000012
 21
80.864253000000005
 31
0.0
  0
LINE
  5
182
  8
DETAIL
  6
CONTINUOUS
 62
     5
 10
49.199847999999989
 20
82.398459000000003
 30
0.0
 11
49.587451000000001
 21
82.538216000000006
 31
0.0
  0
LINE
  5
183
  8
DETAIL
  6
CONTINUOUS
 62
     5
 10
62.466721
 20
73.249981999999989
 30
0.0
 11
70.499981999999989
 21
73.249981999999989
 31
0.0
  0
LINE
  5
184
  8
DETAIL
  6
CONTINUOUS
 62
     5
 10
62.466721
 20
73.662008
 30
0.0
 11
70.499981999999989
 21
73.662008
 31
0.0
  0
ARC
  5
185
  8
DETAIL
  6
CONTINUOUS
 62
     5
 10
62.466721
 20
75.825151000000005
 30
0.0
 40
2.1631429999999989
 50
211.13894199999999
 51
270.0
  0
LINE
  5
186
  8
DETAIL
  6
CONTINUOUS
 62
     5
 10
70.499981999999989
 20
73.249981999999989
 30
0.0
 11
70.499981999999989
 21
73.662008
 31
0.0
  0
LINE
  5
187
  8
NOTE
  6
CONTINUOUS
 62
     4
 39
50.0
 10
-2.7961269999999998
 20
78.0
 30
0.0
 11
-12.104499000000001
 21
78.0
 31
0.0
  0
CIRCLE
  5
188
  8
FIX
  6
CONTINUOUS
 62
    11
 39
50.0
 10
-7.4503130000000004
 20
78.0
 30
0.0
 40
2.25
  0
LINE
  5
189
  8
SIZE
  6
CONTINUOUS
 62
    30
 10
-116.851286
 20
92.999977000000001
 30
0.0
 11
-359.908569
 21
92.999977000000001
 31
0.0
  0
LINE
  5
18A
  8
SIZE
  6
CONTINUOUS
 62
    30
 10
-116.851286
 20
-106.999973
 30
0.0
 11
-359.908569
 21
-106.999973
 31
0.0
  0
LINE
  5
18B
  8
SIZE
  6
CONTINUOUS
 62
    30
 10
-339.908569
 20
80.999977000000015
 30
0.0
 11
-339.908569
 21
-94.999972999999997
 31
0.0
  0
CIRCLE
  5
18C
  8
SIZE
  6
CONTINUOUS
 62
    30
 10
-339.908569
 20
92.999977000000001
 30
0.0
 40
6.0
  0
LINE
  5
18D
  8
SIZE
  6
CONTINUOUS
 62
    30
 10
-339.908569
 20
92.999977000000001
 30
0.0
 11
-339.908569
 21
80.999977000000015
 31
0.0
  0
CIRCLE
  5
18E
  8
SIZE
  6
CONTINUOUS
 62
    30
 10
-339.908569
 20
-106.999973
 30
0.0
 40
6.0
  0
LINE
  5
18F
  8
SIZE
  6
CONTINUOUS
 62
    30
 10
-339.908569
 20
-106.999973
 30
0.0
 11
-339.908569
 21
-94.999972999999997
 31
0.0
  0
TEXT
  5
190
  8
SIZE
  6
CONTINUOUS
 62
    30
 10
-364.908569
 20
-81.057140857142855
 30
0.0
 40
64.0
  1
200
 50
90.0
 41
0.9
 72
     1
 11
-364.908569
 21
-6.9999979999999988
 31
0.0
  0
POINT
  5
191
  8
DEFPOINTS
  6
CONTINUOUS
 62
    30
 10
-96.851286000000002
 20
92.999977000000001
 30
0.0
  0
POINT
  5
192
  8
DEFPOINTS
  6
CONTINUOUS
 62
    30
 10
-96.851286000000002
 20
-106.999973
 30
0.0
  0
POINT
  5
193
  8
DEFPOINTS
  6
CONTINUOUS
 62
    30
 10
-339.908569
 20
-106.999973
 30
0.0
  0
LINE
  5
194
  8
SIZE
  6
CONTINUOUS
 62
    30
 10
-116.851286
 20
-106.999973
 30
0.0
 11
-239.908569
 21
-106.999973
 31
0.0
  0
LINE
  5
195
  8
SIZE
  6
CONTINUOUS
 62
    30
 10
-38.793849000000002
 20
-127.69047500000001
 30
0.0
 11
-239.908569
 21
-127.69047500000001
 31
0.0
  0
LINE
  5
196
  8
SIZE
  6
CONTINUOUS
 62
    30
 10
-219.908569
 20
-94.999972999999997
 30
0.0
 11
-219.908569
 21
-82.999972999999983
 31
0.0
  0
LINE
  5
197
  8
SIZE
  6
CONTINUOUS
 62
    30
 10
-219.908569
 20
-139.69047499999999
 30
0.0
 11
-219.908569
 21
-270.26190300000002
 31
0.0
  0
LINE
  5
198
  8
SIZE
  6
CONTINUOUS
 62
    30
 10
-219.908569
 20
-106.999973
 30
0.0
 11
-219.908569
 21
-127.69047500000001
 31
0.0
  0
CIRCLE
  5
199
  8
SIZE
  6
CONTINUOUS
 62
    30
 10
-219.908569
 20
-106.999973
 30
0.0
 40
6.0
  0
LINE
  5
19A
  8
SIZE
  6
CONTINUOUS
 62
    30
 10
-219.908569
 20
-106.999973
 30
0.0
 11
-219.908569
 21
-94.999972999999997
 31
0.0
  0
CIRCLE
  5
19B
  8
SIZE
  6
CONTINUOUS
 62
    30
 10
-219.908569
 20
-127.69047500000001
 30
0.0
 40
6.0
  0
LINE
  5
19C
  8
SIZE
  6
CONTINUOUS
 62
    30
 10
-219.908569
 20
-127.69047500000001
 30
0.0
 11
-219.908569
 21
-139.69047499999999
 31
0.0
  0
TEXT
  5
19D
  8
SIZE
  6
CONTINUOUS
 62
    30
 10
-244.908569
 20
-245.26190328571431
 30
0.0
 40
64.0
  1
21
 50
90.0
 41
0.9
 72
     1
 11
-244.908569
 21
-210.97618900000001
 31
0.0
  0
POINT
  5
19E
  8
DEFPOINTS
  6
CONTINUOUS
 62
    30
 10
-96.851286000000002
 20
-106.999973
 30
0.0
  0
POINT
  5
19F
  8
DEFPOINTS
  6
CONTINUOUS
 62
    30
 10
-18.793848999999991
 20
-127.69047500000001
 30
0.0
  0
POINT
  5
1A0
  8
DEFPOINTS
  6
CONTINUOUS
 62
    30
 10
-219.908569
 20
-127.69047500000001
 30
0.0
  0
LINE
  5
1A1
  8
SIZE
  6
CONTINUOUS
 62
    30
 10
0.0
 20
-144.77478300000001
 30
0.0
 11
0.0
 21
-311.78545400000002
 31
0.0
  0
LINE
  5
1A2
  8
SIZE
  6
CONTINUOUS
 62
    30
 10
-18.793848999999991
 20
-147.69047499999999
 30
0.0
 11
-18.793848999999991
 21
-311.78545400000002
 31
0.0
  0
LINE
  5
1A3
  8
SIZE
  6
CONTINUOUS
 62
    30
 10
12.0
 20
-291.78545400000002
 30
0.0
 11
24.0
 21
-291.78545400000002
 31
0.0
  0
LINE
  5
1A4
  8
SIZE
  6
CONTINUOUS
 62
    30
 10
-30.793849000000002
 20
-291.78545400000002
 30
0.0
 11
-172.33670599999999
 21
-291.78545400000002
 31
0.0
  0
LINE
  5
1A5
  8
SIZE
  6
CONTINUOUS
 62
    30
 10
0.0
 20
-291.78545400000002
 30
0.0
 11
-18.793848999999991
 21
-291.78545400000002
 31
0.0
  0
CIRCLE
  5
1A6
  8
SIZE
  6
CONTINUOUS
 62
    30
 10
0.0
 20
-291.78545400000002
 30
0.0
 40
6.0
  0
LINE
  5
1A7
  8
SIZE
  6
CONTINUOUS
 62
    30
 10
0.0
 20
-291.78545400000002
 30
0.0
 11
12.0
 21
-291.78545400000002
 31
0.0
  0
CIRCLE
  5
1A8
  8
SIZE
  6
CONTINUOUS
 62
    30
 10
-18.793848999999991
 20
-291.78545400000002
 30
0.0
 40
6.0
  0
LINE
  5
1A9
  8
SIZE
  6
CONTINUOUS
 62
    30
 10
-18.793848999999991
 20
-291.78545400000002
 30
0.0
 11
-30.793849000000002
 21
-291.78545400000002
 31
0.0
  0
TEXT
  5
1AA
  8
SIZE
  6
CONTINUOUS
 62
    30
 10
-147.33670557142861
 20
-266.78545400000002
 30
0.0
 40
64.0
  1
19
 41
0.9
 72
     1
 11
-107.56527699999999
 21
-266.78545400000002
 31
0.0
  0
POINT
  5
1AB
  8
DEFPOINTS
  6
CONTINUOUS
 62
    30
 10
0.0
 20
-124.774783
 30
0.0
  0
POINT
  5
1AC
  8
DEFPOINTS
  6
CONTINUOUS
 62
    30
 10
-18.793848999999991
 20
-127.69047500000001
 30
0.0
  0
POINT
  5
1AD
  8
DEFPOINTS
  6
CONTINUOUS
 62
    30
 10
-18.793848999999991
 20
-291.78545400000002
 30
0.0
  0
LINE
  5
1AE
  8
SIZE
  6
CONTINUOUS
 62
    30
 10
0.0
 20
-144.77478300000001
 30
0.0
 11
0.0
 21
-311.78545400000002
 31
0.0
  0
LINE
  5
1AF
  8
SIZE
  6
CONTINUOUS
 62
    30
 10
72.499981999999989
 20
-69.525009999999995
 30
0.0
 11
72.499981999999989
 21
-311.78545400000002
 31
0.0
  0
LINE
  5
1B0
  8
SIZE
  6
CONTINUOUS
 62
    30
 10
-12.0
 20
-291.78545400000002
 30
0.0
 11
-24.0
 21
-291.78545400000002
 31
0.0
  0
LINE
  5
1B1
  8
SIZE
  6
CONTINUOUS
 62
    30
 10
84.499981999999989
 20
-291.78545400000002
 30
0.0
 11
239.757125
 21
-291.78545400000002
 31
0.0
  0
LINE
  5
1B2
  8
SIZE
  6
CONTINUOUS
 62
    30
 10
0.0
 20
-291.78545400000002
 30
0.0
 11
72.499981999999989
 21
-291.78545400000002
 31
0.0
  0
CIRCLE
  5
1B3
  8
SIZE
  6
CONTINUOUS
 62
    30
 10
0.0
 20
-291.78545400000002
 30
0.0
 40
6.0
  0
LINE
  5
1B4
  8
SIZE
  6
CONTINUOUS
 62
    30
 10
0.0
 20
-291.78545400000002
 30
0.0
 11
-12.0
 21
-291.78545400000002
 31
0.0
  0
CIRCLE
  5
1B5
  8
SIZE
  6
CONTINUOUS
 62
    30
 10
72.499981999999989
 20
-291.78545400000002
 30
0.0
 40
6.0
  0
LINE
  5
1B6
  8
SIZE
  6
CONTINUOUS
 62
    30
 10
72.499981999999989
 20
-291.78545400000002
 30
0.0
 11
84.499981999999989
 21
-291.78545400000002
 31
0.0
  0
TEXT
  5
1B7
  8
SIZE
  6
CONTINUOUS
 62
    30
 10
121.49998157142861
 20
-266.78545400000002
 30
0.0
 40
64.0
  1
73
 41
0.9
 72
     1
 11
168.12855300000001
 21
-266.78545400000002
 31
0.0
  0
POINT
  5
1B8
  8
DEFPOINTS
  6
CONTINUOUS
 62
    30
 10
0.0
 20
-124.774783
 30
0.0
  0
POINT
  5
1B9
  8
DEFPOINTS
  6
CONTINUOUS
 62
    30
 10
72.499981999999989
 20
-49.525009999999988
 30
0.0
  0
POINT
  5
1BA
  8
DEFPOINTS
  6
CONTINUOUS
 62
    30
 10
72.499981999999989
 20
-291.78545400000002
 30
0.0
  0
LINE
  5
1BB
  8
SIZE
  6
CONTINUOUS
 62
    30
 10
84.368614000000008
 20
-73.5
 30
0.0
 11
488.27954199999988
 21
-73.5
 31
0.0
  0
LINE
  5
1BC
  8
SIZE
  6
CONTINUOUS
 62
    30
 10
81.588536000000005
 20
73.5
 30
0.0
 11
488.27954199999988
 21
73.5
 31
0.0
  0
LINE
  5
1BD
  8
SIZE
  6
CONTINUOUS
 62
    30
 10
468.27954199999988
 20
61.5
 30
0.0
 11
468.27954199999988
 21
-61.5
 31
0.0
  0
LINE
  5
1BE
  8
SIZE
  6
CONTINUOUS
 62
    30
 10
468.27954199999988
 20
-73.5
 30
0.0
 11
468.27954199999988
 21
-330.24285700000001
 31
0.0
  0
CIRCLE
  5
1BF
  8
SIZE
  6
CONTINUOUS
 62
    30
 10
468.27954199999988
 20
73.5
 30
0.0
 40
6.0
  0
LINE
  5
1C0
  8
SIZE
  6
CONTINUOUS
 62
    30
 10
468.27954199999988
 20
73.5
 30
0.0
 11
468.27954199999988
 21
61.5
 31
0.0
  0
CIRCLE
  5
1C1
  8
SIZE
  6
CONTINUOUS
 62
    30
 10
468.27954199999988
 20
-73.5
 30
0.0
 40
6.0
  0
LINE
  5
1C2
  8
SIZE
  6
CONTINUOUS
 62
    30
 10
468.27954199999988
 20
-73.5
 30
0.0
 11
468.27954199999988
 21
-61.5
 31
0.0
  0
TEXT
  5
1C3
  8
SIZE
  6
CONTINUOUS
 62
    30
 10
443.27954199999988
 20
-316.76285757142858
 30
0.0
 40
64.0
  1
φ147
 50
90.0
 41
0.9
 72
     1
 11
443.27954199999988
 21
-207.87142900000001
 31
0.0
  0
POINT
  5
1C4
  8
DEFPOINTS
  6
CONTINUOUS
 62
    30
 10
64.368614000000008
 20
-73.5
 30
0.0
  0
POINT
  5
1C5
  8
DEFPOINTS
  6
CONTINUOUS
 62
    30
 10
61.588535999999998
 20
73.5
 30
0.0
  0
POINT
  5
1C6
  8
DEFPOINTS
  6
CONTINUOUS
 62
    30
 10
468.27954199999988
 20
73.5
 30
0.0
  0
LINE
  5
1C7
  8
SIZE
  6
CONTINUOUS
 62
    30
 10
-7.5956449999999993
 20
111.926762
 30
0.0
 11
-7.5956449999999993
 21
194.27304000000001
 31
0.0
  0
LINE
  5
1C8
  8
SIZE
  6
CONTINUOUS
 62
    30
 10
-100.49997500000001
 20
111.999977
 30
0.0
 11
-100.49997500000001
 21
194.27304000000001
 31
0.0
  0
LINE
  5
1C9
  8
SIZE
  6
CONTINUOUS
 62
    30
 10
-19.595645000000001
 20
174.27304000000001
 30
0.0
 11
-88.499975000000006
 21
174.27304000000001
 31
0.0
  0
LINE
  5
1CA
  8
SIZE
  6
CONTINUOUS
 62
    30
 10
-100.49997500000001
 20
174.27304000000001
 30
0.0
 11
-255.75711799999999
 21
174.27304000000001
 31
0.0
  0
CIRCLE
  5
1CB
  8
SIZE
  6
CONTINUOUS
 62
    30
 10
-7.5956449999999993
 20
174.27304000000001
 30
0.0
 40
6.0
  0
LINE
  5
1CC
  8
SIZE
  6
CONTINUOUS
 62
    30
 10
-7.5956449999999993
 20
174.27304000000001
 30
0.0
 11
-19.595645000000001
 21
174.27304000000001
 31
0.0
  0
CIRCLE
  5
1CD
  8
SIZE
  6
CONTINUOUS
 62
    30
 10
-100.49997500000001
 20
174.27304000000001
 30
0.0
 40
6.0
  0
LINE
  5
1CE
  8
SIZE
  6
CONTINUOUS
 62
    30
 10
-100.49997500000001
 20
174.27304000000001
 30
0.0
 11
-88.499975000000006
 21
174.27304000000001
 31
0.0
  0
TEXT
  5
1CF
  8
SIZE
  6
CONTINUOUS
 62
    30
 10
-230.75711742857149
 20
199.27304000000001
 30
0.0
 40
64.0
  1
93
 41
0.9
 72
     1
 11
-184.128546
 21
199.27304000000001
 31
0.0
  0
POINT
  5
1D0
  8
DEFPOINTS
  6
CONTINUOUS
 62
    30
 10
-7.5956449999999993
 20
91.926761999999997
 30
0.0
  0
POINT
  5
1D1
  8
DEFPOINTS
  6
CONTINUOUS
 62
    30
 10
-100.49997500000001
 20
91.999977000000001
 30
0.0
  0
POINT
  5
1D2
  8
DEFPOINTS
  6
CONTINUOUS
 62
    30
 10
-100.49997500000001
 20
174.27304000000001
 30
0.0
  0
LINE
  5
1D3
  8
SIZE
  6
CONTINUOUS
 62
    30
 10
-7.5956449999999993
 20
111.926762
 30
0.0
 11
-7.5956449999999993
 21
194.27304000000001
 31
0.0
  0
LINE
  5
1D4
  8
SIZE
  6
CONTINUOUS
 62
    30
 10
0.0
 20
109.258431
 30
0.0
 11
0.0
 21
194.27304000000001
 31
0.0
  0
LINE
  5
1D5
  8
SIZE
  6
CONTINUOUS
 62
    30
 10
-19.595645000000001
 20
174.27304000000001
 30
0.0
 11
-31.595645000000001
 21
174.27304000000001
 31
0.0
  0
LINE
  5
1D6
  8
SIZE
  6
CONTINUOUS
 62
    30
 10
12.0
 20
174.27304000000001
 30
0.0
 11
193.21428599999999
 21
174.27304000000001
 31
0.0
  0
LINE
  5
1D7
  8
SIZE
  6
CONTINUOUS
 62
    30
 10
-7.5956449999999993
 20
174.27304000000001
 30
0.0
 11
0.0
 21
174.27304000000001
 31
0.0
  0
CIRCLE
  5
1D8
  8
SIZE
  6
CONTINUOUS
 62
    30
 10
-7.5956449999999993
 20
174.27304000000001
 30
0.0
 40
6.0
  0
LINE
  5
1D9
  8
SIZE
  6
CONTINUOUS
 62
    30
 10
-7.5956449999999993
 20
174.27304000000001
 30
0.0
 11
-19.595645000000001
 21
174.27304000000001
 31
0.0
  0
CIRCLE
  5
1DA
  8
SIZE
  6
CONTINUOUS
 62
    30
 10
0.0
 20
174.27304000000001
 30
0.0
 40
6.0
  0
LINE
  5
1DB
  8
SIZE
  6
CONTINUOUS
 62
    30
 10
0.0
 20
174.27304000000001
 30
0.0
 11
12.0
 21
174.27304000000001
 31
0.0
  0
TEXT
  5
1DC
  8
SIZE
  6
CONTINUOUS
 62
    30
 10
50.271428428571433
 20
199.27304000000001
 30
0.0
 40
64.0
  1
7.6
 41
0.9
 72
     1
 11
109.242857
 21
199.27304000000001
 31
0.0
  0
POINT
  5
1DD
  8
DEFPOINTS
  6
CONTINUOUS
 62
    30
 10
-7.5956449999999993
 20
91.926761999999997
 30
0.0
  0
POINT
  5
1DE
  8
DEFPOINTS
  6
CONTINUOUS
 62
    30
 10
0.0
 20
89.258430999999987
 30
0.0
  0
POINT
  5
1DF
  8
DEFPOINTS
  6
CONTINUOUS
 62
    30
 10
0.0
 20
174.27304000000001
 30
0.0
  0
LINE
  5
1E0
  8
SIZE
  6
CONTINUOUS
 62
    30
 10
81.588536000000005
 20
73.5
 30
0.0
 11
488.27954199999988
 21
73.5
 31
0.0
  0
LINE
  5
1E1
  8
SIZE
  6
CONTINUOUS
 62
    30
 10
12.500002
 20
92.999977000000001
 30
0.0
 11
488.27954199999988
 21
92.999977000000001
 31
0.0
  0
LINE
  5
1E2
  8
SIZE
  6
CONTINUOUS
 62
    30
 10
468.27954199999988
 20
61.5
 30
0.0
 11
468.27954199999988
 21
49.5
 31
0.0
  0
LINE
  5
1E3
  8
SIZE
  6
CONTINUOUS
 62
    30
 10
468.27954199999988
 20
104.999977
 30
0.0
 11
468.27954199999988
 21
260.25711999999999
 31
0.0
  0
LINE
  5
1E4
  8
SIZE
  6
CONTINUOUS
 62
    30
 10
468.27954199999988
 20
73.5
 30
0.0
 11
468.27954199999988
 21
92.999977000000001
 31
0.0
  0
CIRCLE
  5
1E5
  8
SIZE
  6
CONTINUOUS
 62
    30
 10
468.27954199999988
 20
73.5
 30
0.0
 40
6.0
  0
LINE
  5
1E6
  8
SIZE
  6
CONTINUOUS
 62
    30
 10
468.27954199999988
 20
73.5
 30
0.0
 11
468.27954199999988
 21
61.5
 31
0.0
  0
CIRCLE
  5
1E7
  8
SIZE
  6
CONTINUOUS
 62
    30
 10
468.27954199999988
 20
92.999977000000001
 30
0.0
 40
6.0
  0
LINE
  5
1E8
  8
SIZE
  6
CONTINUOUS
 62
    30
 10
468.27954199999988
 20
92.999977000000001
 30
0.0
 11
468.27954199999988
 21
104.999977
 31
0.0
  0
TEXT
  5
1E9
  8
SIZE
  6
CONTINUOUS
 62
    30
 10
443.27954199999988
 20
141.99997657142859
 30
0.0
 40
64.0
  1
20
 50
90.0
 41
0.9
 72
     1
 11
443.27954199999988
 21
188.62854799999999
 31
0.0
  0
POINT
  5
1EA
  8
DEFPOINTS
  6
CONTINUOUS
 62
    30
 10
61.588535999999998
 20
73.5
 30
0.0
  0
POINT
  5
1EB
  8
DEFPOINTS
  6
CONTINUOUS
 62
    30
 10
-7.4999979999999988
 20
92.999977000000001
 30
0.0
  0
POINT
  5
1EC
  8
DEFPOINTS
  6
CONTINUOUS
 62
    30
 10
468.27954199999988
 20
92.999977000000001
 30
0.0
  0
LINE
  5
1ED
  8
SIZE
  6
CONTINUOUS
 62
    30
 10
12.500002
 20
92.999977000000001
 30
0.0
 11
368.27954199999999
 21
92.999977000000001
 31
0.0
  0
LINE
  5
1EE
  8
SIZE
  6
CONTINUOUS
 62
    30
 10
4.5000039999999988
 20
95.499976000000004
 30
0.0
 11
368.27954199999999
 21
95.499976000000004
 31
0.0
  0
LINE
  5
1EF
  8
SIZE
  6
CONTINUOUS
 62
    30
 10
348.27954199999999
 20
80.999977000000015
 30
0.0
 11
348.27954199999999
 21
68.999977000000001
 31
0.0
  0
LINE
  5
1F0
  8
SIZE
  6
CONTINUOUS
 62
    30
 10
348.27954199999999
 20
107.499976
 30
0.0
 11
348.27954199999999
 21
315.89502199999998
 31
0.0
  0
LINE
  5
1F1
  8
SIZE
  6
CONTINUOUS
 62
    30
 10
348.27954199999999
 20
92.999977000000001
 30
0.0
 11
348.27954199999999
 21
95.499976000000004
 31
0.0
  0
CIRCLE
  5
1F2
  8
SIZE
  6
CONTINUOUS
 62
    30
 10
348.27954199999999
 20
92.999977000000001
 30
0.0
 40
6.0
  0
LINE
  5
1F3
  8
SIZE
  6
CONTINUOUS
 62
    30
 10
348.27954199999999
 20
92.999977000000001
 30
0.0
 11
348.27954199999999
 21
80.999977000000015
 31
0.0
  0
CIRCLE
  5
1F4
  8
SIZE
  6
CONTINUOUS
 62
    30
 10
348.27954199999999
 20
95.499976000000004
 30
0.0
 40
6.0
  0
LINE
  5
1F5
  8
SIZE
  6
CONTINUOUS
 62
    30
 10
348.27954199999999
 20
95.499976000000004
 30
0.0
 11
348.27954199999999
 21
107.499976
 31
0.0
  0
TEXT
  5
1F6
  8
SIZE
  6
CONTINUOUS
 62
    30
 10
323.27954199999999
 20
170.20930785714279
 30
0.0
 40
64.0
  1
2.5
 50
90.0
 41
0.9
 72
     1
 11
323.27954199999999
 21
230.552165
 31
0.0
  0
POINT
  5
1F7
  8
DEFPOINTS
  6
CONTINUOUS
 62
    30
 10
-7.4999979999999988
 20
92.999977000000001
 30
0.0
  0
POINT
  5
1F8
  8
DEFPOINTS
  6
CONTINUOUS
 62
    30
 10
-15.499995999999999
 20
95.499976000000004
 30
0.0
  0
POINT
  5
1F9
  8
DEFPOINTS
  6
CONTINUOUS
 62
    30
 10
348.27954199999999
 20
95.499976000000004
 30
0.0
  0
LINE
  5
1FA
  8
SIZE
  6
CONTINUOUS
 62
    30
 10
-129.99997200000001
 20
0.0
 30
0.0
 11
-239.908569
 21
0.0
 31
0.0
  0
LINE
  5
1FB
  8
SIZE
  6
CONTINUOUS
 62
    30
 10
-116.851286
 20
92.999977000000001
 30
0.0
 11
-239.908569
 21
92.999977000000001
 31
0.0
  0
LINE
  5
1FC
  8
SIZE
  6
CONTINUOUS
 62
    30
 10
-219.908569
 20
12.0
 30
0.0
 11
-219.908569
 21
80.999977000000015
 31
0.0
  0
CIRCLE
  5
1FD
  8
SIZE
  6
CONTINUOUS
 62
    30
 10
-219.908569
 20
0.0
 30
0.0
 40
6.0
  0
LINE
  5
1FE
  8
SIZE
  6
CONTINUOUS
 62
    30
 10
-219.908569
 20
0.0
 30
0.0
 11
-219.908569
 21
12.0
 31
0.0
  0
CIRCLE
  5
1FF
  8
SIZE
  6
CONTINUOUS
 62
    30
 10
-219.908569
 20
92.999977000000001
 30
0.0
 40
6.0
  0
LINE
  5
200
  8
SIZE
  6
CONTINUOUS
 62
    30
 10
-219.908569
 20
92.999977000000001
 30
0.0
 11
-219.908569
 21
80.999977000000015
 31
0.0
  0
TEXT
  5
201
  8
SIZE
  6
CONTINUOUS
 62
    30
 10
-244.908569
 20
-0.1285834285714245
 30
0.0
 40
64.0
  1
93
 50
90.0
 41
0.9
 72
     1
 11
-244.908569
 21
46.499988000000002
 31
0.0
  0
POINT
  5
202
  8
DEFPOINTS
  6
CONTINUOUS
 62
    30
 10
-109.999972
 20
0.0
 30
0.0
  0
POINT
  5
203
  8
DEFPOINTS
  6
CONTINUOUS
 62
    30
 10
-96.851286000000002
 20
92.999977000000001
 30
0.0
  0
POINT
  5
204
  8
DEFPOINTS
  6
CONTINUOUS
 62
    30
 10
-219.908569
 20
92.999977000000001
 30
0.0
  0
LINE
  5
205
  8
NOTE
  6
CONTINUOUS
 62
     4
 39
50.0
 10
-7.4503130000000004
 20
78.0
 30
0.0
 11
-6.4789149999999989
 21
87.464606000000003
 31
0.0
  0
LINE
  5
206
  8
NOTE
  6
CONTINUOUS
 62
     4
 39
50.0
 10
-7.4503130000000004
 20
78.0
 30
0.0
 11
-14.249409
 21
84.655424999999994
 31
0.0
  0
LINE
  5
207
  8
NOTE
  6
CONTINUOUS
 62
     4
 39
50.0
 10
-2.7961269999999998
 20
-87.0
 30
0.0
 11
-12.104499000000001
 21
-87.0
 31
0.0
  0
CIRCLE
  5
208
  8
FIX
  6
CONTINUOUS
 62
    11
 39
50.0
 10
-7.4503130000000004
 20
-87.0
 30
0.0
 40
2.25
  0
LINE
  5
209
  8
SIZE
  6
CONTINUOUS
 62
    30
 10
17.217707999999998
 20
-87.0
 30
0.0
 11
608.27954199999999
 21
-87.0
 31
0.0
  0
LINE
  5
20A
  8
SIZE
  6
CONTINUOUS
 62
    30
 10
17.217707999999998
 20
78.0
 30
0.0
 11
608.27954199999999
 21
78.0
 31
0.0
  0
LINE
  5
20B
  8
SIZE
  6
CONTINUOUS
 62
    30
 10
588.27954199999988
 20
-99.0
 30
0.0
 11
588.27954199999988
 21
-111.0
 31
0.0
  0
LINE
  5
20C
  8
SIZE
  6
CONTINUOUS
 62
    30
 10
588.27954199999988
 20
90.0
 30
0.0
 11
588.27954199999988
 21
102.0
 31
0.0
  0
LINE
  5
20D
  8
SIZE
  6
CONTINUOUS
 62
    30
 10
588.27954199999988
 20
-87.0
 30
0.0
 11
588.27954199999988
 21
78.0
 31
0.0
  0
CIRCLE
  5
20E
  8
SIZE
  6
CONTINUOUS
 62
    30
 10
588.27954199999988
 20
-87.0
 30
0.0
 40
6.0
  0
LINE
  5
20F
  8
SIZE
  6
CONTINUOUS
 62
    30
 10
588.27954199999988
 20
-87.0
 30
0.0
 11
588.27954199999988
 21
-99.0
 31
0.0
  0
CIRCLE
  5
210
  8
SIZE
  6
CONTINUOUS
 62
    30
 10
588.27954199999988
 20
78.0
 30
0.0
 40
6.0
  0
LINE
  5
211
  8
SIZE
  6
CONTINUOUS
 62
    30
 10
588.27954199999988
 20
78.0
 30
0.0
 11
588.27954199999988
 21
90.0
 31
0.0
  0
TEXT
  5
212
  8
SIZE
  6
CONTINUOUS
 62
    30
 10
563.27954199999988
 20
-73.071428571428555
 30
0.0
 40
64.0
  1
165
 50
90.0
 41
0.9
 72
     1
 11
563.27954199999988
 21
-4.5
 31
0.0
  0
POINT
  5
213
  8
DEFPOINTS
  6
CONTINUOUS
 62
    30
 10
-2.7822919999999991
 20
-87.0
 30
0.0
  0
POINT
  5
214
  8
DEFPOINTS
  6
CONTINUOUS
 62
    30
 10
-2.7822919999999991
 20
78.0
 30
0.0
  0
POINT
  5
215
  8
DEFPOINTS
  6
CONTINUOUS
 62
    30
 10
588.27954199999988
 20
78.0
 30
0.0
  0
TEXT
  5
21E
  8
ETC
  6
CONTINUOUS
 62
    61
 10
396.62561761620719
 20
580.77118142864174
 30
0.0
 40
40.0
  1
P-18JSD_4
 41
0.9
  0
TEXT
  5
21F
  8
ETC
  6
CONTINUOUS
 62
    61
 10
392.43962361620709
 20
520.07490242864174
 30
0.0
 40
40.0
  1
システム部材
 41
0.9
  0
TEXT
  5
220
  8
ETC
  6
CONTINUOUS
 62
    61
 10
443.04712661620698
 20
438.20479142864178
 30
0.0
 40
40.0
  1
P-18JSD
 41
0.9
  0
TEXT
  5
221
  8
ETC
  6
CONTINUOUS
 62
    61
 10
443.04712661620698
 20
377.98716437953408
 30
0.0
 40
40.0
  1
P-18JSQD
 41
0.9
  0
ENDSEC
  0
EOF
