  0
SECTION
  2
HEADER
  9
$ACADVER
  1
AC1009
  9
$INSBASE
 10
0.0
 20
0.0
 30
0.0
  9
$EXTMIN
 10
-261.47458523217938
 20
-336.71720722541068
 30
-0.0015258207003583
  9
$EXTMAX
 10
989.50196894526005
 20
527.96174194426385
 30
0.0000000349246037
  9
$LIMMIN
 10
-4200.0
 20
-2970.0
  9
$LIMMAX
 10
4200.0
 20
2970.0
  9
$ORTHOMODE
 70
     0
  9
$REGENMODE
 70
     0
  9
$FILLMODE
 70
     1
  9
$QTEXTMODE
 70
     0
  9
$MIRRTEXT
 70
     0
  9
$DRAGMODE
 70
     2
  9
$LTSCALE
 40
20.0
  9
$OSMODE
 70
    37
  9
$ATTMODE
 70
     1
  9
$TEXTSIZE
 40
64.0
  9
$TRACEWID
 40
0.05
  9
$TEXTSTYLE
  7
STANDARD
  9
$CLAYER
  8
SIZE
  9
$CELTYPE
  6
CONTINUOUS
  9
$CECOLOR
 62
     3
  9
$DIMSCALE
 40
1.0
  9
$DIMASZ
 40
12.0
  9
$DIMEXO
 40
20.0
  9
$DIMDLI
 40
200.0
  9
$DIMRND
 40
0.0
  9
$DIMDLE
 40
0.0
  9
$DIMEXE
 40
30.0
  9
$DIMTP
 40
0.0
  9
$DIMTM
 40
0.0
  9
$DIMTXT
 40
64.0
  9
$DIMCEN
 40
0.09
  9
$DIMTSZ
 40
0.0
  9
$DIMTOL
 70
     0
  9
$DIMLIM
 70
     0
  9
$DIMTIH
 70
     0
  9
$DIMTOH
 70
     0
  9
$DIMSE1
 70
     0
  9
$DIMSE2
 70
     0
  9
$DIMTAD
 70
     1
  9
$DIMZIN
 70
     8
  9
$DIMBLK
  1
ORIGIN
  9
$DIMASO
 70
     1
  9
$DIMSHO
 70
     0
  9
$DIMPOST
  1

  9
$DIMAPOST
  1

  9
$DIMALT
 70
     0
  9
$DIMALTD
 70
     2
  9
$DIMALTF
 40
25.399999999999999
  9
$DIMLFAC
 40
1.0
  9
$DIMTOFL
 70
     1
  9
$DIMTVP
 40
0.0
  9
$DIMTIX
 70
     1
  9
$DIMSOXD
 70
     0
  9
$DIMSAH
 70
     0
  9
$DIMBLK1
  1

  9
$DIMBLK2
  1

  9
$DIMSTYLE
  2
STANDARD
  9
$DIMCLRD
 70
     0
  9
$DIMCLRE
 70
     0
  9
$DIMCLRT
 70
     0
  9
$DIMTFAC
 40
1.0
  9
$DIMGAP
 40
20.0
  9
$LUNITS
 70
     2
  9
$LUPREC
 70
     4
  9
$SKETCHINC
 40
0.1
  9
$FILLETRAD
 40
0.7
  9
$AUNITS
 70
     1
  9
$AUPREC
 70
     3
  9
$MENU
  1
ACAD
  9
$ELEVATION
 40
0.0
  9
$PELEVATION
 40
0.0
  9
$THICKNESS
 40
0.0
  9
$LIMCHECK
 70
     1
  9
$BLIPMODE
 70
     0
  9
$CHAMFERA
 40
0.0
  9
$CHAMFERB
 40
0.0
  9
$SKPOLY
 70
     0
  9
$TDCREATE
 40
2451799.5818402781
  9
$TDUPDATE
 40
2454805.6734395488
  9
$TDINDWG
 40
0.0200750463
  9
$TDUSRTIMER
 40
0.0200746875
  9
$USRTIMER
 70
     1
  9
$ANGBASE
 50
0.0
  9
$ANGDIR
 70
     0
  9
$PDMODE
 70
     3
  9
$PDSIZE
 40
-2.0
  9
$PLINEWID
 40
0.0
  9
$COORDS
 70
     0
  9
$SPLFRAME
 70
     0
  9
$SPLINETYPE
 70
     6
  9
$SPLINESEGS
 70
     8
  9
$ATTDIA
 70
     0
  9
$ATTREQ
 70
     1
  9
$HANDLING
 70
     1
  9
$HANDSEED
  5
43D
  9
$SURFTAB1
 70
     6
  9
$SURFTAB2
 70
     6
  9
$SURFTYPE
 70
     6
  9
$SURFU
 70
     6
  9
$SURFV
 70
     6
  9
$UCSNAME
  2

  9
$UCSORG
 10
0.0
 20
0.0
 30
0.0
  9
$UCSXDIR
 10
1.0
 20
0.0
 30
0.0
  9
$UCSYDIR
 10
0.0
 20
1.0
 30
0.0
  9
$PUCSNAME
  2

  9
$PUCSORG
 10
0.0
 20
0.0
 30
0.0
  9
$PUCSXDIR
 10
1.0
 20
0.0
 30
0.0
  9
$PUCSYDIR
 10
0.0
 20
1.0
 30
0.0
  9
$USERI1
 70
     0
  9
$USERI2
 70
     0
  9
$USERI3
 70
     0
  9
$USERI4
 70
     0
  9
$USERI5
 70
     0
  9
$USERR1
 40
20.0
  9
$USERR2
 40
0.0
  9
$USERR3
 40
0.0
  9
$USERR4
 40
0.0
  9
$USERR5
 40
0.0
  9
$WORLDVIEW
 70
     1
  9
$SHADEDGE
 70
     3
  9
$SHADEDIF
 70
    70
  9
$TILEMODE
 70
     1
  9
$MAXACTVP
 70
    64
  9
$PLIMCHECK
 70
     0
  9
$PEXTMIN
 10
1.0000000000000000E+020
 20
1.0000000000000000E+020
 30
1.0000000000000000E+020
  9
$PEXTMAX
 10
-1.0000000000000000E+020
 20
-1.0000000000000000E+020
 30
-1.0000000000000000E+020
  9
$PLIMMIN
 10
0.0
 20
0.0
  9
$PLIMMAX
 10
12.0
 20
9.0
  9
$UNITMODE
 70
     0
  9
$VISRETAIN
 70
     1
  9
$PLINEGEN
 70
     0
  9
$PSLTSCALE
 70
     1
  0
ENDSEC
  0
SECTION
  2
TABLES
  0
TABLE
  2
VPORT
 70
     1
  0
VPORT
  2
*ACTIVE
 70
     0
 10
0.0
 20
0.0
 11
1.0
 21
1.0
 12
358.92475614912701
 22
93.407397061443874
 13
0.0
 23
0.0
 14
400.0
 24
400.0
 15
400.0
 25
400.0
 16
0.0
 26
0.0
 36
1.0
 17
0.0
 27
0.0
 37
0.0
 40
932.99373345708284
 41
1.3387096774193541
 42
50.0
 43
0.0
 44
0.0
 50
0.0
 51
0.0
 71
     0
 72
   500
 73
     1
 74
     0
 75
     0
 76
     0
 77
     0
 78
     0
  0
ENDTAB
  0
TABLE
  2
LTYPE
 70
     8
  0
LTYPE
  2
CONTINUOUS
 70
     0
  3
実線
 72
    65
 73
     0
 40
0.0
  0
LTYPE
  2
DOT
 70
     0
  3
...............................................
 72
    65
 73
     2
 40
0.8
 49
0.5
 49
-0.3
  0
LTYPE
  2
DASHED
 70
     0
  3
_ _ _ _ _ _ _ _ _ _ _ _ _ _ _ _ _ _ _ _ _ _ _
 72
    65
 73
     2
 40
2.0
 49
1.1999999999999991
 49
-0.8
  0
LTYPE
  2
DASHDOT
 70
     0
  3
____ _ ____ _ ____ _ ____ _ ____ _ ____ _ ____
 72
    65
 73
     4
 40
5.5
 49
4.0
 49
-0.6
 49
0.3
 49
-0.6
  0
LTYPE
  2
DASHDOT1
 70
     0
  3
____ _ ____ _ ____ _ ____ _ ____ _ ____ _ ____
 72
    65
 73
     4
 40
2.0
 49
1.5
 49
-0.2
 49
0.1
 49
-0.2
  0
LTYPE
  2
DIVIDE
 70
     0
  3
_____ _ _ _____ _ _ _____ _ _ _____ _ _ ____
 72
    65
 73
     6
 40
6.4000000000000004
 49
4.0
 49
-0.6
 49
0.3
 49
-0.6
 49
0.3
 49
-0.6
  0
LTYPE
  2
DIVIDE1
 70
     0
  3
_____ _ _ _____ _ _ _____ _ _ _____ _ _ ____
 72
    65
 73
     6
 40
3.2000000000000002
 49
2.0
 49
-0.3
 49
0.15
 49
-0.3
 49
0.15
 49
-0.3
  0
ENDTAB
  0
TABLE
  2
LAYER
 70
    12
  0
LAYER
  2
0
 70
     0
 62
     7
  6
CONTINUOUS
  0
LAYER
  2
OUTLINE
 70
     0
 62
     3
  6
CONTINUOUS
  0
LAYER
  2
SIZE
 70
     0
 62
    30
  6
CONTINUOUS
  0
LAYER
  2
DETAIL
 70
     0
 62
     5
  6
CONTINUOUS
  0
LAYER
  2
BASIS
 70
     0
 62
     6
  6
DASHDOT
  0
LAYER
  2
ARRANGE
 70
     0
 62
     1
  6
CONTINUOUS
  0
LAYER
  2
ETC
 70
     0
 62
    61
  6
CONTINUOUS
  0
LAYER
  2
DEFPOINTS
 70
     0
 62
     7
  6
CONTINUOUS
  0
LAYER
  2
NOTE
 70
     0
 62
     4
  6
CONTINUOUS
  0
LAYER
  2
FIX
 70
     0
 62
    11
  6
CONTINUOUS
  0
LAYER
  2
SERVICESPACE
 70
     0
 62
     2
  6
DASHDOT
  0
LAYER
  2
SYMBOLLINE
 70
     0
 62
    15
  6
CONTINUOUS
  0
ENDTAB
  0
TABLE
  2
STYLE
 70
     2
  0
STYLE
  2
STANDARD
 70
     0
 40
0.0
 41
0.9
 50
0.0
 71
     0
 42
64.0
  3
SIMPLEX
  4
BIGFONT
  0
STYLE
  2
ANNOTATIVE
 70
     0
 40
0.0
 41
1.0
 50
0.0
 71
     0
 42
0.2
  3
txt
  4

  0
ENDTAB
  0
TABLE
  2
VIEW
 70
     1
  0
VIEW
  2
ALL
 70
     0
 40
6374.9789810000002
 10
0.0
 20
58.11501599999999
 41
8842.1052629999976
 11
0.0
 21
0.0
 31
1.0
 12
0.0
 22
0.0
 32
0.0
 42
50.0
 43
0.0
 44
0.0
 50
0.0
 71
     0
  0
ENDTAB
  0
TABLE
  2
UCS
 70
     0
  0
ENDTAB
  0
TABLE
  2
APPID
 70
     3
  0
APPID
  2
ACAD
 70
     0
  0
APPID
  2
ACADANNOTATIVE
 70
     0
  0
APPID
  2
ACAD_MLEADERVER
 70
     0
  0
ENDTAB
  0
TABLE
  2
DIMSTYLE
 70
     3
  0
DIMSTYLE
  2
STANDARD
 70
     0
  3

  4

  5

  6

  7

 40
1.0
 41
0.18
 42
0.0625
 43
0.38
 44
0.18
 45
0.0
 46
0.0
 47
0.0
 48
0.0
140
0.18
141
0.09
142
0.0
143
25.399999999999999
144
1.0
145
0.0
146
1.0
147
0.09
 71
     0
 72
     0
 73
     1
 74
     1
 75
     0
 76
     0
 77
     0
 78
     0
170
     0
171
     2
172
     0
173
     0
174
     0
175
     0
176
     0
177
     0
178
     0
  0
DIMSTYLE
  2
ANNOTATIVE
 70
     0
  3

  4

  5

  6

  7

 40
1.0
 41
0.18
 42
0.0625
 43
0.38
 44
0.18
 45
0.0
 46
0.0
 47
0.0
 48
0.0
140
0.18
141
0.09
142
0.0
143
25.399999999999999
144
1.0
145
0.0
146
1.0
147
0.09
 71
     0
 72
     0
 73
     1
 74
     1
 75
     0
 76
     0
 77
     0
 78
     0
170
     0
171
     2
172
     0
173
     0
174
     0
175
     0
176
     0
177
     0
178
     0
  0
ENDTAB
  0
ENDSEC
  0
SECTION
  2
BLOCKS
  0
BLOCK
  8
0
  2
$MODEL_SPACE
 70
     0
 10
0.0
 20
0.0
 30
0.0
  3
$MODEL_SPACE
  1

  0
ENDBLK
  5
3DA
  8
0
  0
BLOCK
 67
     1
  8
0
  2
$PAPER_SPACE
 70
     0
 10
0.0
 20
0.0
 30
0.0
  3
$PAPER_SPACE
  1

  0
ENDBLK
  5
3D6
 67
     1
  8
0
  0
BLOCK
  8
0
 62
    30
  2
_ORIGIN
 70
     0
 10
0.0
 20
0.0
 30
0.0
  3
_ORIGIN
  1

  0
CIRCLE
  5
288
  8
0
  6
BYBLOCK
 62
     0
 10
0.0
 20
0.0
 30
0.0
 40
0.5
  0
LINE
  5
289
  8
0
  6
BYBLOCK
 62
     0
 10
0.0
 20
0.0
 30
0.0
 11
-1.0
 21
0.0
 31
0.0
  0
ENDBLK
  5
28A
  8
0
 62
    30
  0
BLOCK
  8
0
 62
    30
  2
_OPEN30
 70
     0
 10
0.0
 20
0.0
 30
0.0
  3
_OPEN30
  1

  0
LINE
  5
28D
  8
0
  6
BYBLOCK
 62
     0
 10
-1.0
 20
0.26794919
 30
0.0
 11
0.0
 21
0.0
 31
0.0
  0
LINE
  5
28E
  8
0
  6
BYBLOCK
 62
     0
 10
0.0
 20
0.0
 30
0.0
 11
-1.0
 21
-0.26794919
 31
0.0
  0
LINE
  5
28F
  8
0
  6
BYBLOCK
 62
     0
 10
0.0
 20
0.0
 30
0.0
 11
-1.0
 21
0.0
 31
0.0
  0
ENDBLK
  5
290
  8
0
 62
    30
  0
BLOCK
  8
0
 62
    30
  2
*D4
 70
     1
 10
0.0
 20
0.0
 30
0.0
  3
*D4
  1

  0
LINE
  5
293
  8
SIZE
  6
CONTINUOUS
 62
     0
 10
27.196624175136829
 20
-105.4999999999999
 30
0.0
 11
449.09296085420328
 21
-105.5000000000001
 31
0.0
  0
LINE
  5
294
  8
SIZE
  6
CONTINUOUS
 62
     0
 10
27.5
 20
105.4999999999999
 30
0.0
 11
449.09296085420328
 21
105.4999999999997
 31
0.0
  0
LINE
  5
295
  8
SIZE
  6
CONTINUOUS
 62
     0
 10
419.09296085420328
 20
-93.500000000000156
 30
0.0
 11
419.09296085420328
 21
93.499999999999872
 31
0.0
  0
INSERT
  5
296
  8
SIZE
  6
CONTINUOUS
 62
     0
  2
_ORIGIN
 10
419.09296085420328
 20
-105.5000000000001
 30
0.0
 41
12.0
 42
12.0
 43
12.0
 50
270.0
  0
INSERT
  5
297
  8
SIZE
  6
CONTINUOUS
 62
     0
  2
_ORIGIN
 10
419.09296085420328
 20
105.4999999999997
 30
0.0
 41
12.0
 42
12.0
 43
12.0
 50
90.0
  0
TEXT
  5
298
  8
SIZE
  6
CONTINUOUS
 62
     0
 10
399.09296085420311
 20
-56.22857142857147
 30
0.0
 40
64.0
  1
211
 50
90.0
 41
0.9
  0
POINT
  5
299
  8
DEFPOINTS
  6
CONTINUOUS
 62
     0
 10
7.1966241751368401
 20
-105.4999999999999
 30
0.0
  0
POINT
  5
29A
  8
DEFPOINTS
  6
CONTINUOUS
 62
     0
 10
7.5
 20
105.4999999999999
 30
0.0
  0
POINT
  5
29B
  8
DEFPOINTS
  6
CONTINUOUS
 62
     0
 10
419.09296085420328
 20
105.4999999999997
 30
0.0
  0
ENDBLK
  5
29C
  8
0
 62
    30
  0
ENDSEC
  0
SECTION
  2
ENTITIES
  0
ARC
  5
29D
  8
DETAIL
  6
CONTINUOUS
 62
     5
 10
-52.092179000000002
 20
-72.592179000000002
 30
0.0
 40
0.9078209999999998
 50
180.0
 51
270.0
  0
LINE
  5
29E
  8
DETAIL
  6
CONTINUOUS
 62
     5
 10
0.0
 20
-73.5
 30
0.0
 11
-52.092179000000002
 21
-73.5
 31
0.0
  0
LINE
  5
29F
  8
DETAIL
  6
CONTINUOUS
 62
     5
 10
0.0
 20
73.5
 30
0.0
 11
-51.162011
 21
73.5
 31
0.0
  0
LINE
  5
2A0
  8
DETAIL
  6
CONTINUOUS
 62
     5
 10
-47.022514000000001
 20
73.5
 30
0.0
 11
-52.092179000000002
 21
73.5
 31
0.0
  0
ARC
  5
2A1
  8
DETAIL
  6
CONTINUOUS
 62
     5
 10
-52.092179000000002
 20
72.592179000000002
 30
0.0
 40
0.9078209999999998
 50
90.0
 51
180.0
  0
LINE
  5
2A2
  8
BASIS
  6
DASHDOT
 62
     6
 10
160.72503999999981
 20
0.0
 30
0.0
 11
-93.683598999999987
 21
0.0
 31
0.0
  0
LINE
  5
2A3
  8
SIZE
  6
CONTINUOUS
 62
    30
 10
0.0
 20
-254.60110499999999
 30
0.0
 11
-131.70931699999991
 21
-254.60110499999999
 31
0.0
  0
LINE
  5
2A4
  8
SIZE
  6
CONTINUOUS
 62
    30
 10
0.0
 20
164.150328
 30
0.0
 11
-168.5676499999999
 21
164.150328
 31
0.0
  0
LINE
  5
2A5
  8
SIZE
  6
CONTINUOUS
 62
    30
 10
130.0
 20
255.61148799999989
 30
0.0
 11
288.75905499999999
 21
255.61148799999989
 31
0.0
  0
ARC
  5
2A6
  8
OUTLINE
  6
CONTINUOUS
 62
     3
 10
-52.09217899999998
 20
72.592179000000002
 30
0.0
 40
0.9078209999999998
 50
90.0
 51
180.0
  0
LINE
  5
2A7
  8
OUTLINE
  6
CONTINUOUS
 62
     3
 10
-47.022514000000001
 20
73.5
 30
0.0
 11
-51.092178999999987
 21
73.5
 31
0.0
  0
LINE
  5
2A8
  8
OUTLINE
  6
CONTINUOUS
 62
     3
 10
0.0
 20
73.5
 30
0.0
 11
-52.09217899999998
 21
73.5
 31
0.0
  0
LINE
  5
2A9
  8
OUTLINE
  6
CONTINUOUS
 62
     3
 10
0.0
 20
-73.5
 30
0.0
 11
-52.09217899999998
 21
-73.5
 31
0.0
  0
ARC
  5
2AA
  8
OUTLINE
  6
CONTINUOUS
 62
     3
 10
-52.09217899999998
 20
-72.592179000000002
 30
0.0
 40
0.9078209999999998
 50
180.0
 51
270.0
  0
LINE
  5
2AB
  8
DETAIL
  6
CONTINUOUS
 62
     5
 10
-53.0
 20
-72.592179000000002
 30
0.0
 11
-53.0
 21
72.592179000000002
 31
0.0
  0
ARC
  5
2AC
  8
DETAIL
  6
CONTINUOUS
 62
     5
 10
15.265625
 20
-3.0
 30
0.0
 40
3.0
 50
2.6241840000000001
 51
90.0
  0
LINE
  5
2AD
  8
DETAIL
  6
CONTINUOUS
 62
     5
 10
0.0
 20
0.0
 30
0.0
 11
0.0
 21
-105.4999999999999
 31
0.0
  0
ARC
  5
2AE
  8
DETAIL
  6
CONTINUOUS
 62
     5
 10
373.56026500000002
 20
9.2280039999999985
 30
0.0
 40
355.50344699999982
 50
181.94900199999989
 51
200.23602099999991
  0
LINE
  5
2AF
  8
DETAIL
  6
CONTINUOUS
 62
     5
 10
14.650838
 20
-106.94413400000001
 30
0.0
 11
40.0
 21
-113.736422
 31
0.0
  0
LINE
  5
2B0
  8
DETAIL
  6
CONTINUOUS
 62
     5
 10
15.265625
 20
0.0
 30
0.0
 11
0.0
 21
0.0
 31
0.0
  0
ARC
  5
2B1
  8
DETAIL
  6
CONTINUOUS
 62
     5
 10
45.415455000000001
 20
-79.486476999999979
 30
0.0
 40
3.0
 50
262.31297699999988
 51
0.0
  0
LINE
  5
2B2
  8
DETAIL
  6
CONTINUOUS
 62
     5
 10
48.415455000000001
 20
-79.486476999999979
 30
0.0
 11
48.415455000000001
 21
-45.968986000000001
 31
0.0
  0
LINE
  5
2B3
  8
DETAIL
  6
CONTINUOUS
 62
     5
 10
45.01417
 20
-82.459517000000005
 30
0.0
 11
40.35839099999999
 21
-81.831104999999965
 31
0.0
  0
ARC
  5
2B4
  8
DETAIL
  6
CONTINUOUS
 62
     5
 10
48.817787000000003
 20
8.408277
 30
0.0
 40
81.616680000000002
 50
354.08548400000001
 51
88.583048000000005
  0
ARC
  5
2B5
  8
DETAIL
  6
CONTINUOUS
 62
     5
 10
121.3077399999999
 20
-80.951860999999965
 30
0.0
 40
80.954014000000001
 50
90.571692999999996
 51
180.01095699999999
  0
LINE
  5
2B6
  8
DETAIL
  6
CONTINUOUS
 62
     5
 10
130.0
 20
-0.001877
 30
0.0
 11
120.5
 21
-0.001877
 31
0.0
  0
LINE
  5
2B7
  8
DETAIL
  6
CONTINUOUS
 62
     5
 10
40.353726999999992
 20
-80.967342000000002
 30
0.0
 11
40.353726999999992
 21
-90.0
 31
0.0
  0
LINE
  5
2B8
  8
DETAIL
  6
CONTINUOUS
 62
     5
 10
40.58639999999999
 20
-90.0
 30
0.0
 11
32.04089299999999
 21
-90.0
 31
0.0
  0
LINE
  5
2B9
  8
DETAIL
  6
CONTINUOUS
 62
     5
 10
40.58639999999999
 20
-89.500000000000014
 30
0.0
 11
40.353726999999992
 21
-89.500000000000014
 31
0.0
  0
LINE
  5
2BA
  8
DETAIL
  6
CONTINUOUS
 62
     5
 10
10.0
 20
103.0
 30
0.0
 11
10.0
 21
0.0
 31
0.0
  0
LINE
  5
2BB
  8
DETAIL
  6
CONTINUOUS
 62
     5
 10
35.5
 20
90.0
 30
0.0
 11
10.0
 21
90.0
 31
0.0
  0
LINE
  5
2BC
  8
DETAIL
  6
CONTINUOUS
 62
     5
 10
0.0
 20
105.4999999999999
 30
0.0
 11
0.0
 21
0.0
 31
0.0
  0
LINE
  5
2BD
  8
DETAIL
  6
CONTINUOUS
 62
     5
 10
42.164859999999983
 20
-94.459039000000004
 30
0.0
 11
41.069363000000003
 21
-90.370590000000007
 31
0.0
  0
LINE
  5
2BE
  8
DETAIL
  6
CONTINUOUS
 62
     5
 10
42.647822999999988
 20
-94.329628999999997
 30
0.0
 11
41.552326000000001
 21
-90.241180999999997
 31
0.0
  0
ARC
  5
2BF
  8
DETAIL
  6
CONTINUOUS
 62
     5
 10
40.58639999999999
 20
-90.5
 30
0.0
 40
0.5
 50
15.0
 51
90.0
  0
ARC
  5
2C0
  8
DETAIL
  6
CONTINUOUS
 62
     5
 10
40.58639999999999
 20
-90.5
 30
0.0
 40
1.0
 50
15.0
 51
90.0
  0
LINE
  5
2C1
  8
DETAIL
  6
CONTINUOUS
 62
     5
 10
42.164859999999983
 20
-94.459039000000004
 30
0.0
 11
42.647822999999988
 21
-94.329628999999997
 31
0.0
  0
LINE
  5
2C2
  8
DETAIL
  6
CONTINUOUS
 62
     5
 10
14.650838
 20
-106.94413400000001
 30
0.0
 11
-0.0000000000000001
 21
-106.94413400000001
 31
0.0
  0
LINE
  5
2C3
  8
DETAIL
  6
CONTINUOUS
 62
     5
 10
50.835999999999999
 20
90.0
 30
0.0
 11
35.5
 21
90.0
 31
0.0
  0
LINE
  5
2C5
  8
OUTLINE
  6
CONTINUOUS
 62
     3
 10
14.65083800000002
 20
-106.94413400000001
 30
0.0
 11
40.0
 21
-113.736422
 31
0.0
  0
ARC
  5
2C6
  8
OUTLINE
  6
CONTINUOUS
 62
     3
 10
373.56026500000002
 20
9.2280039999999985
 30
0.0
 40
355.50344699999982
 50
196.207671
 51
200.23602099999991
  0
LINE
  5
2C8
  8
DETAIL
  6
DASHED
 62
     5
 10
10.0
 20
0.0
 30
0.0
 11
9.6966133317829382
 21
-103.00736319576851
 31
0.0
  0
LINE
  5
2C9
  8
OUTLINE
  6
CONTINUOUS
 62
     3
 10
10.0
 20
103.0
 30
0.0
 11
10.0
 21
90.0
 31
0.0
  0
LINE
  5
2CA
  8
OUTLINE
  6
CONTINUOUS
 62
     3
 10
50.836000000000013
 20
90.0
 30
0.0
 11
35.5
 21
90.0
 31
0.0
  0
LINE
  5
2CB
  8
OUTLINE
  6
CONTINUOUS
 62
     3
 10
35.5
 20
90.0
 30
0.0
 11
10.0
 21
90.0
 31
0.0
  0
ARC
  5
2CC
  8
OUTLINE
  6
CONTINUOUS
 62
     3
 10
48.81778700000001
 20
8.408277
 30
0.0
 40
81.616680000000002
 50
354.08548400000001
 51
88.583048000000005
  0
LINE
  5
2CD
  8
OUTLINE
  6
CONTINUOUS
 62
     3
 10
130.0
 20
-0.001877
 30
0.0
 11
120.5
 21
-0.001877
 31
0.0
  0
ARC
  5
2CE
  8
OUTLINE
  6
CONTINUOUS
 62
     3
 10
121.3077399999999
 20
-80.951860999999965
 30
0.0
 40
80.954014000000001
 50
90.571692999999996
 51
180.01095699999999
  0
LINE
  5
2CF
  8
OUTLINE
  6
CONTINUOUS
 62
     3
 10
45.014169999999979
 20
-82.459517000000005
 30
0.0
 11
40.358390999999983
 21
-81.831104999999965
 31
0.0
  0
LINE
  5
2D0
  8
OUTLINE
  6
CONTINUOUS
 62
     3
 10
48.415455000000009
 20
-79.486476999999979
 30
0.0
 11
48.415455000000009
 21
-45.968986000000001
 31
0.0
  0
ARC
  5
2D1
  8
OUTLINE
  6
CONTINUOUS
 62
     3
 10
45.415455000000001
 20
-79.486476999999979
 30
0.0
 40
3.0
 50
262.31297699999988
 51
0.0
  0
LINE
  5
2D2
  8
OUTLINE
  6
CONTINUOUS
 62
     3
 10
40.353726999999992
 20
-80.967342000000002
 30
0.0
 11
40.353726999999992
 21
-90.0
 31
0.0
  0
LINE
  5
2D3
  8
OUTLINE
  6
CONTINUOUS
 62
     3
 10
40.353726999999992
 20
-90.0
 30
0.0
 11
32.185831999999991
 21
-90.0
 31
0.0
  0
LINE
  5
2D4
  8
OUTLINE
  6
CONTINUOUS
 62
     3
 10
0.0
 20
105.4999999999999
 30
0.0
 11
0.0
 21
0.0
 31
0.0
  0
LINE
  5
2D5
  8
SIZE
  6
CONTINUOUS
 62
    30
 10
285.16353399999991
 20
-90.0
 30
0.0
 11
285.16353399999991
 21
-336.5239049999999
 31
0.0
  0
POINT
  5
2D6
  8
ARRANGE
  6
CONTINUOUS
 62
     1
 10
0.0
 20
0.0
 30
0.0
  0
CIRCLE
  5
2D7
  8
ARRANGE
  6
CONTINUOUS
 62
     1
 10
0.0
 20
0.0
 30
0.0
 40
40.0
  0
TEXT
  5
2D8
  8
SIZE
  6
BYBLOCK
 62
    30
 10
398.29701699999993
 20
-108.46513400000001
 30
0.0
 40
64.0
  1
φ211
 50
90.0
 41
0.9
  0
LINE
  5
2D9
  8
SIZE
  6
BYBLOCK
 62
    30
 10
52.185831999999998
 20
-90.0
 30
0.0
 11
315.16353399999991
 21
-90.0
 31
0.0
  0
LINE
  5
2DA
  8
SIZE
  6
BYBLOCK
 62
    30
 10
30.0
 20
90.0
 30
0.0
 11
315.16353399999991
 21
90.0
 31
0.0
  0
LINE
  5
2DB
  8
SIZE
  6
BYBLOCK
 62
    30
 10
285.16353399999991
 20
92.0
 30
0.0
 11
285.16353399999991
 21
94.0
 31
0.0
  0
LINE
  5
2DC
  8
SIZE
  6
BYBLOCK
 62
    30
 10
285.16353399999991
 20
-92.0
 30
0.0
 11
285.16353399999991
 21
-94.0
 31
0.0
  0
LINE
  5
2DD
  8
SIZE
  6
BYBLOCK
 62
    30
 10
285.16353399999991
 20
90.0
 30
0.0
 11
285.16353399999991
 21
-90.0
 31
0.0
  0
TEXT
  5
2DE
  8
SIZE
  6
BYBLOCK
 62
    30
 10
253.163534
 20
-338.65951899999982
 30
0.0
 40
64.0
  1
φ180
 50
90.0
 41
0.9
  0
LINE
  5
2DF
  8
SIZE
  6
BYBLOCK
 62
    30
 10
-71.092179000000002
 20
73.5
 30
0.0
 11
-195.193746
 21
73.5
 31
0.0
  0
LINE
  5
2E0
  8
SIZE
  6
BYBLOCK
 62
    30
 10
-71.092179000000002
 20
-73.5
 30
0.0
 11
-195.193746
 21
-73.5
 31
0.0
  0
LINE
  5
2E1
  8
SIZE
  6
BYBLOCK
 62
    30
 10
-165.193746
 20
-75.5
 30
0.0
 11
-165.193746
 21
-77.5
 31
0.0
  0
LINE
  5
2E2
  8
SIZE
  6
BYBLOCK
 62
    30
 10
-165.193746
 20
75.5
 30
0.0
 11
-165.193746
 21
77.5
 31
0.0
  0
LINE
  5
2E3
  8
SIZE
  6
BYBLOCK
 62
    30
 10
-165.193746
 20
-73.5
 30
0.0
 11
-165.193746
 21
73.5
 31
0.0
  0
TEXT
  5
2E4
  8
SIZE
  6
BYBLOCK
 62
    30
 10
-197.193746
 20
-97.37142900000002
 30
0.0
 40
64.0
  1
φ147
 50
90.0
 41
0.9
  0
LINE
  5
2E5
  8
SIZE
  6
BYBLOCK
 62
    30
 10
0.0
 20
124.5
 30
0.0
 11
0.0
 21
285.61148800000001
 31
0.0
  0
LINE
  5
2E6
  8
SIZE
  6
BYBLOCK
 62
    30
 10
130.0
 20
19.998123
 30
0.0
 11
130.0
 21
285.61148800000001
 31
0.0
  0
LINE
  5
2E7
  8
SIZE
  6
BYBLOCK
 62
    30
 10
132.0
 20
255.61148799999989
 30
0.0
 11
134.0
 21
255.61148799999989
 31
0.0
  0
LINE
  5
2E8
  8
SIZE
  6
BYBLOCK
 62
    30
 10
-2.0
 20
255.61148799999989
 30
0.0
 11
-4.0
 21
255.61148799999989
 31
0.0
  0
LINE
  5
2E9
  8
SIZE
  6
BYBLOCK
 62
    30
 10
130.0
 20
255.61148799999989
 30
0.0
 11
0.0
 21
255.61148799999989
 31
0.0
  0
TEXT
  5
2EA
  8
SIZE
  6
BYBLOCK
 62
    30
 10
148.55227099999979
 20
287.61148800000001
 30
0.0
 40
64.0
  1
130
 41
0.9
  0
LINE
  5
2EB
  8
SIZE
  6
BYBLOCK
 62
    30
 10
0.0
 20
124.5
 30
0.0
 11
0.0
 21
285.61148800000001
 31
0.0
  0
LINE
  5
2EC
  8
SIZE
  6
BYBLOCK
 62
    30
 10
-53.0
 20
80.092179000000016
 30
0.0
 11
-53.0
 21
285.61148800000001
 31
0.0
  0
LINE
  5
2ED
  8
SIZE
  6
BYBLOCK
 62
    30
 10
-54.0
 20
255.61148799999989
 30
0.0
 11
-56.0
 21
255.61148799999989
 31
0.0
  0
LINE
  5
2EE
  8
SIZE
  6
BYBLOCK
 62
    30
 10
2.0
 20
255.61148799999989
 30
0.0
 11
4.0
 21
255.61148799999989
 31
0.0
  0
LINE
  5
2EF
  8
SIZE
  6
BYBLOCK
 62
    30
 10
-171.8225410827649
 20
255.61148799999989
 30
0.0
 11
0.0
 21
255.61148799999989
 31
0.0
  0
TEXT
  5
2F0
  8
SIZE
  6
BYBLOCK
 62
    30
 10
-162.8394653367275
 20
284.42875327984387
 30
0.0
 40
64.0
  1
53
 41
0.9
  0
LINE
  5
2F1
  8
SIZE
  6
BYBLOCK
 62
    30
 10
0.0
 20
124.5
 30
0.0
 11
0.0
 21
194.150328
 31
0.0
  0
LINE
  5
2F2
  8
SIZE
  6
BYBLOCK
 62
    30
 10
10.0
 20
122.05586599999999
 30
0.0
 11
10.0
 21
194.150328
 31
0.0
  0
LINE
  5
2F3
  8
SIZE
  6
BYBLOCK
 62
    30
 10
12.0
 20
164.150328
 30
0.0
 11
14.0
 21
164.150328
 31
0.0
  0
LINE
  5
2F4
  8
SIZE
  6
BYBLOCK
 62
    30
 10
-2.0
 20
164.150328
 30
0.0
 11
-4.0
 21
164.150328
 31
0.0
  0
LINE
  5
2F5
  8
SIZE
  6
BYBLOCK
 62
    30
 10
10.0
 20
164.150328
 30
0.0
 11
0.0
 21
164.150328
 31
0.0
  0
TEXT
  5
2F6
  8
SIZE
  6
BYBLOCK
 62
    30
 10
-161.5299029999999
 20
176.9955643546931
 30
0.0
 40
64.0
  1
10
 41
0.9
  0
LINE
  5
2F7
  8
SIZE
  6
BYBLOCK
 62
    30
 10
0.0
 20
-124.5
 30
0.0
 11
0.0
 21
-284.6011049999999
 31
0.0
  0
LINE
  5
2F8
  8
SIZE
  6
BYBLOCK
 62
    30
 10
40.0
 20
-133.73642199999969
 30
0.0
 11
40.0
 21
-284.6011049999999
 31
0.0
  0
LINE
  5
2F9
  8
SIZE
  6
BYBLOCK
 62
    30
 10
42.0
 20
-254.60110499999999
 30
0.0
 11
44.0
 21
-254.60110499999999
 31
0.0
  0
LINE
  5
2FA
  8
SIZE
  6
BYBLOCK
 62
    30
 10
-2.0
 20
-254.60110499999999
 30
0.0
 11
-4.0
 21
-254.60110499999999
 31
0.0
  0
LINE
  5
2FB
  8
SIZE
  6
BYBLOCK
 62
    30
 10
40.0
 20
-254.60110499999999
 30
0.0
 11
0.0
 21
-254.60110499999999
 31
0.0
  0
TEXT
  5
2FC
  8
SIZE
  6
BYBLOCK
 62
    30
 10
-123.856607
 20
-231.17452900000001
 30
0.0
 40
64.0
  1
40
 41
0.9
  0
CIRCLE
  5
2FD
  8
SIZE
  6
CONTINUOUS
 62
    30
 10
0.0
 20
-254.60110499999999
 30
0.0
 40
6.0
  0
CIRCLE
  5
2FE
  8
SIZE
  6
CONTINUOUS
 62
    30
 10
40.0
 20
-254.60110499999999
 30
0.0
 40
6.0
  0
CIRCLE
  5
2FF
  8
SIZE
  6
CONTINUOUS
 62
    30
 10
0.0
 20
164.150328
 30
0.0
 40
6.0
  0
CIRCLE
  5
300
  8
SIZE
  6
CONTINUOUS
 62
    30
 10
10.0
 20
164.150328
 30
0.0
 40
6.0
  0
CIRCLE
  5
301
  8
SIZE
  6
CONTINUOUS
 62
    30
 10
0.0
 20
255.61148799999989
 30
0.0
 40
6.0
  0
CIRCLE
  5
302
  8
SIZE
  6
CONTINUOUS
 62
    30
 10
-53.0
 20
255.61148799999989
 30
0.0
 40
6.0
  0
CIRCLE
  5
303
  8
SIZE
  6
CONTINUOUS
 62
    30
 10
0.0
 20
255.61148799999989
 30
0.0
 40
6.0
  0
CIRCLE
  5
304
  8
SIZE
  6
CONTINUOUS
 62
    30
 10
130.0
 20
255.61148799999989
 30
0.0
 40
6.0
  0
CIRCLE
  5
305
  8
SIZE
  6
CONTINUOUS
 62
    30
 10
-165.193746
 20
73.5
 30
0.0
 40
6.0
  0
CIRCLE
  5
306
  8
SIZE
  6
CONTINUOUS
 62
    30
 10
-165.193746
 20
-73.5
 30
0.0
 40
6.0
  0
CIRCLE
  5
307
  8
SIZE
  6
CONTINUOUS
 62
    30
 10
285.16353399999991
 20
-90.0
 30
0.0
 40
6.0
  0
CIRCLE
  5
308
  8
SIZE
  6
CONTINUOUS
 62
    30
 10
285.16353399999991
 20
90.0
 30
0.0
 40
6.0
  0
TEXT
  5
309
  8
ETC
  6
CONTINUOUS
 62
    61
 10
427.17240202222513
 20
360.15115326417111
 30
0.0
 40
64.0
  1
システム部材
 41
0.9
  0
TEXT
  5
30A
  8
ETC
  6
CONTINUOUS
 62
    61
 10
435.00358202222498
 20
463.87432026417122
 30
0.0
 40
64.0
  1
P-18KFA5_5
 41
0.9
  0
TEXT
  5
30B
  8
ETC
  6
CONTINUOUS
 62
    61
 10
543.1181647702183
 20
278.169100010036
 30
0.0
 40
50.0
  1
P-18KFA5
 41
0.9
  0
TEXT
  5
30C
  8
ETC
  6
CONTINUOUS
 62
    61
 10
544.40536418003421
 20
206.45200804060391
 30
0.0
 40
50.0
  1
P-18KFAD5
 41
0.9
  0
TEXT
  5
30D
  8
ETC
  6
CONTINUOUS
 62
    61
 10
548.26695323701585
 20
139.54345272988431
 30
0.0
 40
50.0
  1
P-18KFADK5
 41
0.9
  0
LINE
  5
30E
  8
DETAIL
 62
     5
 10
7.5
 20
105.4999999999999
 30
0.0
 11
0.0
 21
105.4999999999999
 31
0.0
  0
LINE
  5
30F
  8
DETAIL
 62
     5
 10
7.1966241751368401
 20
-105.4999999999999
 30
0.0
 11
0.0
 21
-105.4999999999999
 31
0.0
  0
ARC
  5
310
  8
DETAIL
  6
CONTINUOUS
 62
     5
 10
7.1966241751368401
 20
-103.0
 30
0.0
 40
2.5
 50
270.0
 51
359.83124773951431
  0
ARC
  5
311
  8
DETAIL
  6
CONTINUOUS
 62
     5
 10
7.5
 20
103.0
 30
0.0
 40
2.5
 50
0.0
 51
90.0
  0
LINE
  5
312
  8
OUTLINE
 62
     3
 10
7.5
 20
105.4999999999999
 30
0.0
 11
0.0
 21
105.4999999999999
 31
0.0
  0
ARC
  5
313
  8
OUTLINE
  6
CONTINUOUS
 62
     3
 10
7.5
 20
103.0
 30
0.0
 40
2.5
 50
0.0
 51
90.0
  0
LINE
  5
314
  8
SIZE
  6
CONTINUOUS
 62
    30
 10
27.196624175136829
 20
-105.4999999999999
 30
0.0
 11
449.09296085420328
 21
-105.5000000000001
 31
0.0
  0
LINE
  5
315
  8
SIZE
  6
CONTINUOUS
 62
    30
 10
27.5
 20
105.4999999999999
 30
0.0
 11
449.09296085420328
 21
105.4999999999997
 31
0.0
  0
LINE
  5
316
  8
SIZE
  6
CONTINUOUS
 62
    30
 10
419.0929642668857
 20
-93.500000000000156
 30
0.0
 11
419.0929642668857
 21
93.499999999999872
 31
0.0
  0
LINE
  5
317
  8
SIZE
  6
CONTINUOUS
 62
    30
 10
14.0
 20
164.150328
 30
0.0
 11
43.022280740063707
 21
164.150328
 31
0.0
  0
CIRCLE
  5
318
  8
SIZE
  6
BYBLOCK
 62
    30
 10
419.09296085420328
 20
-105.5000000000001
 30
0.0
 40
6.0
  0
LINE
  5
319
  8
SIZE
  6
BYBLOCK
 62
    30
 10
419.09296085420328
 20
-105.5000000000001
 30
0.0
 11
419.09296085420328
 21
-93.500000000000156
 31
0.0
  0
CIRCLE
  5
31A
  8
SIZE
  6
BYBLOCK
 62
    30
 10
419.09296085420328
 20
105.4999999999997
 30
0.0
 40
6.0
  0
LINE
  5
31B
  8
SIZE
  6
BYBLOCK
 62
    30
 10
419.09296085420328
 20
105.4999999999997
 30
0.0
 11
419.09296085420328
 21
93.499999999999872
 31
0.0
  0
LINE
  5
31C
  8
OUTLINE
  6
CONTINUOUS
 62
     3
 10
-53.0
 20
72.592179000000002
 30
0.0
 11
-53.0
 21
-72.592179000000002
 31
0.0
  0
LINE
  5
31E
  8
DETAIL
  6
CONTINUOUS
 62
     5
 10
-0.7
 20
-73.5
 30
0.0
 11
-0.7000000000000001
 21
-106.2441339999999
 31
0.0
  0
ARC
  5
31F
  8
DETAIL
  6
CONTINUOUS
 62
     5
 10
-0.0000000000000001
 20
-106.2441339999999
 30
0.0
 40
0.7
 50
180.0
 51
270.0
  0
LINE
  5
320
  8
OUTLINE
  6
CONTINUOUS
 62
     3
 10
14.65083800000002
 20
-106.94413400000001
 30
0.0
 11
-0.0000000000000008
 21
-106.94413399999991
 31
0.0
  0
LINE
  5
321
  8
OUTLINE
  6
CONTINUOUS
 62
     3
 10
-0.7
 20
-73.5
 30
0.0
 11
-0.7000000000000001
 21
-106.2441339999999
 31
0.0
  0
LINE
  5
322
  8
OUTLINE
  6
CONTINUOUS
 62
     3
 10
0.0
 20
-73.5
 30
0.0
 11
0.0
 21
0.0
 31
0.0
  0
ARC
  5
323
  8
OUTLINE
  6
CONTINUOUS
 62
     3
 10
-0.0000000000000001
 20
-106.2441339999999
 30
0.0
 40
0.7
 50
180.0
 51
269.99999999999989
  0
ENDSEC
  0
EOF
