  0
SECTION
  2
HEADER
  9
$ACADVER
  1
AC1009
  9
$INSBASE
 10
0.0
 20
0.0
 30
0.0
  9
$EXTMIN
 10
-363.45518333075597
 20
-354.08018838390859
 30
-0.0030518556252446
  9
$EXTMAX
 10
719.20624900283838
 20
456.9397051317373
 30
50.003052088470113
  9
$LIMMIN
 10
-2970.0
 20
-2100.0
  9
$LIMMAX
 10
2970.0
 20
2100.0
  9
$ORTHOMODE
 70
     1
  9
$REGENMODE
 70
     1
  9
$FILLMODE
 70
     1
  9
$QTEXTMODE
 70
     0
  9
$MIRRTEXT
 70
     0
  9
$DRAGMODE
 70
     2
  9
$LTSCALE
 40
20.0
  9
$OSMODE
 70
    37
  9
$ATTMODE
 70
     1
  9
$TEXTSIZE
 40
64.0
  9
$TRACEWID
 40
0.05
  9
$TEXTSTYLE
  7
STANDARD
  9
$CLAYER
  8
SIZE
  9
$CELTYPE
  6
CONTINUOUS
  9
$CECOLOR
 62
     7
  9
$DIMSCALE
 40
1.0
  9
$DIMASZ
 40
12.0
  9
$DIMEXO
 40
20.0
  9
$DIMDLI
 40
200.0
  9
$DIMRND
 40
0.0
  9
$DIMDLE
 40
0.0
  9
$DIMEXE
 40
20.0
  9
$DIMTP
 40
0.0
  9
$DIMTM
 40
0.0
  9
$DIMTXT
 40
64.0
  9
$DIMCEN
 40
0.09
  9
$DIMTSZ
 40
0.0
  9
$DIMTOL
 70
     0
  9
$DIMLIM
 70
     0
  9
$DIMTIH
 70
     0
  9
$DIMTOH
 70
     0
  9
$DIMSE1
 70
     0
  9
$DIMSE2
 70
     0
  9
$DIMTAD
 70
     1
  9
$DIMZIN
 70
     8
  9
$DIMBLK
  1
DOT1
  9
$DIMASO
 70
     1
  9
$DIMSHO
 70
     0
  9
$DIMPOST
  1

  9
$DIMAPOST
  1

  9
$DIMALT
 70
     0
  9
$DIMALTD
 70
     2
  9
$DIMALTF
 40
25.399999999999999
  9
$DIMLFAC
 40
1.0
  9
$DIMTOFL
 70
     1
  9
$DIMTVP
 40
0.0
  9
$DIMTIX
 70
     1
  9
$DIMSOXD
 70
     0
  9
$DIMSAH
 70
     1
  9
$DIMBLK1
  1
ORIGIN
  9
$DIMBLK2
  1
ORIGIN
  9
$DIMSTYLE
  2
STANDARD
  9
$DIMCLRD
 70
     7
  9
$DIMCLRE
 70
     7
  9
$DIMCLRT
 70
     7
  9
$DIMTFAC
 40
1.0
  9
$DIMGAP
 40
25.0
  9
$LUNITS
 70
     2
  9
$LUPREC
 70
     4
  9
$SKETCHINC
 40
0.1
  9
$FILLETRAD
 40
4.0
  9
$AUNITS
 70
     1
  9
$AUPREC
 70
     3
  9
$MENU
  1
ACAD
  9
$ELEVATION
 40
0.0
  9
$PELEVATION
 40
0.0
  9
$THICKNESS
 40
50.0
  9
$LIMCHECK
 70
     0
  9
$BLIPMODE
 70
     0
  9
$CHAMFERA
 40
0.0
  9
$CHAMFERB
 40
0.0
  9
$SKPOLY
 70
     0
  9
$TDCREATE
 40
2452994.5064322338
  9
$TDUPDATE
 40
2454806.4994808449
  9
$TDINDWG
 40
0.1443955671
  9
$TDUSRTIMER
 40
0.1443953819
  9
$USRTIMER
 70
     1
  9
$ANGBASE
 50
0.0
  9
$ANGDIR
 70
     0
  9
$PDMODE
 70
     3
  9
$PDSIZE
 40
-2.0
  9
$PLINEWID
 40
0.0
  9
$COORDS
 70
     0
  9
$SPLFRAME
 70
     0
  9
$SPLINETYPE
 70
     6
  9
$SPLINESEGS
 70
     8
  9
$ATTDIA
 70
     0
  9
$ATTREQ
 70
     1
  9
$HANDLING
 70
     1
  9
$HANDSEED
  5
14F
  9
$SURFTAB1
 70
     6
  9
$SURFTAB2
 70
     6
  9
$SURFTYPE
 70
     6
  9
$SURFU
 70
     6
  9
$SURFV
 70
     6
  9
$UCSNAME
  2

  9
$UCSORG
 10
0.0
 20
0.0
 30
0.0
  9
$UCSXDIR
 10
1.0
 20
0.0
 30
0.0
  9
$UCSYDIR
 10
0.0
 20
1.0
 30
0.0
  9
$PUCSNAME
  2

  9
$PUCSORG
 10
0.0
 20
0.0
 30
0.0
  9
$PUCSXDIR
 10
1.0
 20
0.0
 30
0.0
  9
$PUCSYDIR
 10
0.0
 20
1.0
 30
0.0
  9
$USERI1
 70
     0
  9
$USERI2
 70
     0
  9
$USERI3
 70
     0
  9
$USERI4
 70
     0
  9
$USERI5
 70
     0
  9
$USERR1
 40
20.0
  9
$USERR2
 40
0.0
  9
$USERR3
 40
0.0
  9
$USERR4
 40
0.0
  9
$USERR5
 40
0.0
  9
$WORLDVIEW
 70
     1
  9
$SHADEDGE
 70
     3
  9
$SHADEDIF
 70
    70
  9
$TILEMODE
 70
     1
  9
$MAXACTVP
 70
    48
  9
$PLIMCHECK
 70
     0
  9
$PEXTMIN
 10
-1.0000000000000000E+020
 20
-1.0000000000000000E+020
 30
-1.0000000000000000E+020
  9
$PEXTMAX
 10
1.0000000000000000E+020
 20
1.0000000000000000E+020
 30
1.0000000000000000E+020
  9
$PLIMMIN
 10
0.0
 20
0.0
  9
$PLIMMAX
 10
12.0
 20
9.0
  9
$UNITMODE
 70
     0
  9
$VISRETAIN
 70
     0
  9
$PLINEGEN
 70
     0
  9
$PSLTSCALE
 70
     0
  0
ENDSEC
  0
SECTION
  2
TABLES
  0
TABLE
  2
VPORT
 70
     1
  0
VPORT
  2
*ACTIVE
 70
     0
 10
0.0
 20
0.0
 11
1.0
 21
1.0
 12
177.8755328360412
 22
51.42975837391441
 13
0.0
 23
0.0
 14
1.0
 24
1.0
 15
0.0
 25
0.0
 16
0.0
 26
0.0
 36
1.0
 17
0.0
 27
0.0
 37
0.0
 40
831.9463837897149
 41
1.3098995695839311
 42
50.0
 43
0.0
 44
0.0
 50
0.0
 51
0.0
 71
     0
 72
  1000
 73
     1
 74
     0
 75
     0
 76
     0
 77
     0
 78
     0
  0
ENDTAB
  0
TABLE
  2
LTYPE
 70
     2
  0
LTYPE
  2
CONTINUOUS
 70
     0
  3
実線
 72
    65
 73
     0
 40
0.0
  0
LTYPE
  2
DASHDOT
 70
     0
  3
____ _ ____ _ ____ _ ____ _ ____ _ ____ _ ____
 72
    65
 73
     4
 40
5.5
 49
4.0
 49
-0.6
 49
0.3
 49
-0.6
  0
ENDTAB
  0
TABLE
  2
LAYER
 70
    12
  0
LAYER
  2
0
 70
     0
 62
     7
  6
CONTINUOUS
  0
LAYER
  2
SIZE
 70
     0
 62
    30
  6
CONTINUOUS
  0
LAYER
  2
BASIS
 70
     0
 62
     6
  6
DASHDOT
  0
LAYER
  2
OUTLINE
 70
     0
 62
     3
  6
CONTINUOUS
  0
LAYER
  2
DETAIL
 70
     0
 62
     5
  6
CONTINUOUS
  0
LAYER
  2
ARRANGE
 70
     0
 62
     1
  6
CONTINUOUS
  0
LAYER
  2
DEFPOINTS
 70
     0
 62
     7
  6
CONTINUOUS
  0
LAYER
  2
ETC
 70
     0
 62
    61
  6
CONTINUOUS
  0
LAYER
  2
FIX
 70
     0
 62
    11
  6
CONTINUOUS
  0
LAYER
  2
NOTE
 70
     0
 62
     4
  6
CONTINUOUS
  0
LAYER
  2
SERVICESPACE
 70
     0
 62
     2
  6
DASHDOT
  0
LAYER
  2
SYMBOLLINE
 70
     0
 62
    15
  6
CONTINUOUS
  0
ENDTAB
  0
TABLE
  2
STYLE
 70
     2
  0
STYLE
  2
STANDARD
 70
     0
 40
64.0
 41
0.9
 50
0.0
 71
     0
 42
64.0
  3
SIMPLEX.shx
  4
BIGFONT.shx
  0
STYLE
  2
ANNOTATIVE
 70
     0
 40
0.0
 41
1.0
 50
0.0
 71
     0
 42
0.2
  3
txt
  4

  0
ENDTAB
  0
TABLE
  2
VIEW
 70
     1
  0
VIEW
  2
ALL
 70
     0
 40
4282.6198079999986
 10
0.0
 20
41.309903999999989
 41
5940.0
 11
0.0
 21
0.0
 31
1.0
 12
0.0
 22
0.0
 32
0.0
 42
50.0
 43
0.0
 44
0.0
 50
0.0
 71
     0
  0
ENDTAB
  0
TABLE
  2
UCS
 70
     0
  0
ENDTAB
  0
TABLE
  2
APPID
 70
     4
  0
APPID
  2
ACAD
 70
     0
  0
APPID
  2
ACADANNOTATIVE
 70
     0
  0
APPID
  2
ACAD_MLEADERVER
 70
     0
  0
APPID
  2
AUTOCAD_POSTSCRIPT_FIGURE
 70
     0
  0
ENDTAB
  0
TABLE
  2
DIMSTYLE
 70
     2
  0
DIMSTYLE
  2
STANDARD
 70
     0
  3

  4

  5

  6

  7

 40
1.0
 41
0.18
 42
0.0625
 43
0.38
 44
0.18
 45
0.0
 46
0.0
 47
0.0
 48
0.0
140
0.18
141
0.09
142
0.0
143
25.399999999999999
144
1.0
145
0.0
146
1.0
147
0.09
 71
     0
 72
     0
 73
     1
 74
     1
 75
     0
 76
     0
 77
     0
 78
     0
170
     0
171
     2
172
     0
173
     0
174
     0
175
     0
176
     7
177
     7
178
     7
  0
DIMSTYLE
  2
ANNOTATIVE
 70
     0
  3

  4

  5

  6

  7

 40
1.0
 41
0.18
 42
0.0625
 43
0.38
 44
0.18
 45
0.0
 46
0.0
 47
0.0
 48
0.0
140
0.18
141
0.09
142
0.0
143
25.399999999999999
144
1.0
145
0.0
146
1.0
147
0.09
 71
     0
 72
     0
 73
     1
 74
     1
 75
     0
 76
     0
 77
     0
 78
     0
170
     0
171
     2
172
     0
173
     0
174
     0
175
     0
176
     0
177
     0
178
     0
  0
ENDTAB
  0
ENDSEC
  0
SECTION
  2
BLOCKS
  0
BLOCK
  8
0
  2
$MODEL_SPACE
 70
     0
 10
0.0
 20
0.0
 30
0.0
  3
$MODEL_SPACE
  1

  0
ENDBLK
  5
76
  8
0
  0
BLOCK
 67
     1
  8
0
  2
$PAPER_SPACE
 70
     0
 10
0.0
 20
0.0
 30
0.0
  3
$PAPER_SPACE
  1

  0
ENDBLK
  5
72
 67
     1
  8
0
  0
BLOCK
  8
0
  2
DOT1
 70
     0
 10
0.0
 20
0.0
 30
0.0
  3
DOT1
  1

  0
CIRCLE
  5
8C
  8
SIZE
  6
CONTINUOUS
 62
     7
 10
0.0
 20
0.0
 30
0.0
 40
3.0
  0
ENDBLK
  5
8D
  8
0
  0
BLOCK
  8
0
  2
_ORIGIN
 70
     0
 10
0.0
 20
0.0
 30
0.0
  3
_ORIGIN
  1

  0
CIRCLE
  5
90
  8
0
  6
CONTINUOUS
 62
     7
 10
0.0
 20
0.0
 30
0.0
 40
0.5
  0
LINE
  5
91
  8
0
  6
CONTINUOUS
 62
     7
 10
0.0
 20
0.0
 30
0.0
 11
-1.0
 21
0.0
 31
0.0
  0
ENDBLK
  5
92
  8
0
  0
ENDSEC
  0
SECTION
  2
ENTITIES
  0
TEXT
  5
93
  8
ETC
  6
CONTINUOUS
 62
    61
 10
338.86521399999998
 20
334.550074
 30
0.0
 40
40.0
  1
システム部材
 41
0.9
  0
ARC
  5
94
  8
DETAIL
  6
CONTINUOUS
 62
     5
 10
-103.056
 20
-7.556
 30
0.0
 40
2.4439999999999991
 50
180.0
 51
270.0
  0
ARC
  5
95
  8
DETAIL
  6
CONTINUOUS
 62
     5
 10
103.056
 20
-7.556
 30
0.0
 40
2.4439999999999991
 50
270.0
 51
0.0
  0
LINE
  5
96
  8
DETAIL
  6
CONTINUOUS
 62
     5
 10
-90.0
 20
-10.0
 30
0.0
 11
-90.0
 21
-35.5
 31
0.0
  0
LINE
  5
97
  8
DETAIL
  6
CONTINUOUS
 62
     5
 10
90.0
 20
-10.0
 30
0.0
 11
90.0
 21
-35.5
 31
0.0
  0
LINE
  5
98
  8
DETAIL
  6
CONTINUOUS
 62
     5
 10
-73.5
 20
0.0
 30
0.0
 11
-73.5
 21
53.0
 31
0.0
  0
LINE
  5
99
  8
DETAIL
  6
CONTINUOUS
 62
     5
 10
-73.5
 20
53.0
 30
0.0
 11
73.5
 21
53.0
 31
0.0
  0
LINE
  5
9A
  8
DETAIL
  6
CONTINUOUS
 62
     5
 10
-103.056
 20
-10.0
 30
0.0
 11
103.056
 21
-10.0
 31
0.0
  0
LINE
  5
9B
  8
DETAIL
  6
CONTINUOUS
 62
     5
 10
-105.5
 20
0.0
 30
0.0
 11
105.5
 21
0.0
 31
0.0
  0
LINE
  5
9C
  8
BASIS
  6
DASHDOT
 62
     6
 10
0.0
 20
99.465151000000006
 30
0.0
 11
0.0
 21
-177.11351199999999
 31
0.0
  0
POINT
  5
9D
  8
ARRANGE
  6
CONTINUOUS
 62
     1
 10
0.0
 20
0.0
 30
0.0
  0
CIRCLE
  5
9E
  8
ARRANGE
  6
CONTINUOUS
 62
     1
 10
0.0
 20
0.0
 30
0.0
 40
40.0
  0
TEXT
  5
9F
  8
ETC
  6
CONTINUOUS
 62
    61
 10
350.46513700000003
 20
395.50419699999998
 30
0.0
 40
40.0
  1
P-18KFAQ5_1
 41
0.9
  0
ARC
  5
A0
  8
DETAIL
  6
CONTINUOUS
 62
     5
 10
0.0
 20
-40.025871999999993
 30
0.0
 40
89.974128000000007
 50
177.11669499999999
 51
2.883305
  0
LINE
  5
A1
  8
DETAIL
  6
CONTINUOUS
 62
     5
 10
-105.5
 20
0.0
 30
0.0
 11
-105.5
 21
-7.556
 31
0.0
  0
LINE
  5
A2
  8
DETAIL
  6
CONTINUOUS
 62
     5
 10
105.5
 20
-7.556
 30
0.0
 11
105.5
 21
0.0
 31
0.0
  0
LINE
  5
A3
  8
DETAIL
  6
CONTINUOUS
 62
     5
 10
-109.5
 20
0.0
 30
0.0
 11
-109.5
 21
-18.262478999999999
 31
0.0
  0
ARC
  5
A4
  8
DETAIL
  6
CONTINUOUS
 62
     5
 10
-0.5
 20
244.151996
 30
0.0
 40
284.151996
 50
247.44329999999999
 51
251.64086
  0
LINE
  5
A5
  8
DETAIL
  6
CONTINUOUS
 62
     5
 10
-105.0
 20
0.0
 30
0.0
 11
-109.5
 21
0.0
 31
0.0
  0
LINE
  5
A6
  8
DETAIL
  6
CONTINUOUS
 62
     5
 10
109.5
 20
0.0
 30
0.0
 11
109.5
 21
-18.262478999999999
 31
0.0
  0
LINE
  5
A7
  8
DETAIL
  6
CONTINUOUS
 62
     5
 10
105.0
 20
0.0
 30
0.0
 11
109.5
 21
0.0
 31
0.0
  0
ARC
  5
A8
  8
DETAIL
  6
CONTINUOUS
 62
     5
 10
0.5
 20
244.151996
 30
0.0
 40
284.151996
 50
288.35914000000002
 51
292.55669999999998
  0
LINE
  5
A9
  8
SIZE
  6
CONTINUOUS
 62
    30
 10
73.5
 20
72.0
 30
0.0
 11
73.5
 21
154.827426
 31
0.0
  0
LINE
  5
AA
  8
SIZE
  6
CONTINUOUS
 62
    30
 10
-73.5
 20
72.0
 30
0.0
 11
-73.5
 21
154.827426
 31
0.0
  0
LINE
  5
AB
  8
SIZE
  6
CONTINUOUS
 62
    30
 10
85.5
 20
134.827426
 30
0.0
 11
97.5
 21
134.827426
 31
0.0
  0
LINE
  5
AC
  8
SIZE
  6
CONTINUOUS
 62
    30
 10
-85.5
 20
134.827426
 30
0.0
 11
-97.5
 21
134.827426
 31
0.0
  0
LINE
  5
AD
  8
SIZE
  6
CONTINUOUS
 62
    30
 10
73.5
 20
134.827426
 30
0.0
 11
-73.5
 21
134.827426
 31
0.0
  0
CIRCLE
  5
AE
  8
SIZE
  6
CONTINUOUS
 62
    30
 10
73.5
 20
134.827426
 30
0.0
 40
6.0
  0
LINE
  5
AF
  8
SIZE
  6
CONTINUOUS
 62
    30
 10
73.5
 20
134.827426
 30
0.0
 11
85.5
 21
134.827426
 31
0.0
  0
CIRCLE
  5
B0
  8
SIZE
  6
CONTINUOUS
 62
    30
 10
-73.5
 20
134.827426
 30
0.0
 40
6.0
  0
LINE
  5
B1
  8
SIZE
  6
CONTINUOUS
 62
    30
 10
-73.5
 20
134.827426
 30
0.0
 11
-85.5
 21
134.827426
 31
0.0
  0
TEXT
  5
B2
  8
SIZE
  6
CONTINUOUS
 62
    30
 10
-108.89142857142851
 20
159.827426
 30
0.0
 40
64.0
  1
φ147
 41
0.9
 72
     1
 11
0.0
 21
159.827426
 31
0.0
  0
POINT
  5
B3
  8
DEFPOINTS
  6
CONTINUOUS
 62
    30
 10
73.5
 20
52.0
 30
0.0
  0
POINT
  5
B4
  8
DEFPOINTS
  6
CONTINUOUS
 62
    30
 10
-73.5
 20
52.0
 30
0.0
  0
POINT
  5
B5
  8
DEFPOINTS
  6
CONTINUOUS
 62
    30
 10
-73.5
 20
134.827426
 30
0.0
  0
LINE
  5
B6
  8
SIZE
  6
CONTINUOUS
 62
    30
 10
105.5
 20
20.0
 30
0.0
 11
105.5
 21
269.95408700000002
 31
0.0
  0
LINE
  5
B7
  8
SIZE
  6
CONTINUOUS
 62
    30
 10
-105.5
 20
20.0
 30
0.0
 11
-105.5
 21
269.95408700000002
 31
0.0
  0
LINE
  5
B8
  8
SIZE
  6
CONTINUOUS
 62
    30
 10
117.5
 20
249.95408699999999
 30
0.0
 11
129.5
 21
249.95408699999999
 31
0.0
  0
LINE
  5
B9
  8
SIZE
  6
CONTINUOUS
 62
    30
 10
-117.5
 20
249.95408699999999
 30
0.0
 11
-129.5
 21
249.95408699999999
 31
0.0
  0
LINE
  5
BA
  8
SIZE
  6
CONTINUOUS
 62
    30
 10
105.5
 20
249.95408699999999
 30
0.0
 11
-105.5
 21
249.95408699999999
 31
0.0
  0
CIRCLE
  5
BB
  8
SIZE
  6
CONTINUOUS
 62
    30
 10
105.5
 20
249.95408699999999
 30
0.0
 40
6.0
  0
LINE
  5
BC
  8
SIZE
  6
CONTINUOUS
 62
    30
 10
105.5
 20
249.95408699999999
 30
0.0
 11
117.5
 21
249.95408699999999
 31
0.0
  0
CIRCLE
  5
BD
  8
SIZE
  6
CONTINUOUS
 62
    30
 10
-105.5
 20
249.95408699999999
 30
0.0
 40
6.0
  0
LINE
  5
BE
  8
SIZE
  6
CONTINUOUS
 62
    30
 10
-105.5
 20
249.95408699999999
 30
0.0
 11
-117.5
 21
249.95408699999999
 31
0.0
  0
TEXT
  5
BF
  8
SIZE
  6
CONTINUOUS
 62
    30
 10
-96.548571428571464
 20
274.95408700000002
 30
0.0
 40
64.0
  1
φ211
 41
0.9
 72
     1
 11
0.0
 21
274.95408700000002
 31
0.0
  0
POINT
  5
C0
  8
DEFPOINTS
  6
CONTINUOUS
 62
    30
 10
105.5
 20
0.0
 30
0.0
  0
POINT
  5
C1
  8
DEFPOINTS
  6
CONTINUOUS
 62
    30
 10
-105.5
 20
0.0
 30
0.0
  0
POINT
  5
C2
  8
DEFPOINTS
  6
CONTINUOUS
 62
    30
 10
-105.5
 20
249.95408699999999
 30
0.0
  0
LINE
  5
C3
  8
SIZE
  6
CONTINUOUS
 62
    30
 10
109.5
 20
20.0
 30
0.0
 11
109.5
 21
387.68248
 31
0.0
  0
LINE
  5
C4
  8
SIZE
  6
CONTINUOUS
 62
    30
 10
-109.5
 20
20.0
 30
0.0
 11
-109.5
 21
387.68248
 31
0.0
  0
LINE
  5
C5
  8
SIZE
  6
CONTINUOUS
 62
    30
 10
97.5
 20
367.68248
 30
0.0
 11
-97.5
 21
367.68248
 31
0.0
  0
CIRCLE
  5
C6
  8
SIZE
  6
CONTINUOUS
 62
    30
 10
109.5
 20
367.68248
 30
0.0
 40
6.0
  0
LINE
  5
C7
  8
SIZE
  6
CONTINUOUS
 62
    30
 10
109.5
 20
367.68248
 30
0.0
 11
97.5
 21
367.68248
 31
0.0
  0
CIRCLE
  5
C8
  8
SIZE
  6
CONTINUOUS
 62
    30
 10
-109.5
 20
367.68248
 30
0.0
 40
6.0
  0
LINE
  5
C9
  8
SIZE
  6
CONTINUOUS
 62
    30
 10
-109.5
 20
367.68248
 30
0.0
 11
-97.5
 21
367.68248
 31
0.0
  0
TEXT
  5
CA
  8
SIZE
  6
CONTINUOUS
 62
    30
 10
-67.199999999999974
 20
392.68248
 30
0.0
 40
64.0
  1
219
 41
0.9
 72
     1
 11
0.0
 21
392.68248
 31
0.0
  0
POINT
  5
CB
  8
DEFPOINTS
  6
CONTINUOUS
 62
    30
 10
109.5
 20
0.0
 30
0.0
  0
POINT
  5
CC
  8
DEFPOINTS
  6
CONTINUOUS
 62
    30
 10
-109.5
 20
0.0
 30
0.0
  0
POINT
  5
CD
  8
DEFPOINTS
  6
CONTINUOUS
 62
    30
 10
-109.5
 20
367.68248
 30
0.0
  0
LINE
  5
CE
  8
SIZE
  6
CONTINUOUS
 62
    30
 10
129.5
 20
0.0
 30
0.0
 11
307.78514100000001
 21
0.0
 31
0.0
  0
LINE
  5
CF
  8
SIZE
  6
CONTINUOUS
 62
    30
 10
20.0
 20
-130.0
 30
0.0
 11
307.78514100000001
 21
-130.0
 31
0.0
  0
LINE
  5
D0
  8
SIZE
  6
CONTINUOUS
 62
    30
 10
287.78514100000001
 20
-12.0
 30
0.0
 11
287.78514100000001
 21
-118.0
 31
0.0
  0
LINE
  5
D1
  8
SIZE
  6
CONTINUOUS
 62
    30
 10
287.78514100000001
 20
-353.85383200000001
 30
0.0
 11
287.78514100000001
 21
-130.0
 31
0.0
  0
TEXT
  5
D2
  8
SIZE
  6
CONTINUOUS
 62
    30
 10
262.78514100000001
 20
-328.85383157142849
 30
0.0
 40
64.0
  1
130
 50
90.0
 41
0.9
 72
     1
 11
262.78514100000001
 21
-260.28240299999999
 31
0.0
  0
CIRCLE
  5
D3
  8
SIZE
  6
CONTINUOUS
 62
    30
 10
287.78514100000001
 20
0.0
 30
0.0
 40
6.0
  0
LINE
  5
D4
  8
SIZE
  6
CONTINUOUS
 62
    30
 10
287.78514100000001
 20
0.0
 30
0.0
 11
287.78514100000001
 21
-12.0
 31
0.0
  0
CIRCLE
  5
D5
  8
SIZE
  6
CONTINUOUS
 62
    30
 10
287.78514100000001
 20
-130.0
 30
0.0
 40
6.0
  0
LINE
  5
D6
  8
SIZE
  6
CONTINUOUS
 62
    30
 10
287.78514100000001
 20
-130.0
 30
0.0
 11
287.78514100000001
 21
-118.0
 31
0.0
  0
POINT
  5
D7
  8
DEFPOINTS
  6
CONTINUOUS
 62
    30
 10
109.5
 20
0.0
 30
0.0
  0
POINT
  5
D8
  8
DEFPOINTS
  6
CONTINUOUS
 62
    30
 10
0.0
 20
-130.0
 30
0.0
  0
POINT
  5
D9
  8
DEFPOINTS
  6
CONTINUOUS
 62
    30
 10
287.78514100000001
 20
-130.0
 30
0.0
  0
LINE
  5
DA
  8
SIZE
  6
CONTINUOUS
 62
    30
 10
129.5
 20
0.0
 30
0.0
 11
307.78514100000001
 21
0.0
 31
0.0
  0
LINE
  5
DB
  8
SIZE
  6
CONTINUOUS
 62
    30
 10
93.499999999999986
 20
53.0
 30
0.0
 11
307.78514100000001
 21
53.0
 31
0.0
  0
LINE
  5
DC
  8
SIZE
  6
CONTINUOUS
 62
    30
 10
287.78514100000001
 20
-12.0
 30
0.0
 11
287.78514100000001
 21
-24.0
 31
0.0
  0
LINE
  5
DD
  8
SIZE
  6
CONTINUOUS
 62
    30
 10
287.78514100000001
 20
64.0
 30
0.0
 11
287.78514100000001
 21
76.0
 31
0.0
  0
LINE
  5
DE
  8
SIZE
  6
CONTINUOUS
 62
    30
 10
287.78514100000001
 20
228.81463500000001
 30
0.0
 11
287.78514100000001
 21
53.0
 31
0.0
  0
TEXT
  5
DF
  8
SIZE
  6
CONTINUOUS
 62
    30
 10
262.78514100000001
 20
110.5574925714285
 30
0.0
 40
64.0
  1
53
 50
90.0
 41
0.9
 72
     1
 11
262.78514100000001
 21
157.18606399999999
 31
0.0
  0
LINE
  5
E0
  8
SIZE
  6
CONTINUOUS
 62
    30
 10
287.78514100000001
 20
0.0
 30
0.0
 11
287.78514100000001
 21
52.0
 31
0.0
  0
LINE
  5
E1
  8
SIZE
  6
CONTINUOUS
 62
    30
 10
287.78514100000001
 20
0.0
 30
0.0
 11
287.78514100000001
 21
53.0
 31
0.0
  0
CIRCLE
  5
E2
  8
SIZE
  6
CONTINUOUS
 62
    30
 10
287.78514100000001
 20
0.0
 30
0.0
 40
6.0
  0
LINE
  5
E3
  8
SIZE
  6
CONTINUOUS
 62
    30
 10
287.78514100000001
 20
0.0
 30
0.0
 11
287.78514100000001
 21
-12.0
 31
0.0
  0
CIRCLE
  5
E4
  8
SIZE
  6
CONTINUOUS
 62
    30
 10
287.78514100000001
 20
53.0
 30
0.0
 40
6.0
  0
POINT
  5
E6
  8
DEFPOINTS
  6
CONTINUOUS
 62
    30
 10
109.5
 20
0.0
 30
0.0
  0
POINT
  5
E7
  8
DEFPOINTS
  6
CONTINUOUS
 62
    30
 10
73.5
 20
52.0
 30
0.0
  0
POINT
  5
E8
  8
DEFPOINTS
  6
CONTINUOUS
 62
    30
 10
287.78514100000001
 20
52.0
 30
0.0
  0
LINE
  5
E9
  8
SIZE
  6
CONTINUOUS
 62
    30
 10
-90.0
 20
-50.0
 30
0.0
 11
-90.0
 21
-302.34056800000002
 31
0.0
  0
LINE
  5
EA
  8
SIZE
  6
CONTINUOUS
 62
    30
 10
90.0
 20
-50.0
 30
0.0
 11
90.0
 21
-302.34056800000002
 31
0.0
  0
LINE
  5
EB
  8
SIZE
  6
CONTINUOUS
 62
    30
 10
-78.0
 20
-282.34056800000002
 30
0.0
 11
78.0
 21
-282.34056800000002
 31
0.0
  0
LINE
  5
EC
  8
SIZE
  6
CONTINUOUS
 62
    30
 10
-363.28743700000001
 20
-282.34056800000002
 30
0.0
 11
-90.0
 21
-282.34056800000002
 31
0.0
  0
TEXT
  5
ED
  8
SIZE
  6
CONTINUOUS
 62
    30
 10
-352.55029357142848
 20
-257.34056800000002
 30
0.0
 40
64.0
  1
φ180
 41
0.9
 72
     1
 11
-243.65886499999999
 21
-257.34056800000002
 31
0.0
  0
CIRCLE
  5
EE
  8
SIZE
  6
CONTINUOUS
 62
    30
 10
-90.0
 20
-282.34056800000002
 30
0.0
 40
6.0
  0
LINE
  5
EF
  8
SIZE
  6
CONTINUOUS
 62
    30
 10
-90.0
 20
-282.34056800000002
 30
0.0
 11
-78.0
 21
-282.34056800000002
 31
0.0
  0
CIRCLE
  5
F0
  8
SIZE
  6
CONTINUOUS
 62
    30
 10
90.0
 20
-282.34056800000002
 30
0.0
 40
6.0
  0
LINE
  5
F1
  8
SIZE
  6
CONTINUOUS
 62
    30
 10
90.0
 20
-282.34056800000002
 30
0.0
 11
78.0
 21
-282.34056800000002
 31
0.0
  0
POINT
  5
F2
  8
DEFPOINTS
  6
CONTINUOUS
 62
    30
 10
-90.0
 20
-30.0
 30
0.0
  0
POINT
  5
F3
  8
DEFPOINTS
  6
CONTINUOUS
 62
    30
 10
90.0
 20
-30.0
 30
0.0
  0
POINT
  5
F4
  8
DEFPOINTS
  6
CONTINUOUS
 62
    30
 10
90.0
 20
-282.34056800000002
 30
0.0
  0
LINE
  5
F5
  8
SIZE
  6
CONTINUOUS
 62
    30
 10
-125.5
 20
0.0
 30
0.0
 11
-216.16992999999999
 21
0.0
 31
0.0
  0
LINE
  5
F6
  8
SIZE
  6
CONTINUOUS
 62
    30
 10
-123.056
 20
-10.0
 30
0.0
 11
-216.16992999999999
 21
-10.0
 31
0.0
  0
LINE
  5
F7
  8
SIZE
  6
CONTINUOUS
 62
    30
 10
-196.16992999999999
 20
12.0
 30
0.0
 11
-196.16992999999999
 21
24.0
 31
0.0
  0
LINE
  5
F8
  8
SIZE
  6
CONTINUOUS
 62
    30
 10
-196.16992999999999
 20
-22.0
 30
0.0
 11
-196.16992999999999
 21
-34.0
 31
0.0
  0
TEXT
  5
F9
  8
SIZE
  6
CONTINUOUS
 62
    30
 10
-222.087425
 20
23.668711857142849
 30
0.0
 40
64.0
  1
10
 50
90.0
 41
0.9
 72
     1
 11
-222.087425
 21
64.811568999999992
 31
0.0
  0
LINE
  5
FA
  8
SIZE
  6
CONTINUOUS
 62
    30
 10
-196.16992999999999
 20
0.0
 30
0.0
 11
-196.16992999999999
 21
-10.0
 31
0.0
  0
LINE
  5
FB
  8
SIZE
  6
CONTINUOUS
 62
    30
 10
-196.16992999999999
 20
0.0
 30
0.0
 11
-196.16992999999999
 21
-10.0
 31
0.0
  0
CIRCLE
  5
FC
  8
SIZE
  6
CONTINUOUS
 62
    30
 10
-196.16992999999999
 20
0.0
 30
0.0
 40
6.0
  0
LINE
  5
FD
  8
SIZE
  6
CONTINUOUS
 62
    30
 10
-196.16992999999999
 20
0.0
 30
0.0
 11
-196.16992999999999
 21
12.0
 31
0.0
  0
CIRCLE
  5
FE
  8
SIZE
  6
CONTINUOUS
 62
    30
 10
-196.16992999999999
 20
-10.0
 30
0.0
 40
6.0
  0
LINE
  5
FF
  8
SIZE
  6
CONTINUOUS
 62
    30
 10
-196.16992999999999
 20
-10.0
 30
0.0
 11
-196.16992999999999
 21
-22.0
 31
0.0
  0
POINT
  5
100
  8
DEFPOINTS
  6
CONTINUOUS
 62
    30
 10
-105.5
 20
0.0
 30
0.0
  0
POINT
  5
101
  8
DEFPOINTS
  6
CONTINUOUS
 62
    30
 10
-103.056
 20
-10.0
 30
0.0
  0
POINT
  5
102
  8
DEFPOINTS
  6
CONTINUOUS
 62
    30
 10
-196.16992999999999
 20
-10.0
 30
0.0
  0
LINE
  5
103
  8
OUTLINE
  6
CONTINUOUS
 62
     3
 10
-103.056
 20
-10.0
 30
0.0
 11
103.056
 21
-10.0
 31
0.0
  0
LINE
  5
104
  8
OUTLINE
  6
CONTINUOUS
 62
     3
 10
-105.5
 20
0.0
 30
0.0
 11
105.5
 21
0.0
 31
0.0
  0
ARC
  5
105
  8
OUTLINE
  6
CONTINUOUS
 62
     3
 10
0.0
 20
-40.025871999999993
 30
0.0
 40
89.974128000000007
 50
177.11669499999999
 51
2.883305
  0
LINE
  5
106
  8
OUTLINE
  6
CONTINUOUS
 62
     3
 10
-73.5
 20
53.0
 30
0.0
 11
73.5
 21
53.0
 31
0.0
  0
LINE
  5
107
  8
OUTLINE
  6
CONTINUOUS
 62
     3
 10
-73.5
 20
0.0
 30
0.0
 11
-73.5
 21
53.0
 31
0.0
  0
LINE
  5
108
  8
OUTLINE
  6
CONTINUOUS
 62
     3
 10
-105.0
 20
0.0
 30
0.0
 11
-109.5
 21
0.0
 31
0.0
  0
LINE
  5
109
  8
OUTLINE
  6
CONTINUOUS
 62
     3
 10
-109.5
 20
0.0
 30
0.0
 11
-109.5
 21
-18.262478999999999
 31
0.0
  0
ARC
  5
10A
  8
OUTLINE
  6
CONTINUOUS
 62
     3
 10
-0.5
 20
244.151996
 30
0.0
 40
284.151996
 50
247.44329999999999
 51
251.64086
  0
LINE
  5
10B
  8
OUTLINE
  6
CONTINUOUS
 62
     3
 10
-105.5
 20
0.0
 30
0.0
 11
-105.5
 21
-7.556
 31
0.0
  0
ARC
  5
10C
  8
OUTLINE
  6
CONTINUOUS
 62
     3
 10
-103.056
 20
-7.556
 30
0.0
 40
2.4439999999999991
 50
180.0
 51
270.0
  0
LINE
  5
10D
  8
OUTLINE
  6
CONTINUOUS
 62
     3
 10
-90.0
 20
-10.0
 30
0.0
 11
-90.0
 21
-35.5
 31
0.0
  0
ARC
  5
10E
  8
OUTLINE
  6
CONTINUOUS
 62
     3
 10
0.5
 20
244.151996
 30
0.0
 40
284.151996
 50
288.35914000000002
 51
292.55669999999998
  0
LINE
  5
10F
  8
OUTLINE
  6
CONTINUOUS
 62
     3
 10
105.0
 20
0.0
 30
0.0
 11
109.5
 21
0.0
 31
0.0
  0
LINE
  5
110
  8
OUTLINE
  6
CONTINUOUS
 62
     3
 10
109.5
 20
0.0
 30
0.0
 11
109.5
 21
-18.262478999999999
 31
0.0
  0
LINE
  5
111
  8
OUTLINE
  6
CONTINUOUS
 62
     3
 10
105.5
 20
-7.556
 30
0.0
 11
105.5
 21
0.0
 31
0.0
  0
ARC
  5
112
  8
OUTLINE
  6
CONTINUOUS
 62
     3
 10
103.056
 20
-7.556
 30
0.0
 40
2.4439999999999991
 50
270.0
 51
0.0
  0
LINE
  5
113
  8
OUTLINE
  6
CONTINUOUS
 62
     3
 10
90.0
 20
-10.0
 30
0.0
 11
90.0
 21
-35.5
 31
0.0
  0
LINE
  5
114
  8
DETAIL
  6
CONTINUOUS
 62
     5
 10
73.5
 20
0.0
 30
0.0
 11
73.5
 21
53.0
 31
0.0
  0
LINE
  5
115
  8
OUTLINE
  6
CONTINUOUS
 62
     3
 10
73.5
 20
0.0
 30
0.0
 11
73.5
 21
53.0
 31
0.0
  0
LINE
  5
116
  8
SIZE
  6
CONTINUOUS
 62
    30
 39
50.0
 10
-196.16992999999999
 20
24.0
 30
0.0
 11
-196.16992999999999
 21
121.233155
 31
0.0
  0
ENDSEC
  0
EOF
