  0
SECTION
  2
HEADER
  9
$ACADVER
  1
AC1009
  9
$INSBASE
 10
0.0
 20
0.0
 30
0.0
  9
$EXTMIN
 10
-345.32289199999991
 20
-352.75166200000001
 30
0.0
  9
$EXTMAX
 10
896.16189227782695
 20
491.99238308113257
 30
50.0
  9
$LIMMIN
 10
-2970.0
 20
-2100.0
  9
$LIMMAX
 10
2970.0
 20
2100.0
  9
$ORTHOMODE
 70
     1
  9
$REGENMODE
 70
     0
  9
$FILLMODE
 70
     1
  9
$QTEXTMODE
 70
     0
  9
$MIRRTEXT
 70
     0
  9
$DRAGMODE
 70
     2
  9
$LTSCALE
 40
20.0
  9
$OSMODE
 70
    45
  9
$ATTMODE
 70
     1
  9
$TEXTSIZE
 40
64.0
  9
$TRACEWID
 40
0.05
  9
$TEXTSTYLE
  7
STANDARD
  9
$CLAYER
  8
OUTLINE
  9
$CELTYPE
  6
CONTINUOUS
  9
$CECOLOR
 62
     3
  9
$DIMSCALE
 40
1.0
  9
$DIMASZ
 40
12.0
  9
$DIMEXO
 40
20.0
  9
$DIMDLI
 40
200.0
  9
$DIMRND
 40
0.0
  9
$DIMDLE
 40
0.0
  9
$DIMEXE
 40
20.0
  9
$DIMTP
 40
0.0
  9
$DIMTM
 40
0.0
  9
$DIMTXT
 40
64.0
  9
$DIMCEN
 40
0.09
  9
$DIMTSZ
 40
0.0
  9
$DIMTOL
 70
     0
  9
$DIMLIM
 70
     0
  9
$DIMTIH
 70
     0
  9
$DIMTOH
 70
     0
  9
$DIMSE1
 70
     0
  9
$DIMSE2
 70
     0
  9
$DIMTAD
 70
     1
  9
$DIMZIN
 70
     8
  9
$DIMBLK
  1

  9
$DIMASO
 70
     1
  9
$DIMSHO
 70
     0
  9
$DIMPOST
  1

  9
$DIMAPOST
  1

  9
$DIMALT
 70
     0
  9
$DIMALTD
 70
     2
  9
$DIMALTF
 40
25.399999999999999
  9
$DIMLFAC
 40
1.0
  9
$DIMTOFL
 70
     1
  9
$DIMTVP
 40
0.0
  9
$DIMTIX
 70
     1
  9
$DIMSOXD
 70
     0
  9
$DIMSAH
 70
     1
  9
$DIMBLK1
  1
ORIGIN
  9
$DIMBLK2
  1
ORIGIN
  9
$DIMSTYLE
  2
STANDARD
  9
$DIMCLRD
 70
   256
  9
$DIMCLRE
 70
   256
  9
$DIMCLRT
 70
     7
  9
$DIMTFAC
 40
1.0
  9
$DIMGAP
 40
20.0
  9
$LUNITS
 70
     2
  9
$LUPREC
 70
     4
  9
$SKETCHINC
 40
0.1
  9
$FILLETRAD
 40
4.0
  9
$AUNITS
 70
     1
  9
$AUPREC
 70
     3
  9
$MENU
  1
ACAD
  9
$ELEVATION
 40
0.0
  9
$PELEVATION
 40
0.0
  9
$THICKNESS
 40
50.0
  9
$LIMCHECK
 70
     0
  9
$BLIPMODE
 70
     0
  9
$CHAMFERA
 40
0.0
  9
$CHAMFERB
 40
0.0
  9
$SKPOLY
 70
     0
  9
$TDCREATE
 40
2452992.5948926159
  9
$TDUPDATE
 40
2453465.3904056251
  9
$TDINDWG
 40
0.0508322917
  9
$TDUSRTIMER
 40
0.0508322917
  9
$USRTIMER
 70
     1
  9
$ANGBASE
 50
0.0
  9
$ANGDIR
 70
     0
  9
$PDMODE
 70
     3
  9
$PDSIZE
 40
-2.0
  9
$PLINEWID
 40
0.0
  9
$COORDS
 70
     2
  9
$SPLFRAME
 70
     0
  9
$SPLINETYPE
 70
     6
  9
$SPLINESEGS
 70
     8
  9
$ATTDIA
 70
     0
  9
$ATTREQ
 70
     1
  9
$HANDLING
 70
 22529
  9
$HANDSEED
  5
296
  9
$SURFTAB1
 70
     6
  9
$SURFTAB2
 70
     6
  9
$SURFTYPE
 70
     6
  9
$SURFU
 70
     6
  9
$SURFV
 70
     6
  9
$UCSNAME
  2

  9
$UCSORG
 10
0.0
 20
0.0
 30
0.0
  9
$UCSXDIR
 10
1.0
 20
0.0
 30
0.0
  9
$UCSYDIR
 10
0.0
 20
1.0
 30
0.0
  9
$PUCSNAME
  2

  9
$PUCSORG
 10
0.0
 20
0.0
 30
0.0
  9
$PUCSXDIR
 10
1.0
 20
0.0
 30
0.0
  9
$PUCSYDIR
 10
0.0
 20
1.0
 30
0.0
  9
$USERI1
 70
     0
  9
$USERI2
 70
     0
  9
$USERI3
 70
     0
  9
$USERI4
 70
     0
  9
$USERI5
 70
     0
  9
$USERR1
 40
20.0
  9
$USERR2
 40
0.0
  9
$USERR3
 40
0.0
  9
$USERR4
 40
0.0
  9
$USERR5
 40
0.0
  9
$WORLDVIEW
 70
     1
  9
$SHADEDGE
 70
     3
  9
$SHADEDIF
 70
    70
  9
$TILEMODE
 70
     1
  9
$MAXACTVP
 70
    48
  9
$PLIMCHECK
 70
     0
  9
$PEXTMIN
 10
-1.0000000000000000E+020
 20
-1.0000000000000000E+020
 30
-1.0000000000000000E+020
  9
$PEXTMAX
 10
1.0000000000000000E+020
 20
1.0000000000000000E+020
 30
1.0000000000000000E+020
  9
$PLIMMIN
 10
0.0
 20
0.0
  9
$PLIMMAX
 10
12.0
 20
9.0
  9
$UNITMODE
 70
     0
  9
$VISRETAIN
 70
     0
  9
$PLINEGEN
 70
     0
  9
$PSLTSCALE
 70
     0
  0
ENDSEC
  0
SECTION
  2
TABLES
  0
TABLE
  2
VPORT
 70
     3
  0
VPORT
  2
*ACTIVE
 70
     0
 10
0.0
 20
0.0
 11
1.0
 21
1.0
 12
270.86384046386843
 22
47.962086927253488
 13
0.0
 23
0.0
 14
1.0
 24
1.0
 15
0.0
 25
0.0
 16
0.0
 26
0.0
 36
1.0
 17
0.0
 27
0.0
 37
0.0
 40
939.51817590481278
 41
1.4423558897243101
 42
50.0
 43
0.0
 44
0.0
 50
0.0
 51
0.0
 71
     0
 72
  1000
 73
     1
 74
     0
 75
     0
 76
     0
 77
     0
 78
     0
  0
ENDTAB
  0
TABLE
  2
LTYPE
 70
     2
  0
LTYPE
  2
CONTINUOUS
 70
     0
  3
実線
 72
    65
 73
     0
 40
0.0
  0
LTYPE
  2
DASHDOT
 70
     0
  3
____ _ ____ _ ____ _ ____ _ ____ _ ____ _ ____
 72
    65
 73
     4
 40
5.5
 49
4.0
 49
-0.6
 49
0.3
 49
-0.6
  0
ENDTAB
  0
TABLE
  2
LAYER
 70
    12
  0
LAYER
  2
0
 70
     0
 62
     7
  6
CONTINUOUS
  0
LAYER
  2
SIZE
 70
     0
 62
    30
  6
CONTINUOUS
  0
LAYER
  2
BASIS
 70
     0
 62
     6
  6
DASHDOT
  0
LAYER
  2
OUTLINE
 70
     0
 62
     3
  6
CONTINUOUS
  0
LAYER
  2
DETAIL
 70
     0
 62
     5
  6
CONTINUOUS
  0
LAYER
  2
ARRANGE
 70
     0
 62
     1
  6
CONTINUOUS
  0
LAYER
  2
DEFPOINTS
 70
     0
 62
     7
  6
CONTINUOUS
  0
LAYER
  2
ETC
 70
     0
 62
    61
  6
CONTINUOUS
  0
LAYER
  2
FIX
 70
     0
 62
    11
  6
CONTINUOUS
  0
LAYER
  2
NOTE
 70
     0
 62
     4
  6
CONTINUOUS
  0
LAYER
  2
SERVICESPACE
 70
     0
 62
     2
  6
DASHDOT
  0
LAYER
  2
SYMBOLLINE
 70
     0
 62
    15
  6
CONTINUOUS
  0
ENDTAB
  0
TABLE
  2
STYLE
 70
     1
  0
STYLE
  2
STANDARD
 70
     0
 40
64.0
 41
0.9
 50
0.0
 71
     0
 42
64.0
  3
SIMPLEX.shx
  4
BIGFONT.shx
  0
ENDTAB
  0
TABLE
  2
VIEW
 70
     1
  0
VIEW
  2
ALL
 70
     0
 40
4282.6198079999976
 10
0.0
 20
41.309903999999989
 41
5940.0
 11
0.0
 21
0.0
 31
1.0
 12
0.0
 22
0.0
 32
0.0
 42
50.0
 43
0.0
 44
0.0
 50
0.0
 71
     0
  0
ENDTAB
  0
TABLE
  2
UCS
 70
     0
  0
ENDTAB
  0
TABLE
  2
APPID
 70
     2
  0
APPID
  2
ACAD
 70
     0
  0
APPID
  2
AUTOCAD_POSTSCRIPT_FIGURE
 70
     0
  0
ENDTAB
  0
TABLE
  2
DIMSTYLE
 70
     1
  0
DIMSTYLE
  2
STANDARD
 70
     0
  3

  4

  5

  6

  7

 40
1.0
 41
0.18
 42
0.0625
 43
0.38
 44
0.18
 45
0.0
 46
0.0
 47
0.0
 48
0.0
140
0.18
141
0.09
142
0.0
143
25.399999999999999
144
1.0
145
0.0
146
1.0
147
0.09
 71
     0
 72
     0
 73
     1
 74
     1
 75
     0
 76
     0
 77
     0
 78
     0
170
     0
171
     2
172
     0
173
     0
174
     0
175
     0
176
     7
177
     7
178
     7
  0
ENDTAB
  0
ENDSEC
  0
SECTION
  2
BLOCKS
  0
BLOCK
  8
0
  2
$MODEL_SPACE
 70
     0
 10
0.0
 20
0.0
 30
0.0
  3
$MODEL_SPACE
  1

  0
ENDBLK
  5
17B
  8
0
  0
BLOCK
 67
     1
  8
0
  2
$PAPER_SPACE
 70
     0
 10
0.0
 20
0.0
 30
0.0
  3
$PAPER_SPACE
  1

  0
ENDBLK
  5
177
 67
     1
  8
0
  0
BLOCK
  8
0
  2
DOT1
 70
     0
 10
0.0
 20
0.0
 30
0.0
  3
DOT1
  1

  0
CIRCLE
  5
197
  8
SIZE
  6
CONTINUOUS
 62
     7
 10
0.0
 20
0.0
 30
0.0
 40
3.0
  0
ENDBLK
  5
198
  8
0
  0
BLOCK
  8
0
  2
_ORIGIN
 70
     0
 10
0.0
 20
0.0
 30
0.0
  3
_ORIGIN
  1

  0
CIRCLE
  5
19B
  8
0
  6
CONTINUOUS
 62
     7
 10
0.0
 20
0.0
 30
0.0
 40
0.5
  0
LINE
  5
19C
  8
0
  6
CONTINUOUS
 62
     7
 10
0.0
 20
0.0
 30
0.0
 11
-1.0
 21
0.0
 31
0.0
  0
ENDBLK
  5
19D
  8
0
  0
BLOCK
  8
0
 62
    30
  2
_OPEN30
 70
     0
 10
0.0
 20
0.0
 30
0.0
  3
_OPEN30
  1

  0
LINE
  5
1A0
  8
0
  6
BYBLOCK
 62
     0
 10
-1.0
 20
0.26794919
 30
0.0
 11
0.0
 21
0.0
 31
0.0
  0
LINE
  5
1A1
  8
0
  6
BYBLOCK
 62
     0
 10
0.0
 20
0.0
 30
0.0
 11
-1.0
 21
-0.26794919
 31
0.0
  0
LINE
  5
1A2
  8
0
  6
BYBLOCK
 62
     0
 10
0.0
 20
0.0
 30
0.0
 11
-1.0
 21
0.0
 31
0.0
  0
ENDBLK
  5
1A3
  8
0
 62
    30
  0
BLOCK
  8
0
 62
    30
  2
*D5
 70
     1
 10
0.0
 20
0.0
 30
0.0
  3
*D5
  1

  0
LINE
  5
1A6
  8
SIZE
  6
CONTINUOUS
 62
     7
 10
93.499999999999986
 20
51.999999999999993
 30
0.0
 11
307.78514100000001
 21
51.999999999999929
 31
0.0
  0
LINE
  5
1A7
  8
SIZE
  6
CONTINUOUS
 62
     7
 10
149.0
 20
-0.0000000000000057
 30
0.0
 11
307.78514100000001
 21
-0.0000000000000506
 31
0.0
  0
LINE
  5
1A8
  8
SIZE
  6
CONTINUOUS
 62
     7
 10
287.78514100000001
 20
63.999999999999943
 30
0.0
 11
287.78514100000001
 21
75.999999999999929
 31
0.0
  0
LINE
  5
1A9
  8
SIZE
  6
CONTINUOUS
 62
     7
 10
287.78514100000001
 20
-12.00000000000003
 30
0.0
 11
287.78514100000001
 21
-24.000000000000028
 31
0.0
  0
LINE
  5
1AA
  8
SIZE
  6
CONTINUOUS
 62
     7
 10
287.78514100000001
 20
51.999999999999929
 30
0.0
 11
287.78514100000001
 21
-0.000000000000045
 31
0.0
  0
INSERT
  5
1AB
  8
SIZE
  6
CONTINUOUS
 62
     7
  2
_ORIGIN
 10
287.78514100000001
 20
51.999999999999929
 30
0.0
 41
12.0
 42
12.0
 43
12.0
 50
270.0
  0
INSERT
  5
1AC
  8
SIZE
  6
CONTINUOUS
 62
     7
  2
_ORIGIN
 10
287.78514100000001
 20
-0.000000000000045
 30
0.0
 41
12.0
 42
12.0
 43
12.0
 50
90.0
  0
TEXT
  5
1AD
  8
SIZE
  6
CONTINUOUS
 62
     7
 10
267.78514100000001
 20
-20.628571428571401
 30
0.0
 40
64.0
  1
52
 50
90.0
 41
0.9
  0
POINT
  5
1AE
  8
DEFPOINTS
  6
CONTINUOUS
 62
     0
 10
73.500000000000014
 20
52.0
 30
0.0
  0
POINT
  5
1AF
  8
DEFPOINTS
  6
CONTINUOUS
 62
     0
 10
129.0
 20
0.0
 30
0.0
  0
POINT
  5
1B0
  8
DEFPOINTS
  6
CONTINUOUS
 62
     0
 10
287.78514100000001
 20
-0.000000000000045
 30
0.0
  0
ENDBLK
  5
1B1
  8
0
 62
    30
  0
BLOCK
  8
0
 62
    30
  2
*D6
 70
     1
 10
0.0
 20
0.0
 30
0.0
  3
*D6
  1

  0
LINE
  5
1B4
  8
SIZE
  6
CONTINUOUS
 62
     7
 10
93.499999999999986
 20
51.999999999999993
 30
0.0
 11
307.02786291287651
 21
51.999999999999929
 31
0.0
  0
LINE
  5
1B5
  8
SIZE
  6
CONTINUOUS
 62
     7
 10
129.0
 20
-0.0000000000000057
 30
0.0
 11
307.02786291287651
 21
-0.0000000000000561
 31
0.0
  0
LINE
  5
1B6
  8
SIZE
  6
CONTINUOUS
 62
     7
 10
287.02786291287651
 20
63.999999999999943
 30
0.0
 11
287.02786291287651
 21
75.999999999999929
 31
0.0
  0
LINE
  5
1B7
  8
SIZE
  6
CONTINUOUS
 62
     7
 10
287.02786291287651
 20
-12.00000000000005
 30
0.0
 11
287.02786291287651
 21
-24.00000000000005
 31
0.0
  0
LINE
  5
1B8
  8
SIZE
  6
CONTINUOUS
 62
     7
 10
287.02786291287651
 20
51.999999999999929
 30
0.0
 11
287.02786291287651
 21
-0.0000000000000504
 31
0.0
  0
INSERT
  5
1B9
  8
SIZE
  6
CONTINUOUS
 62
     7
  2
_ORIGIN
 10
287.02786291287651
 20
51.999999999999929
 30
0.0
 41
12.0
 42
12.0
 43
12.0
 50
270.0
  0
INSERT
  5
1BA
  8
SIZE
  6
CONTINUOUS
 62
     7
  2
_ORIGIN
 10
287.02786291287651
 20
-0.0000000000000504
 30
0.0
 41
12.0
 42
12.0
 43
12.0
 50
90.0
  0
TEXT
  5
1BB
  8
SIZE
  6
CONTINUOUS
 62
     7
 10
267.0278629128764
 20
-20.628571428571409
 30
0.0
 40
64.0
  1
52
 50
90.0
 41
0.9
  0
POINT
  5
1BC
  8
DEFPOINTS
  6
CONTINUOUS
 62
     0
 10
73.500000000000014
 20
52.0
 30
0.0
  0
POINT
  5
1BD
  8
DEFPOINTS
  6
CONTINUOUS
 62
     0
 10
109.0
 20
0.0
 30
0.0
  0
POINT
  5
1BE
  8
DEFPOINTS
  6
CONTINUOUS
 62
     0
 10
287.02786291287651
 20
-0.0000000000000504
 30
0.0
  0
ENDBLK
  5
1BF
  8
0
 62
    30
  0
BLOCK
  8
0
 62
    30
  2
*D7
 70
     1
 10
0.0
 20
0.0
 30
0.0
  3
*D7
  1

  0
LINE
  5
1C2
  8
SIZE
  6
CONTINUOUS
 62
     7
 10
93.499999999999957
 20
51.999999999999993
 30
0.0
 11
308.34816419855451
 21
51.999999999999922
 31
0.0
  0
LINE
  5
1C3
  8
SIZE
  6
CONTINUOUS
 62
     7
 10
129.0
 20
-0.0000000000000057
 30
0.0
 11
308.34816419855451
 21
-0.0000000000000565
 31
0.0
  0
LINE
  5
1C4
  8
SIZE
  6
CONTINUOUS
 62
     7
 10
288.34816419855451
 20
63.999999999999943
 30
0.0
 11
288.34816419855451
 21
75.999999999999929
 31
0.0
  0
LINE
  5
1C5
  8
SIZE
  6
CONTINUOUS
 62
     7
 10
288.34816419855451
 20
-12.00000000000005
 30
0.0
 11
288.34816419855451
 21
-24.00000000000005
 31
0.0
  0
LINE
  5
1C6
  8
SIZE
  6
CONTINUOUS
 62
     7
 10
288.34816419855451
 20
51.999999999999929
 30
0.0
 11
288.34816419855451
 21
-0.0000000000000508
 31
0.0
  0
INSERT
  5
1C7
  8
SIZE
  6
CONTINUOUS
 62
     7
  2
_ORIGIN
 10
288.34816419855451
 20
51.999999999999929
 30
0.0
 41
12.0
 42
12.0
 43
12.0
 50
270.0
  0
INSERT
  5
1C8
  8
SIZE
  6
CONTINUOUS
 62
     7
  2
_ORIGIN
 10
288.34816419855451
 20
-0.0000000000000508
 30
0.0
 41
12.0
 42
12.0
 43
12.0
 50
90.0
  0
TEXT
  5
1C9
  8
SIZE
  6
CONTINUOUS
 62
     7
 10
268.3481641985544
 20
-20.628571428571409
 30
0.0
 40
64.0
  1
52
 50
90.0
 41
0.9
  0
POINT
  5
1CA
  8
DEFPOINTS
  6
CONTINUOUS
 62
     0
 10
73.499999999999972
 20
51.999999999999993
 30
0.0
  0
POINT
  5
1CB
  8
DEFPOINTS
  6
CONTINUOUS
 62
     0
 10
109.0
 20
0.0
 30
0.0
  0
POINT
  5
1CC
  8
DEFPOINTS
  6
CONTINUOUS
 62
     0
 10
288.34816419855451
 20
-0.0000000000000508
 30
0.0
  0
ENDBLK
  5
1CD
  8
0
 62
    30
  0
BLOCK
  8
0
 62
    30
  2
*D8
 70
     1
 10
0.0
 20
0.0
 30
0.0
  3
*D8
  1

  0
LINE
  5
1D0
  8
SIZE
  6
CONTINUOUS
 10
93.499999999999957
 20
51.999999999999993
 30
0.0
 11
308.34816419855451
 21
51.999999999999922
 31
0.0
  0
LINE
  5
1D1
  8
SIZE
  6
CONTINUOUS
 10
129.0
 20
-0.0000000000000057
 30
0.0
 11
308.34816419855451
 21
-0.0000000000000565
 31
0.0
  0
LINE
  5
1D2
  8
SIZE
  6
CONTINUOUS
 10
288.34816419855451
 20
63.999999999999943
 30
0.0
 11
288.34816419855451
 21
75.999999999999929
 31
0.0
  0
LINE
  5
1D3
  8
SIZE
  6
CONTINUOUS
 10
288.34816419855451
 20
-12.00000000000005
 30
0.0
 11
288.34816419855451
 21
-24.00000000000005
 31
0.0
  0
LINE
  5
1D4
  8
SIZE
  6
CONTINUOUS
 10
288.34816419855451
 20
51.999999999999929
 30
0.0
 11
288.34816419855451
 21
-0.0000000000000508
 31
0.0
  0
INSERT
  5
1D5
  8
SIZE
  6
CONTINUOUS
  2
_ORIGIN
 10
288.34816419855451
 20
51.999999999999929
 30
0.0
 41
12.0
 42
12.0
 43
12.0
 50
270.0
  0
INSERT
  5
1D6
  8
SIZE
  6
CONTINUOUS
  2
_ORIGIN
 10
288.34816419855451
 20
-0.0000000000000508
 30
0.0
 41
12.0
 42
12.0
 43
12.0
 50
90.0
  0
TEXT
  5
1D7
  8
SIZE
  6
CONTINUOUS
 62
     7
 10
268.3481641985544
 20
-20.628571428571409
 30
0.0
 40
64.0
  1
52
 50
90.0
 41
0.9
  0
POINT
  5
1D8
  8
DEFPOINTS
  6
CONTINUOUS
 62
     0
 10
73.499999999999972
 20
51.999999999999993
 30
0.0
  0
POINT
  5
1D9
  8
DEFPOINTS
  6
CONTINUOUS
 62
     0
 10
109.0
 20
0.0
 30
0.0
  0
POINT
  5
1DA
  8
DEFPOINTS
  6
CONTINUOUS
 62
     0
 10
288.34816419855451
 20
-0.0000000000000508
 30
0.0
  0
ENDBLK
  5
1DB
  8
0
 62
    30
  0
ENDSEC
  0
SECTION
  2
ENTITIES
  0
LINE
  5
1DC
  8
DETAIL
  6
CONTINUOUS
 62
     5
 10
-89.500000000000014
 20
-25.536912000000001
 30
0.0
 11
-89.500000000000014
 21
-35.5
 31
0.0
  0
LINE
  5
1DE
  8
DETAIL
  6
CONTINUOUS
 62
     5
 10
-73.5
 20
0.0
 30
0.0
 11
-73.499999999999986
 21
51.999999999999993
 31
0.0
  0
LINE
  5
1DF
  8
DETAIL
  6
CONTINUOUS
 62
     5
 10
73.5
 20
0.0
 30
0.0
 11
73.500000000000014
 21
52.0
 31
0.0
  0
LINE
  5
1E0
  8
DETAIL
  6
CONTINUOUS
 62
     5
 10
-104.4999999999999
 20
0.0
 30
0.0
 11
104.4999999999999
 21
0.0
 31
0.0
  0
LINE
  5
1E1
  8
BASIS
  6
DASHDOT
 62
     6
 10
0.0
 20
99.465151000000006
 30
0.0
 11
0.0
 21
-177.1135119999999
 31
0.0
  0
POINT
  5
1E2
  8
ARRANGE
  6
CONTINUOUS
 62
     1
 10
0.0
 20
0.0
 30
0.0
  0
CIRCLE
  5
1E3
  8
ARRANGE
  6
CONTINUOUS
 62
     1
 10
0.0
 20
0.0
 30
0.0
 40
40.0
  0
ARC
  5
1E4
  8
DETAIL
  6
CONTINUOUS
 62
     5
 10
0.0
 20
-40.499999999999993
 30
0.0
 40
89.500000000000014
 50
176.79745099999991
 51
0.3200898187202838
  0
LINE
  5
1E5
  8
DETAIL
  6
CONTINUOUS
 62
     5
 10
-109.0
 20
0.0
 30
0.0
 11
-109.0
 21
-18.262478999999999
 31
0.0
  0
LINE
  5
1E7
  8
DETAIL
  6
CONTINUOUS
 62
     5
 10
-104.4999999999999
 20
0.0
 30
0.0
 11
-109.0
 21
0.0
 31
0.0
  0
ARC
  5
1E9
  8
DETAIL
  6
CONTINUOUS
 62
     5
 10
0.0
 20
244.15199599999991
 30
0.0
 40
284.15199599999988
 50
247.44329999999991
 51
270.0
  0
ARC
  5
1EA
  8
DETAIL
  6
CONTINUOUS
 62
     5
 10
0.0
 20
244.15199599999991
 30
0.0
 40
284.15199599999988
 50
270.0
 51
292.55669999999998
  0
LINE
  5
1EB
  8
SIZE
  6
CONTINUOUS
 62
    30
 10
89.500000000000014
 20
-60.5
 30
0.0
 11
89.500000000000014
 21
-323.1949249999999
 31
0.0
  0
LINE
  5
1EC
  8
SIZE
  6
CONTINUOUS
 62
    30
 10
-89.500000000000014
 20
-60.5
 30
0.0
 11
-89.500000000000014
 21
-323.1949249999999
 31
0.0
  0
LINE
  5
1ED
  8
SIZE
  6
CONTINUOUS
 62
    30
 10
77.5
 20
-303.19492500000001
 30
0.0
 11
-77.5
 21
-303.19492500000001
 31
0.0
  0
LINE
  5
1EE
  8
SIZE
  6
CONTINUOUS
 62
    30
 10
-345.32289199999991
 20
-303.19492500000001
 30
0.0
 11
-89.500000000000014
 21
-303.19492500000001
 31
0.0
  0
TEXT
  5
1EF
  8
SIZE
  6
CONTINUOUS
 62
    30
 10
-334.58574900000002
 20
-278.19492500000001
 30
0.0
 40
64.0
  1
φ179
 41
0.9
 72
     1
 11
-227.06574900000001
 21
-278.19492500000001
 31
0.0
  0
CIRCLE
  5
1F0
  8
SIZE
  6
CONTINUOUS
 62
    30
 10
89.500000000000014
 20
-303.19492500000001
 30
0.0
 40
6.0
  0
LINE
  5
1F1
  8
SIZE
  6
CONTINUOUS
 62
    30
 10
89.500000000000014
 20
-303.19492500000001
 30
0.0
 11
77.5
 21
-303.19492500000001
 31
0.0
  0
CIRCLE
  5
1F2
  8
SIZE
  6
CONTINUOUS
 62
    30
 10
-89.500000000000014
 20
-303.19492500000001
 30
0.0
 40
6.0
  0
LINE
  5
1F3
  8
SIZE
  6
CONTINUOUS
 62
    30
 10
-89.500000000000014
 20
-303.19492500000001
 30
0.0
 11
-77.5
 21
-303.19492500000001
 31
0.0
  0
POINT
  5
1F5
  8
DEFPOINTS
  6
CONTINUOUS
 62
    30
 10
-89.500000000000014
 20
-40.499999999999993
 30
0.0
  0
POINT
  5
1F6
  8
DEFPOINTS
  6
CONTINUOUS
 62
    30
 10
-89.500000000000014
 20
-303.19492500000001
 30
0.0
  0
LINE
  5
1F7
  8
SIZE
  6
CONTINUOUS
 62
    30
 10
-129.0
 20
0.0
 30
0.0
 11
-213.4413209999999
 21
0.0
 31
0.0
  0
LINE
  5
1F8
  8
SIZE
  6
CONTINUOUS
 62
    30
 10
-20.0
 20
-40.0
 30
0.0
 11
-213.4413209999999
 21
-40.0
 31
0.0
  0
LINE
  5
1F9
  8
SIZE
  6
CONTINUOUS
 62
    30
 10
-193.4413209999999
 20
12.0
 30
0.0
 11
-193.4413209999999
 21
24.0
 31
0.0
  0
LINE
  5
1FA
  8
SIZE
  6
CONTINUOUS
 62
    30
 10
-193.4413209999999
 20
-52.0
 30
0.0
 11
-193.4413209999999
 21
-64.0
 31
0.0
  0
LINE
  5
1FB
  8
SIZE
  6
CONTINUOUS
 62
    30
 10
-193.4413209999999
 20
0.0
 30
0.0
 11
-193.4413209999999
 21
-40.0
 31
0.0
  0
CIRCLE
  5
1FC
  8
SIZE
  6
CONTINUOUS
 62
    30
 10
-193.4413209999999
 20
0.0
 30
0.0
 40
6.0
  0
LINE
  5
1FD
  8
SIZE
  6
CONTINUOUS
 62
    30
 10
-193.4413209999999
 20
0.0
 30
0.0
 11
-193.4413209999999
 21
12.0
 31
0.0
  0
CIRCLE
  5
1FE
  8
SIZE
  6
CONTINUOUS
 62
    30
 10
-193.4413209999999
 20
-40.0
 30
0.0
 40
6.0
  0
LINE
  5
1FF
  8
SIZE
  6
CONTINUOUS
 62
    30
 10
-193.4413209999999
 20
-40.0
 30
0.0
 11
-193.4413209999999
 21
-52.0
 31
0.0
  0
TEXT
  5
200
  8
SIZE
  6
CONTINUOUS
 62
    30
 10
-218.4413209999999
 20
-66.628571428571405
 30
0.0
 40
64.0
  1
40
 50
90.0
 41
0.9
 72
     1
 11
-218.4413209999999
 21
-20.0
 31
0.0
  0
POINT
  5
201
  8
DEFPOINTS
  6
CONTINUOUS
 62
    30
 10
-109.0
 20
0.0
 30
0.0
  0
POINT
  5
202
  8
DEFPOINTS
  6
CONTINUOUS
 62
    30
 10
0.0
 20
-40.0
 30
0.0
  0
POINT
  5
203
  8
DEFPOINTS
  6
CONTINUOUS
 62
    30
 10
-193.4413209999999
 20
-40.0
 30
0.0
  0
LINE
  5
204
  8
SIZE
  6
CONTINUOUS
 62
    30
 10
129.0
 20
0.0
 30
0.0
 11
307.78514100000001
 21
0.0
 31
0.0
  0
LINE
  5
205
  8
SIZE
  6
CONTINUOUS
 62
    30
 10
20.0
 20
-130.0
 30
0.0
 11
307.78514100000001
 21
-130.0
 31
0.0
  0
LINE
  5
206
  8
SIZE
  6
CONTINUOUS
 62
    30
 10
288.34816419855451
 20
-12.0
 30
0.0
 11
288.34816419855451
 21
-118.0
 31
0.0
  0
LINE
  5
207
  8
SIZE
  6
CONTINUOUS
 62
    30
 10
287.78514100000001
 20
-352.75166200000001
 30
0.0
 11
287.78514100000001
 21
-130.0
 31
0.0
  0
TEXT
  5
208
  8
SIZE
  6
CONTINUOUS
 62
    30
 10
262.78514100000001
 20
-327.75166157142837
 30
0.0
 40
64.0
  1
130
 50
90.0
 41
0.9
 72
     1
 11
262.78514100000001
 21
-259.18023299999982
 31
0.0
  0
CIRCLE
  5
209
  8
SIZE
  6
CONTINUOUS
 62
    30
 10
287.78514100000001
 20
0.0
 30
0.0
 40
6.0
  0
LINE
  5
20A
  8
SIZE
  6
CONTINUOUS
 62
    30
 10
287.78514100000001
 20
0.0
 30
0.0
 11
287.78514100000001
 21
-12.0
 31
0.0
  0
CIRCLE
  5
20B
  8
SIZE
  6
CONTINUOUS
 62
    30
 10
287.78514100000001
 20
-130.0
 30
0.0
 40
6.0
  0
LINE
  5
20C
  8
SIZE
  6
CONTINUOUS
 62
    30
 10
287.78514100000001
 20
-130.0
 30
0.0
 11
287.78514100000001
 21
-118.0
 31
0.0
  0
POINT
  5
20E
  8
DEFPOINTS
  6
CONTINUOUS
 62
    30
 10
0.0
 20
-130.0
 30
0.0
  0
POINT
  5
20F
  8
DEFPOINTS
  6
CONTINUOUS
 62
    30
 10
287.78514100000001
 20
-130.0
 30
0.0
  0
LINE
  5
210
  8
SIZE
  6
CONTINUOUS
 62
    30
 10
129.0
 20
0.0
 30
0.0
 11
307.78514100000001
 21
0.0
 31
0.0
  0
TEXT
  5
211
  8
SIZE
  6
CONTINUOUS
 62
    30
 10
262.78514100000001
 20
95.484673571428445
 30
0.0
 40
64.0
  1
52
 50
90.0
 41
0.9
 72
     1
 11
262.78514100000001
 21
142.11324499999981
 31
0.0
  0
CIRCLE
  5
212
  8
SIZE
  6
CONTINUOUS
 62
    30
 10
287.78514100000001
 20
0.0
 30
0.0
 40
6.0
  0
LINE
  5
213
  8
SIZE
  6
CONTINUOUS
 62
    30
 10
287.78514100000001
 20
0.0
 30
0.0
 11
287.78514100000001
 21
-12.0
 31
0.0
  0
POINT
  5
215
  8
DEFPOINTS
  6
CONTINUOUS
 62
    30
 10
73.5
 20
51.0
 30
0.0
  0
LINE
  5
216
  8
SIZE
  6
CONTINUOUS
 62
    30
 10
73.5
 20
71.0
 30
0.0
 11
73.5
 21
161.667485
 31
0.0
  0
LINE
  5
217
  8
SIZE
  6
CONTINUOUS
 62
    30
 10
-73.5
 20
71.0
 30
0.0
 11
-73.5
 21
161.667485
 31
0.0
  0
LINE
  5
218
  8
SIZE
  6
CONTINUOUS
 62
    30
 10
73.5
 20
141.66748499999991
 30
0.0
 11
-73.5
 21
141.66748499999991
 31
0.0
  0
CIRCLE
  5
219
  8
SIZE
  6
CONTINUOUS
 62
    30
 10
73.5
 20
141.66748499999991
 30
0.0
 40
6.0
  0
CIRCLE
  5
21A
  8
SIZE
  6
CONTINUOUS
 62
    30
 10
-73.5
 20
141.66748499999991
 30
0.0
 40
6.0
  0
TEXT
  5
21B
  8
SIZE
  6
CONTINUOUS
 62
    30
 10
-108.89142857142851
 20
166.66748499999991
 30
0.0
 40
64.0
  1
φ147
 41
0.9
 72
     1
 11
0.0
 21
166.66748499999991
 31
0.0
  0
POINT
  5
21C
  8
DEFPOINTS
  6
CONTINUOUS
 62
    30
 10
73.5
 20
51.0
 30
0.0
  0
POINT
  5
21D
  8
DEFPOINTS
  6
CONTINUOUS
 62
    30
 10
-73.5
 20
51.0
 30
0.0
  0
POINT
  5
21E
  8
DEFPOINTS
  6
CONTINUOUS
 62
    30
 10
-73.5
 20
141.66748499999991
 30
0.0
  0
LINE
  5
21F
  8
SIZE
  6
CONTINUOUS
 62
    30
 10
109.0
 20
20.0
 30
0.0
 11
109.0
 21
291.7159769999999
 31
0.0
  0
LINE
  5
220
  8
SIZE
  6
CONTINUOUS
 62
    30
 10
-109.0
 20
20.0
 30
0.0
 11
-109.0
 21
291.7159769999999
 31
0.0
  0
LINE
  5
221
  8
SIZE
  6
CONTINUOUS
 62
    30
 10
97.0
 20
271.71597700000001
 30
0.0
 11
-97.0
 21
271.71597700000001
 31
0.0
  0
CIRCLE
  5
222
  8
SIZE
  6
CONTINUOUS
 62
    30
 10
109.0
 20
271.71597700000001
 30
0.0
 40
6.0
  0
LINE
  5
223
  8
SIZE
  6
CONTINUOUS
 62
    30
 10
109.0
 20
271.71597700000001
 30
0.0
 11
97.0
 21
271.71597700000001
 31
0.0
  0
CIRCLE
  5
224
  8
SIZE
  6
CONTINUOUS
 62
    30
 10
-109.0
 20
271.71597700000001
 30
0.0
 40
6.0
  0
LINE
  5
225
  8
SIZE
  6
CONTINUOUS
 62
    30
 10
-109.0
 20
271.71597700000001
 30
0.0
 11
-97.0
 21
271.71597700000001
 31
0.0
  0
TEXT
  5
226
  8
SIZE
  6
CONTINUOUS
 62
    30
 10
-68.571428571428555
 20
296.71597700000001
 30
0.0
 40
64.0
  1
218
 41
0.9
 72
     1
 11
0.0
 21
296.71597700000001
 31
0.0
  0
POINT
  5
228
  8
DEFPOINTS
  6
CONTINUOUS
 62
    30
 10
-109.0
 20
0.0
 30
0.0
  0
POINT
  5
229
  8
DEFPOINTS
  6
CONTINUOUS
 62
    30
 10
-109.0
 20
271.71597700000001
 30
0.0
  0
ARC
  5
22A
  8
DETAIL
  6
CONTINUOUS
 62
     5
 10
-26.235534000000001
 20
-56.045614999999991
 30
0.0
 40
48.32268899999999
 50
149.80639199999999
 51
179.7054179999999
  0
ARC
  5
22B
  8
DETAIL
  6
CONTINUOUS
 62
     5
 10
-58.299563999999997
 20
-58.814788
 30
0.0
 40
16.535695999999991
 50
169.48509999999979
 51
201.96571800000001
  0
ARC
  5
22C
  8
DETAIL
  6
CONTINUOUS
 62
     5
 10
-0.720668
 20
-42.939295999999999
 30
0.0
 40
76.178471999999985
 50
196.83355299999999
 51
343.16644700000001
  0
ARC
  5
22D
  8
DETAIL
  6
CONTINUOUS
 62
     5
 10
26.63120399999999
 20
-55.78419199999999
 30
0.0
 40
46.48504599999999
 50
348.56517799999989
 51
359.98400400000008
  0
ARC
  5
22E
  8
DETAIL
  6
CONTINUOUS
 62
     5
 10
29.167565
 20
-54.875873999999982
 30
0.0
 40
43.958339000000002
 50
358.79908599999999
 51
31.279703999999999
  0
ARC
  5
22F
  8
OUTLINE
  6
CONTINUOUS
 62
     3
 10
0.0
 20
244.15199599999991
 30
0.0
 40
284.15199599999988
 50
270.0
 51
292.55669999999998
  0
LINE
  5
231
  8
OUTLINE
  6
CONTINUOUS
 62
     3
 10
-104.4999999999999
 20
0.0
 30
0.0
 11
104.4999999999999
 21
0.0
 31
0.0
  0
LINE
  5
232
  8
OUTLINE
  6
CONTINUOUS
 62
     3
 10
-73.5
 20
0.0
 30
0.0
 11
-73.499999999999986
 21
51.999999999999993
 31
0.0
  0
ARC
  5
233
  8
OUTLINE
  6
CONTINUOUS
 62
     3
 10
0.0
 20
244.15199599999991
 30
0.0
 40
284.15199599999988
 50
247.44329999999991
 51
270.0
  0
LINE
  5
234
  8
OUTLINE
  6
CONTINUOUS
 62
     3
 10
-104.4999999999999
 20
0.0
 30
0.0
 11
-109.0
 21
0.0
 31
0.0
  0
LINE
  5
235
  8
OUTLINE
  6
CONTINUOUS
 62
     3
 10
-109.0
 20
0.0
 30
0.0
 11
-109.0
 21
-18.262478999999999
 31
0.0
  0
LINE
  5
237
  8
OUTLINE
  6
CONTINUOUS
 62
     3
 10
73.5
 20
0.0
 30
0.0
 11
73.499999999999986
 21
51.999999999999993
 31
0.0
  0
TEXT
  5
23B
  8
ETC
  6
CONTINUOUS
 62
    61
 10
403.11262615795641
 20
235.14843441405651
 30
0.0
 40
50.0
  1
P-18KFSQ5
 41
0.9
  0
TEXT
  5
23C
  8
ETC
  6
CONTINUOUS
 62
    61
 10
282.15928370639813
 20
324.26921608113253
 30
0.0
 40
64.0
  1
システム部材
 41
0.9
  0
TEXT
  5
23D
  8
ETC
  6
CONTINUOUS
 62
    61
 10
289.9904637063982
 20
427.99238308113252
 30
0.0
 40
64.0
  1
P-18KFSQ5_6
 41
0.9
  0
LINE
  5
23E
  8
DETAIL
  6
CONTINUOUS
 62
     5
 10
-73.5
 20
52.0
 30
0.0
 11
73.500000000000014
 21
52.000000000000007
 31
0.0
  0
LINE
  5
23F
  8
OUTLINE
  6
CONTINUOUS
 62
     3
 10
-73.5
 20
52.000000000000007
 30
0.0
 11
73.5
 21
51.999999999999993
 31
0.0
  0
LINE
  5
240
  8
SIZE
  6
CONTINUOUS
 62
    30
 10
129.0
 20
-0.0000000000000057
 30
0.0
 11
308.34816419855451
 21
-0.0000000000000565
 31
0.0
  0
LINE
  5
241
  8
SIZE
  6
CONTINUOUS
 10
93.499999999999957
 20
51.999999999999993
 30
0.0
 11
308.34816419855451
 21
51.999999999999922
 31
0.0
  0
LINE
  5
242
  8
SIZE
  6
CONTINUOUS
 10
129.0
 20
-0.0000000000000057
 30
0.0
 11
308.34816419855451
 21
-0.0000000000000565
 31
0.0
  0
LINE
  5
243
  8
SIZE
  6
CONTINUOUS
 10
288.34816419855451
 20
51.999999999999929
 30
0.0
 11
288.34816419855451
 21
-0.0000000000000508
 31
0.0
  0
CIRCLE
  5
244
  8
SIZE
  6
CONTINUOUS
 62
    30
 10
288.34816419855451
 20
51.999999999999929
 30
0.0
 40
6.0
  0
POINT
  5
245
  8
DEFPOINTS
  6
CONTINUOUS
 62
    30
 10
288.34816419855451
 20
51.999999999999929
 30
0.0
  0
LINE
  5
246
  8
SIZE
  6
CONTINUOUS
 62
    30
 10
288.34816419855451
 20
51.999999999999929
 30
0.0
 11
288.34816419855451
 21
63.99999999999995
 31
0.0
  0
LINE
  5
247
  8
SIZE
  6
CONTINUOUS
 62
    30
 39
50.0
 10
288.34816419855451
 20
63.99999999999995
 30
0.0
 11
288.34816419855451
 21
181.39454236198929
 31
0.0
  0
LINE
  5
249
  8
DETAIL
  6
CONTINUOUS
 62
     5
 39
50.0
 10
109.0000001462366
 20
0.0
 30
0.0
 11
109.0000002797688
 21
-18.262479152942689
 31
0.0
  0
LINE
  5
24A
  8
DETAIL
  6
CONTINUOUS
 62
     5
 39
50.0
 10
104.4999999999999
 20
0.0
 30
0.0
 11
109.0000001462366
 21
0.0
 31
0.0
  0
LINE
  5
24B
  8
OUTLINE
  6
CONTINUOUS
 62
     3
 39
50.0
 10
104.4999999999999
 20
0.0
 30
0.0
 11
109.0000001462366
 21
0.0
 31
0.0
  0
LINE
  5
24C
  8
OUTLINE
  6
CONTINUOUS
 62
     3
 39
50.0
 10
109.0000001462366
 20
0.0
 30
0.0
 11
109.0000002797688
 21
-18.262479152942689
 31
0.0
  0
LINE
  5
251
  8
DETAIL
  6
CONTINUOUS
 62
     5
 39
50.0
 10
89.498603341057802
 20
-39.999999999999993
 30
0.0
 11
89.498603341057802
 21
-25.537375000757059
 31
0.0
  0
LINE
  5
252
  8
OUTLINE
  6
CONTINUOUS
 62
     3
 39
50.0
 10
-89.500000000000014
 20
-25.536912000000001
 30
0.0
 11
-89.498603341057802
 21
-40.0
 31
0.0
  0
LINE
  5
253
  8
OUTLINE
  6
CONTINUOUS
 62
     3
 39
50.0
 10
89.498603341057802
 20
-25.537375000757059
 30
0.0
 11
89.498603341057802
 21
-39.999999999999993
 31
0.0
  0
ARC
  5
254
  8
OUTLINE
  6
CONTINUOUS
 62
     3
 39
50.0
 10
-0.0000000000000036
 20
-40.499999999999979
 30
0.0
 40
89.500000000000014
 50
179.6799101812791
 51
0.3200898187202836
  0
ENDSEC
  0
EOF
