  0
SECTION
  2
HEADER
  9
$ACADVER
  1
AC1009
  9
$INSBASE
 10
0.0
 20
0.0
 30
0.0
  9
$EXTMIN
 10
-258.91110866669618
 20
-112.3901195619146
 30
-0.0000000349181948
  9
$EXTMAX
 10
694.70216391456779
 20
409.6801866307851
 30
0.0000000814935746
  9
$LIMMIN
 10
-4200.0
 20
-2970.0
  9
$LIMMAX
 10
4200.0
 20
2970.0
  9
$ORTHOMODE
 70
     0
  9
$REGENMODE
 70
     1
  9
$FILLMODE
 70
     1
  9
$QTEXTMODE
 70
     0
  9
$MIRRTEXT
 70
     0
  9
$DRAGMODE
 70
     2
  9
$LTSCALE
 40
20.0
  9
$OSMODE
 70
    37
  9
$ATTMODE
 70
     1
  9
$TEXTSIZE
 40
64.0
  9
$TRACEWID
 40
0.05
  9
$TEXTSTYLE
  7
STANDARD
  9
$CLAYER
  8
SIZE
  9
$CELTYPE
  6
CONTINUOUS
  9
$CECOLOR
 62
     3
  9
$DIMSCALE
 40
1.0
  9
$DIMASZ
 40
2.0
  9
$DIMEXO
 40
20.0
  9
$DIMDLI
 40
200.0
  9
$DIMRND
 40
0.0
  9
$DIMDLE
 40
0.0
  9
$DIMEXE
 40
30.0
  9
$DIMTP
 40
0.0
  9
$DIMTM
 40
0.0
  9
$DIMTXT
 40
64.0
  9
$DIMCEN
 40
0.09
  9
$DIMTSZ
 40
0.0
  9
$DIMTOL
 70
     0
  9
$DIMLIM
 70
     0
  9
$DIMTIH
 70
     0
  9
$DIMTOH
 70
     0
  9
$DIMSE1
 70
     0
  9
$DIMSE2
 70
     0
  9
$DIMTAD
 70
     1
  9
$DIMZIN
 70
     8
  9
$DIMBLK
  1
DOT1
  9
$DIMASO
 70
     1
  9
$DIMSHO
 70
     0
  9
$DIMPOST
  1

  9
$DIMAPOST
  1

  9
$DIMALT
 70
     0
  9
$DIMALTD
 70
     2
  9
$DIMALTF
 40
25.399999999999999
  9
$DIMLFAC
 40
1.0
  9
$DIMTOFL
 70
     1
  9
$DIMTVP
 40
0.0
  9
$DIMTIX
 70
     1
  9
$DIMSOXD
 70
     0
  9
$DIMSAH
 70
     0
  9
$DIMBLK1
  1

  9
$DIMBLK2
  1

  9
$DIMSTYLE
  2
STANDARD
  9
$DIMCLRD
 70
     7
  9
$DIMCLRE
 70
     7
  9
$DIMCLRT
 70
     7
  9
$DIMTFAC
 40
1.0
  9
$DIMGAP
 40
0.09
  9
$LUNITS
 70
     2
  9
$LUPREC
 70
     4
  9
$SKETCHINC
 40
0.1
  9
$FILLETRAD
 40
0.9724
  9
$AUNITS
 70
     1
  9
$AUPREC
 70
     3
  9
$MENU
  1
ACAD
  9
$ELEVATION
 40
0.0
  9
$PELEVATION
 40
0.0
  9
$THICKNESS
 40
0.0
  9
$LIMCHECK
 70
     1
  9
$BLIPMODE
 70
     0
  9
$CHAMFERA
 40
0.0
  9
$CHAMFERB
 40
0.0
  9
$SKPOLY
 70
     0
  9
$TDCREATE
 40
2451591.3756481488
  9
$TDUPDATE
 40
2454813.4367728238
  9
$TDINDWG
 40
0.0222358449
  9
$TDUSRTIMER
 40
0.0222358449
  9
$USRTIMER
 70
     1
  9
$ANGBASE
 50
0.0
  9
$ANGDIR
 70
     0
  9
$PDMODE
 70
     3
  9
$PDSIZE
 40
-2.0
  9
$PLINEWID
 40
0.0
  9
$COORDS
 70
     0
  9
$SPLFRAME
 70
     0
  9
$SPLINETYPE
 70
     6
  9
$SPLINESEGS
 70
     8
  9
$ATTDIA
 70
     0
  9
$ATTREQ
 70
     1
  9
$HANDLING
 70
     1
  9
$HANDSEED
  5
15E
  9
$SURFTAB1
 70
     6
  9
$SURFTAB2
 70
     6
  9
$SURFTYPE
 70
     6
  9
$SURFU
 70
     6
  9
$SURFV
 70
     6
  9
$UCSNAME
  2

  9
$UCSORG
 10
0.0
 20
0.0
 30
0.0
  9
$UCSXDIR
 10
1.0
 20
0.0
 30
0.0
  9
$UCSYDIR
 10
0.0
 20
1.0
 30
0.0
  9
$PUCSNAME
  2

  9
$PUCSORG
 10
0.0
 20
0.0
 30
0.0
  9
$PUCSXDIR
 10
1.0
 20
0.0
 30
0.0
  9
$PUCSYDIR
 10
0.0
 20
1.0
 30
0.0
  9
$USERI1
 70
     0
  9
$USERI2
 70
     0
  9
$USERI3
 70
     0
  9
$USERI4
 70
     0
  9
$USERI5
 70
     0
  9
$USERR1
 40
20.0
  9
$USERR2
 40
0.0
  9
$USERR3
 40
0.0
  9
$USERR4
 40
0.0
  9
$USERR5
 40
0.0
  9
$WORLDVIEW
 70
     1
  9
$SHADEDGE
 70
     3
  9
$SHADEDIF
 70
    70
  9
$TILEMODE
 70
     1
  9
$MAXACTVP
 70
    48
  9
$PLIMCHECK
 70
     0
  9
$PEXTMIN
 10
-1.0000000000000000E+020
 20
-1.0000000000000000E+020
 30
-1.0000000000000000E+020
  9
$PEXTMAX
 10
1.0000000000000000E+020
 20
1.0000000000000000E+020
 30
1.0000000000000000E+020
  9
$PLIMMIN
 10
0.0
 20
0.0
  9
$PLIMMAX
 10
12.0
 20
9.0
  9
$UNITMODE
 70
     0
  9
$VISRETAIN
 70
     0
  9
$PLINEGEN
 70
     0
  9
$PSLTSCALE
 70
     0
  0
ENDSEC
  0
SECTION
  2
TABLES
  0
TABLE
  2
VPORT
 70
     1
  0
VPORT
  2
*ACTIVE
 70
     0
 10
0.0
 20
0.0
 11
1.0
 21
1.0
 12
193.22804184894969
 22
130.03800539682089
 13
0.0
 23
0.0
 14
400.0
 24
400.0
 15
400.0
 25
400.0
 16
0.0
 26
0.0
 36
1.0
 17
0.0
 27
0.0
 37
0.0
 40
818.61476869876083
 41
1.3098995695839311
 42
50.0
 43
0.0
 44
0.0
 50
0.0
 51
0.0
 71
     0
 72
   500
 73
     1
 74
     0
 75
     0
 76
     0
 77
     0
 78
     0
  0
ENDTAB
  0
TABLE
  2
LTYPE
 70
     2
  0
LTYPE
  2
CONTINUOUS
 70
     0
  3
実線
 72
    65
 73
     0
 40
0.0
  0
LTYPE
  2
DASHDOT
 70
     0
  3
____ _ ____ _ ____ _ ____ _ ____ _ ____ _ ____
 72
    65
 73
     4
 40
5.5
 49
4.0
 49
-0.6
 49
0.3
 49
-0.6
  0
ENDTAB
  0
TABLE
  2
LAYER
 70
    12
  0
LAYER
  2
0
 70
     0
 62
     7
  6
CONTINUOUS
  0
LAYER
  2
OUTLINE
 70
     0
 62
     3
  6
CONTINUOUS
  0
LAYER
  2
DETAIL
 70
     0
 62
     5
  6
CONTINUOUS
  0
LAYER
  2
BASIS
 70
     0
 62
     6
  6
DASHDOT
  0
LAYER
  2
SIZE
 70
     0
 62
    30
  6
CONTINUOUS
  0
LAYER
  2
ARRANGE
 70
     0
 62
     1
  6
CONTINUOUS
  0
LAYER
  2
DEFPOINTS
 70
     0
 62
     7
  6
CONTINUOUS
  0
LAYER
  2
ETC
 70
     0
 62
    61
  6
CONTINUOUS
  0
LAYER
  2
FIX
 70
     0
 62
    11
  6
CONTINUOUS
  0
LAYER
  2
NOTE
 70
     0
 62
     4
  6
CONTINUOUS
  0
LAYER
  2
SERVICESPACE
 70
     0
 62
     2
  6
DASHDOT
  0
LAYER
  2
SYMBOLLINE
 70
     0
 62
    15
  6
CONTINUOUS
  0
ENDTAB
  0
TABLE
  2
STYLE
 70
     2
  0
STYLE
  2
STANDARD
 70
     0
 40
0.0
 41
0.9
 50
0.0
 71
     0
 42
64.0
  3
SIMPLEX
  4
BIGFONT
  0
STYLE
  2
ANNOTATIVE
 70
     0
 40
0.0
 41
1.0
 50
0.0
 71
     0
 42
0.2
  3
txt
  4

  0
ENDTAB
  0
TABLE
  2
VIEW
 70
     1
  0
VIEW
  2
ALL
 70
     0
 40
6374.9789810000002
 10
0.0
 20
58.115015999999997
 41
8842.1052629999976
 11
0.0
 21
0.0
 31
1.0
 12
0.0
 22
0.0
 32
0.0
 42
50.0
 43
0.0
 44
0.0
 50
0.0
 71
     0
  0
ENDTAB
  0
TABLE
  2
UCS
 70
     0
  0
ENDTAB
  0
TABLE
  2
APPID
 70
     3
  0
APPID
  2
ACAD
 70
     0
  0
APPID
  2
ACADANNOTATIVE
 70
     0
  0
APPID
  2
ACAD_MLEADERVER
 70
     0
  0
ENDTAB
  0
TABLE
  2
DIMSTYLE
 70
     2
  0
DIMSTYLE
  2
STANDARD
 70
     0
  3

  4

  5

  6

  7

 40
1.0
 41
0.18
 42
0.0625
 43
0.38
 44
0.18
 45
0.0
 46
0.0
 47
0.0
 48
0.0
140
0.18
141
0.09
142
0.0
143
25.399999999999999
144
1.0
145
0.0
146
1.0
147
0.09
 71
     0
 72
     0
 73
     1
 74
     1
 75
     0
 76
     0
 77
     0
 78
     0
170
     0
171
     2
172
     0
173
     0
174
     0
175
     0
176
     7
177
     7
178
     7
  0
DIMSTYLE
  2
ANNOTATIVE
 70
     0
  3

  4

  5

  6

  7

 40
1.0
 41
0.18
 42
0.0625
 43
0.38
 44
0.18
 45
0.0
 46
0.0
 47
0.0
 48
0.0
140
0.18
141
0.09
142
0.0
143
25.399999999999999
144
1.0
145
0.0
146
1.0
147
0.09
 71
     0
 72
     0
 73
     1
 74
     1
 75
     0
 76
     0
 77
     0
 78
     0
170
     0
171
     2
172
     0
173
     0
174
     0
175
     0
176
     0
177
     0
178
     0
  0
ENDTAB
  0
ENDSEC
  0
SECTION
  2
BLOCKS
  0
BLOCK
  8
0
  2
$MODEL_SPACE
 70
     0
 10
0.0
 20
0.0
 30
0.0
  3
$MODEL_SPACE
  1

  0
ENDBLK
  5
76
  8
0
  0
BLOCK
 67
     1
  8
0
  2
$PAPER_SPACE
 70
     0
 10
0.0
 20
0.0
 30
0.0
  3
$PAPER_SPACE
  1

  0
ENDBLK
  5
72
 67
     1
  8
0
  0
BLOCK
  8
SIZE
  2
DOT1
 70
     0
 10
0.0
 20
0.0
 30
0.0
  3
DOT1
  1

  0
CIRCLE
  5
8B
  8
SIZE
  6
CONTINUOUS
 62
     8
 10
0.0
 20
0.0
 30
0.0
 40
3.0
  0
ENDBLK
  5
8C
  8
SIZE
  0
ENDSEC
  0
SECTION
  2
ENTITIES
  0
TEXT
  5
8D
  8
ETC
  6
CONTINUOUS
 62
    61
 10
343.12469399999998
 20
267.509052
 30
0.0
 40
40.0
  1
システム部材
 41
0.9
  0
LINE
  5
8E
  8
BASIS
  6
DASHDOT
 62
     6
 10
-72.025718999999995
 20
0.0
 30
0.0
 11
70.277181999999996
 21
0.0
 31
0.0
  0
LINE
  5
8F
  8
SIZE
  6
CONTINUOUS
 62
    30
 10
10.0
 20
123.443961
 30
0.0
 11
10.0
 21
217.511876
 31
0.0
  0
LINE
  5
90
  8
SIZE
  6
CONTINUOUS
 62
    30
 10
0.0
 20
126.0
 30
0.0
 11
0.0
 21
217.511876
 31
0.0
  0
LINE
  5
91
  8
SIZE
  6
CONTINUOUS
 62
    30
 10
8.0
 20
187.511876
 30
0.0
 11
2.0
 21
187.511876
 31
0.0
  0
TEXT
  5
92
  8
SIZE
  6
CONTINUOUS
 62
    30
 10
68.235990857142866
 20
219.511876
 30
0.0
 40
64.0
  1
10
 41
0.9
 72
     1
 11
109.378848
 21
219.511876
 31
0.0
  0
CIRCLE
  5
93
  8
SIZE
  6
CONTINUOUS
 62
     8
 10
10.0
 20
187.511876
 30
0.0
 40
6.0
  0
CIRCLE
  5
94
  8
SIZE
  6
CONTINUOUS
 62
     8
 10
0.0
 20
187.511876
 30
0.0
 40
6.0
  0
POINT
  5
97
  8
DEFPOINTS
  6
CONTINUOUS
 62
    30
 10
0.0
 20
187.511876
 30
0.0
  0
LINE
  5
98
  8
SIZE
  6
CONTINUOUS
 62
    30
 10
35.0
 20
313.96998500000001
 30
0.0
 11
161.24922699999999
 21
313.96998500000001
 31
0.0
  0
LINE
  5
99
  8
SIZE
  6
CONTINUOUS
 62
    30
 10
12.0
 20
187.511876
 30
0.0
 11
161.90159499999999
 21
187.511876
 31
0.0
  0
LINE
  5
9A
  8
SIZE
  6
CONTINUOUS
 62
    30
 10
20.0
 20
106.0
 30
0.0
 11
379.19902100000002
 21
106.0
 31
0.0
  0
LINE
  5
9B
  8
SIZE
  6
CONTINUOUS
 62
    30
 10
20.0
 20
-106.0
 30
0.0
 11
379.19902100000002
 21
-106.0
 31
0.0
  0
LINE
  5
9C
  8
SIZE
  6
CONTINUOUS
 62
    30
 10
349.19902100000002
 20
104.0
 30
0.0
 11
349.19902100000002
 21
-106.0
 31
0.0
  0
TEXT
  5
9D
  8
SIZE
  6
CONTINUOUS
 62
    30
 10
472.08824229578067
 20
-105.7613860262279
 30
0.0
 40
64.0
  1
φ212
 50
90.0
 41
0.9
 72
     1
 11
472.08824229578067
 21
3.1300425452006091
 31
0.0
  0
CIRCLE
  5
9E
  8
SIZE
  6
CONTINUOUS
 62
     8
 10
349.19902100000002
 20
106.0
 30
0.0
 40
6.0
  0
CIRCLE
  5
9F
  8
SIZE
  6
CONTINUOUS
 62
     8
 10
349.19902100000002
 20
-106.0
 30
0.0
 40
6.0
  0
POINT
  5
A2
  8
DEFPOINTS
  6
CONTINUOUS
 62
    30
 10
349.19902100000002
 20
-106.0
 30
0.0
  0
LINE
  5
AE
  8
DETAIL
  6
CONTINUOUS
 62
     5
 10
0.0
 20
0.0
 30
0.0
 11
0.0
 21
-106.0
 31
0.0
  0
LINE
  5
AF
  8
DETAIL
  6
CONTINUOUS
 62
     5
 10
10.0
 20
0.100799
 30
0.0
 11
10.0
 21
-103.443961
 31
0.0
  0
LINE
  5
B0
  8
DETAIL
  6
CONTINUOUS
 62
     5
 10
7.8456839999999994
 20
-105.686173
 30
0.0
 11
0.0
 21
-106.0
 31
0.0
  0
ARC
  5
B1
  8
DETAIL
  6
CONTINUOUS
 62
     5
 10
7.7559959999999997
 20
-103.443961
 30
0.0
 40
2.244003999999999
 50
272.29061000000002
 51
0.0
  0
LINE
  5
B2
  8
BASIS
  6
DASHDOT
 62
     6
 10
-72.025718999999995
 20
0.0
 30
0.0
 11
70.277181999999996
 21
0.0
 31
0.0
  0
LINE
  5
B4
  8
DETAIL
  6
CONTINUOUS
 62
     5
 10
0.0
 20
-73.5
 30
0.0
 11
-53.0
 21
-73.5
 31
0.0
  0
ARC
  5
B5
  8
DETAIL
  6
CONTINUOUS
 62
     5
 10
7.7559959999999997
 20
103.443961
 30
0.0
 40
2.244003999999999
 50
0.0
 51
87.709389999999999
  0
LINE
  5
B6
  8
DETAIL
  6
CONTINUOUS
 62
     5
 10
7.8456839999999994
 20
105.686173
 30
0.0
 11
0.0
 21
106.0
 31
0.0
  0
LINE
  5
B7
  8
DETAIL
  6
CONTINUOUS
 62
     5
 10
10.0
 20
-0.100799
 30
0.0
 11
10.0
 21
103.443961
 31
0.0
  0
LINE
  5
B8
  8
DETAIL
  6
CONTINUOUS
 62
     5
 10
0.0
 20
0.0
 30
0.0
 11
0.0
 21
106.0
 31
0.0
  0
LINE
  5
B9
  8
DETAIL
  6
CONTINUOUS
 62
     5
 10
-53.0
 20
72.527598999999995
 30
0.0
 11
-53.0
 21
-73.5
 31
0.0
  0
LINE
  5
BA
  8
DETAIL
  6
CONTINUOUS
 62
     5
 10
0.0
 20
73.5
 30
0.0
 11
-52.02759799999999
 21
73.500000999999983
 31
0.0
  0
LINE
  5
C6
  8
DETAIL
  6
CONTINUOUS
 62
     5
 10
-53.299199999999999
 20
72.049542000000002
 30
0.0
 11
-53.299199999999999
 21
72.527598999999995
 31
0.0
  0
LINE
  5
C7
  8
DETAIL
  6
CONTINUOUS
 62
     5
 10
-47.668424999999999
 20
73.799201999999994
 30
0.0
 11
-52.02759799999999
 21
73.799201999999994
 31
0.0
  0
ARC
  5
C8
  8
DETAIL
  6
CONTINUOUS
 62
     5
 10
-52.02759799999999
 20
72.527598999999995
 30
0.0
 40
1.2716019999999999
 50
90.0
 51
180.0
  0
ARC
  5
C9
  8
DETAIL
  6
CONTINUOUS
 62
     5
 10
-52.02759799999999
 20
72.527598999999995
 30
0.0
 40
0.9724019999999999
 50
90.0
 51
180.0
  0
ARC
  5
CA
  8
DETAIL
  6
CONTINUOUS
 62
     5
 10
-52.251998
 20
72.049542000000002
 30
0.0
 40
1.0472019999999991
 50
180.0
 51
224.41530900000001
  0
ARC
  5
CB
  8
DETAIL
  6
CONTINUOUS
 62
     5
 10
-47.668424999999999
 20
75.744005000000001
 30
0.0
 40
1.9448039999999991
 50
270.0
 51
324.26262700000001
  0
ARC
  5
CC
  8
DETAIL
  6
CONTINUOUS
 62
     5
 10
-47.668424999999999
 20
75.744005000000001
 30
0.0
 40
2.244003999999999
 50
270.0
 51
324.26262700000001
  0
LINE
  5
CD
  8
DETAIL
  6
CONTINUOUS
 62
     5
 10
-38.318300000000001
 20
76.941535999999985
 30
0.0
 11
-39.439959999999999
 21
76.863101999999998
 31
0.0
  0
LINE
  5
CE
  8
DETAIL
  6
CONTINUOUS
 62
     5
 10
-38.339171999999998
 20
77.240007999999975
 30
0.0
 11
-39.417481000000002
 21
77.164604999999995
 31
0.0
  0
LINE
  5
CF
  8
DETAIL
  6
CONTINUOUS
 62
     5
 10
-38.318300000000001
 20
76.941535999999985
 30
0.0
 11
-38.339171999999998
 21
77.240007999999975
 31
0.0
  0
ARC
  5
D0
  8
DETAIL
  6
CONTINUOUS
 62
     5
 10
-40.807575999999997
 20
70.80719599999999
 30
0.0
 40
6.5076119999999991
 50
77.665974000000006
 51
144.26262700000001
  0
ARC
  5
D1
  8
DETAIL
  6
CONTINUOUS
 62
     5
 10
-40.807575999999997
 20
70.80719599999999
 30
0.0
 40
6.208412
 50
77.274260999999996
 51
144.26262700000001
  0
LINE
  5
D2
  8
DETAIL
  6
CONTINUOUS
 62
     5
 10
-47.668424999999999
 20
73.500000999999983
 30
0.0
 11
-52.02759799999999
 21
73.500000999999983
 31
0.0
  0
LINE
  5
D4
  8
SIZE
  6
CONTINUOUS
 62
    30
 10
0.0
 20
126.0
 30
0.0
 11
0.0
 21
343.96998500000001
 31
0.0
  0
LINE
  5
D5
  8
SIZE
  6
CONTINUOUS
 62
    30
 10
-53.0
 20
92.527597999999983
 30
0.0
 11
-53.0
 21
343.96998500000001
 31
0.0
  0
LINE
  5
D6
  8
SIZE
  6
CONTINUOUS
 62
    30
 10
0.0
 20
313.96998500000001
 30
0.0
 11
-53.0
 21
313.96998500000001
 31
0.0
  0
TEXT
  5
D7
  8
SIZE
  6
CONTINUOUS
 62
    30
 10
-168.67893342857141
 20
345.30742600000002
 30
0.0
 40
64.0
  1
53
 41
0.9
 72
     1
 11
-122.05036200000001
 21
345.30742600000002
 31
0.0
  0
CIRCLE
  5
D8
  8
SIZE
  6
CONTINUOUS
 62
     8
 10
0.0
 20
313.96998500000001
 30
0.0
 40
6.0
  0
CIRCLE
  5
D9
  8
SIZE
  6
CONTINUOUS
 62
     8
 10
-53.0
 20
313.96998500000001
 30
0.0
 40
6.0
  0
POINT
  5
DC
  8
DEFPOINTS
  6
CONTINUOUS
 62
    30
 10
-52.0
 20
313.96998500000001
 30
0.0
  0
LINE
  5
DD
  8
SIZE
  6
CONTINUOUS
 62
    30
 10
-53.0
 20
313.96998500000001
 30
0.0
 11
-184.55551500000001
 21
313.96998500000001
 31
0.0
  0
LINE
  5
DE
  8
SIZE
  6
CONTINUOUS
 62
    30
 10
-71.700799000000004
 20
-73.5
 30
0.0
 11
-179.91207499999999
 21
-73.5
 31
0.0
  0
LINE
  5
DF
  8
SIZE
  6
CONTINUOUS
 62
    30
 10
-70.728397999999999
 20
73.5
 30
0.0
 11
-179.91207499999999
 21
73.5
 31
0.0
  0
LINE
  5
E0
  8
SIZE
  6
CONTINUOUS
 62
    30
 10
-149.91207499999999
 20
-71.5
 30
0.0
 11
-149.91207499999999
 21
71.5
 31
0.0
  0
TEXT
  5
E1
  8
SIZE
  6
CONTINUOUS
 62
    30
 10
-194.36245099999999
 20
-113.5533505714285
 30
0.0
 40
64.0
  1
φ147
 50
90.0
 41
0.9
 72
     1
 11
-194.36245099999999
 21
-4.6619219999999988
 31
0.0
  0
CIRCLE
  5
E2
  8
SIZE
  6
CONTINUOUS
 62
     8
 10
-149.91207499999999
 20
-73.5
 30
0.0
 40
6.0
  0
CIRCLE
  5
E3
  8
SIZE
  6
CONTINUOUS
 62
     8
 10
-149.91207499999999
 20
73.5
 30
0.0
 40
6.0
  0
POINT
  5
E6
  8
DEFPOINTS
  6
CONTINUOUS
 62
    30
 10
-149.91207499999999
 20
73.5
 30
0.0
  0
TEXT
  5
E7
  8
ETC
  6
CONTINUOUS
 62
    61
 10
344.35771499999998
 20
325.836388
 30
0.0
 40
40.0
  1
P-18RSQ2_5
 41
0.9
  0
CIRCLE
  5
E8
  8
ARRANGE
  6
CONTINUOUS
 62
     1
 10
0.0
 20
0.0
 30
0.0
 40
40.0
  0
POINT
  5
E9
  8
ARRANGE
  6
CONTINUOUS
 62
     1
 10
0.0
 20
0.0
 30
0.0
  0
LINE
  5
EA
  8
DETAIL
  6
CONTINUOUS
 62
     5
 10
10.0
 20
91.808548000000002
 30
0.0
 11
35.0
 21
91.808548000000002
 31
0.0
  0
LINE
  5
EB
  8
DETAIL
  6
CONTINUOUS
 62
     5
 10
35.0
 20
91.808548000000002
 30
0.0
 11
35.0
 21
-92.191451999999984
 31
0.0
  0
LINE
  5
EC
  8
DETAIL
  6
CONTINUOUS
 62
     5
 10
35.0
 20
-92.191451999999984
 30
0.0
 11
10.0
 21
-92.191451999999984
 31
0.0
  0
LINE
  5
ED
  8
SIZE
  6
CONTINUOUS
 62
    30
 10
0.0
 20
126.0
 30
0.0
 11
0.0
 21
343.96998500000001
 31
0.0
  0
LINE
  5
EE
  8
SIZE
  6
CONTINUOUS
 62
    30
 10
35.0
 20
111.808548
 30
0.0
 11
35.0
 21
343.96998500000001
 31
0.0
  0
LINE
  5
EF
  8
SIZE
  6
CONTINUOUS
 62
    30
 10
2.0
 20
313.96998500000001
 30
0.0
 11
33.0
 21
313.96998500000001
 31
0.0
  0
TEXT
  5
F0
  8
SIZE
  6
CONTINUOUS
 62
    30
 10
64.117658571428592
 20
339.68937799999998
 30
0.0
 40
64.0
  1
35
 41
0.9
 72
     1
 11
110.74623
 21
339.68937799999998
 31
0.0
  0
CIRCLE
  5
F1
  8
SIZE
  6
CONTINUOUS
 62
     8
 10
0.0
 20
313.96998500000001
 30
0.0
 40
6.0
  0
CIRCLE
  5
F2
  8
SIZE
  6
CONTINUOUS
 62
     8
 10
35.0
 20
313.96998500000001
 30
0.0
 40
6.0
  0
POINT
  5
F5
  8
DEFPOINTS
  6
CONTINUOUS
 62
    30
 10
35.0
 20
313.96998500000001
 30
0.0
  0
LINE
  5
F6
  8
SIZE
  6
CONTINUOUS
 62
    30
 10
55.0
 20
91.808548000000002
 30
0.0
 11
223.435903
 21
91.808548000000002
 31
0.0
  0
LINE
  5
F7
  8
SIZE
  6
CONTINUOUS
 62
    30
 10
55.0
 20
-92.191451999999984
 30
0.0
 11
223.435903
 21
-92.191451999999984
 31
0.0
  0
LINE
  5
F8
  8
SIZE
  6
CONTINUOUS
 62
    30
 10
193.435903
 20
89.808548000000016
 30
0.0
 11
193.435903
 21
-90.191451999999998
 31
0.0
  0
TEXT
  5
F9
  8
SIZE
  6
CONTINUOUS
 62
    30
 10
316.91050661246442
 20
-107.7011251099177
 30
0.0
 40
64.0
  1
φ184
 50
90.0
 41
0.9
 72
     1
 11
316.91050661246442
 21
2.561732032939374
 31
0.0
  0
CIRCLE
  5
FA
  8
SIZE
  6
CONTINUOUS
 62
     8
 10
193.435903
 20
91.808548000000002
 30
0.0
 40
6.0
  0
CIRCLE
  5
FB
  8
SIZE
  6
CONTINUOUS
 62
     8
 10
193.435903
 20
-92.191451999999984
 30
0.0
 40
6.0
  0
POINT
  5
FE
  8
DEFPOINTS
  6
CONTINUOUS
 62
    30
 10
193.435903
 20
-92.191451999999984
 30
0.0
  0
LINE
  5
101
  8
OUTLINE
  6
CONTINUOUS
 62
     3
 10
10.0
 20
91.808548000000002
 30
0.0
 11
35.0
 21
91.808548000000002
 31
0.0
  0
LINE
  5
102
  8
OUTLINE
  6
CONTINUOUS
 62
     3
 10
35.0
 20
91.808548000000002
 30
0.0
 11
35.0
 21
-92.191451999999984
 31
0.0
  0
LINE
  5
103
  8
OUTLINE
  6
CONTINUOUS
 62
     3
 10
35.0
 20
-92.191451999999984
 30
0.0
 11
10.0
 21
-92.191451999999984
 31
0.0
  0
LINE
  5
11A
  8
OUTLINE
  6
CONTINUOUS
 62
     3
 10
0.0
 20
73.5
 30
0.0
 11
-52.0276
 21
73.5
 31
0.0
  0
LINE
  5
11B
  8
OUTLINE
  6
CONTINUOUS
 62
     3
 10
0.0
 20
0.0
 30
0.0
 11
0.0
 21
106.0
 31
0.0
  0
LINE
  5
11C
  8
OUTLINE
  6
CONTINUOUS
 62
     3
 10
10.0
 20
-0.100799
 30
0.0
 11
10.0
 21
103.443961
 31
0.0
  0
LINE
  5
11D
  8
OUTLINE
  6
CONTINUOUS
 62
     3
 10
7.8456839999999994
 20
105.686173
 30
0.0
 11
0.0
 21
106.0
 31
0.0
  0
ARC
  5
11E
  8
OUTLINE
  6
CONTINUOUS
 62
     3
 10
7.7559959999999997
 20
103.443961
 30
0.0
 40
2.244003999999999
 50
0.0
 51
87.709389999999999
  0
LINE
  5
11F
  8
OUTLINE
  6
CONTINUOUS
 62
     3
 10
0.0
 20
-73.5
 30
0.0
 11
-53.0
 21
-73.5
 31
0.0
  0
LINE
  5
120
  8
OUTLINE
  6
CONTINUOUS
 62
     3
 10
-53.0
 20
-73.5
 30
0.0
 11
-53.0
 21
72.527600000000007
 31
0.0
  0
ARC
  5
121
  8
OUTLINE
  6
CONTINUOUS
 62
     3
 10
7.7559959999999997
 20
-103.443961
 30
0.0
 40
2.244003999999999
 50
272.29061000000002
 51
0.0
  0
LINE
  5
122
  8
OUTLINE
  6
CONTINUOUS
 62
     3
 10
7.8456839999999994
 20
-105.686173
 30
0.0
 11
0.0
 21
-106.0
 31
0.0
  0
LINE
  5
123
  8
OUTLINE
  6
CONTINUOUS
 62
     3
 10
10.0
 20
0.100799
 30
0.0
 11
10.0
 21
-103.443961
 31
0.0
  0
LINE
  5
124
  8
OUTLINE
  6
CONTINUOUS
 62
     3
 10
0.0
 20
0.0
 30
0.0
 11
0.0
 21
-106.0
 31
0.0
  0
ARC
  5
125
  8
OUTLINE
  6
CONTINUOUS
 62
     3
 10
-52.0276
 20
72.527600000000007
 30
0.0
 40
0.9724
 50
90.0
 51
180.0
  0
ENDSEC
  0
EOF
