  0
SECTION
  2
HEADER
  9
$ACADVER
  1
AC1009
  9
$INSBASE
 10
0.0
 20
0.0
 30
0.0
  9
$EXTMIN
 10
-410.15622603026708
 20
-358.9233229739184
 30
-0.0015258207003583
  9
$EXTMAX
 10
873.50465435709702
 20
411.49293077352002
 30
0.0000000349246037
  9
$LIMMIN
 10
-4200.0
 20
-2970.0
  9
$LIMMAX
 10
4200.0
 20
2970.0
  9
$ORTHOMODE
 70
     0
  9
$REGENMODE
 70
     0
  9
$FILLMODE
 70
     1
  9
$QTEXTMODE
 70
     0
  9
$MIRRTEXT
 70
     0
  9
$DRAGMODE
 70
     2
  9
$LTSCALE
 40
20.0
  9
$OSMODE
 70
    37
  9
$ATTMODE
 70
     1
  9
$TEXTSIZE
 40
64.0
  9
$TRACEWID
 40
0.05
  9
$TEXTSTYLE
  7
STANDARD
  9
$CLAYER
  8
ETC
  9
$CELTYPE
  6
CONTINUOUS
  9
$CECOLOR
 62
     3
  9
$DIMSCALE
 40
1.0
  9
$DIMASZ
 40
12.0
  9
$DIMEXO
 40
20.0
  9
$DIMDLI
 40
200.0
  9
$DIMRND
 40
0.0
  9
$DIMDLE
 40
0.0
  9
$DIMEXE
 40
30.0
  9
$DIMTP
 40
0.0
  9
$DIMTM
 40
0.0
  9
$DIMTXT
 40
64.0
  9
$DIMCEN
 40
0.09
  9
$DIMTSZ
 40
0.0
  9
$DIMTOL
 70
     0
  9
$DIMLIM
 70
     0
  9
$DIMTIH
 70
     0
  9
$DIMTOH
 70
     0
  9
$DIMSE1
 70
     0
  9
$DIMSE2
 70
     0
  9
$DIMTAD
 70
     1
  9
$DIMZIN
 70
     8
  9
$DIMBLK
  1
ORIGIN
  9
$DIMASO
 70
     1
  9
$DIMSHO
 70
     0
  9
$DIMPOST
  1

  9
$DIMAPOST
  1

  9
$DIMALT
 70
     0
  9
$DIMALTD
 70
     2
  9
$DIMALTF
 40
25.399999999999999
  9
$DIMLFAC
 40
1.0
  9
$DIMTOFL
 70
     1
  9
$DIMTVP
 40
0.0
  9
$DIMTIX
 70
     1
  9
$DIMSOXD
 70
     0
  9
$DIMSAH
 70
     0
  9
$DIMBLK1
  1

  9
$DIMBLK2
  1

  9
$DIMSTYLE
  2
STANDARD
  9
$DIMCLRD
 70
     0
  9
$DIMCLRE
 70
     0
  9
$DIMCLRT
 70
     0
  9
$DIMTFAC
 40
1.0
  9
$DIMGAP
 40
20.0
  9
$LUNITS
 70
     2
  9
$LUPREC
 70
     4
  9
$SKETCHINC
 40
0.1
  9
$FILLETRAD
 40
2.2440000000000002
  9
$AUNITS
 70
     1
  9
$AUPREC
 70
     3
  9
$MENU
  1
ACAD
  9
$ELEVATION
 40
0.0
  9
$PELEVATION
 40
0.0
  9
$THICKNESS
 40
0.0
  9
$LIMCHECK
 70
     1
  9
$BLIPMODE
 70
     0
  9
$CHAMFERA
 40
0.0
  9
$CHAMFERB
 40
0.0
  9
$SKPOLY
 70
     0
  9
$TDCREATE
 40
2451794.6609375002
  9
$TDUPDATE
 40
2454813.4682348729
  9
$TDINDWG
 40
0.0218336111
  9
$TDUSRTIMER
 40
0.0218334259
  9
$USRTIMER
 70
     1
  9
$ANGBASE
 50
0.0
  9
$ANGDIR
 70
     0
  9
$PDMODE
 70
     3
  9
$PDSIZE
 40
-2.0
  9
$PLINEWID
 40
0.0
  9
$COORDS
 70
     0
  9
$SPLFRAME
 70
     0
  9
$SPLINETYPE
 70
     6
  9
$SPLINESEGS
 70
     8
  9
$ATTDIA
 70
     0
  9
$ATTREQ
 70
     1
  9
$HANDLING
 70
     1
  9
$HANDSEED
  5
4F4
  9
$SURFTAB1
 70
     6
  9
$SURFTAB2
 70
     6
  9
$SURFTYPE
 70
     6
  9
$SURFU
 70
     6
  9
$SURFV
 70
     6
  9
$UCSNAME
  2

  9
$UCSORG
 10
0.0
 20
0.0
 30
0.0
  9
$UCSXDIR
 10
1.0
 20
0.0
 30
0.0
  9
$UCSYDIR
 10
0.0
 20
1.0
 30
0.0
  9
$PUCSNAME
  2

  9
$PUCSORG
 10
0.0
 20
0.0
 30
0.0
  9
$PUCSXDIR
 10
1.0
 20
0.0
 30
0.0
  9
$PUCSYDIR
 10
0.0
 20
1.0
 30
0.0
  9
$USERI1
 70
     0
  9
$USERI2
 70
     0
  9
$USERI3
 70
     0
  9
$USERI4
 70
     0
  9
$USERI5
 70
     0
  9
$USERR1
 40
20.0
  9
$USERR2
 40
0.0
  9
$USERR3
 40
0.0
  9
$USERR4
 40
0.0
  9
$USERR5
 40
0.0
  9
$WORLDVIEW
 70
     1
  9
$SHADEDGE
 70
     3
  9
$SHADEDIF
 70
    70
  9
$TILEMODE
 70
     1
  9
$MAXACTVP
 70
    64
  9
$PLIMCHECK
 70
     0
  9
$PEXTMIN
 10
1.0000000000000000E+020
 20
1.0000000000000000E+020
 30
1.0000000000000000E+020
  9
$PEXTMAX
 10
-1.0000000000000000E+020
 20
-1.0000000000000000E+020
 30
-1.0000000000000000E+020
  9
$PLIMMIN
 10
0.0
 20
0.0
  9
$PLIMMAX
 10
12.0
 20
9.0
  9
$UNITMODE
 70
     0
  9
$VISRETAIN
 70
     1
  9
$PLINEGEN
 70
     0
  9
$PSLTSCALE
 70
     1
  0
ENDSEC
  0
SECTION
  2
TABLES
  0
TABLE
  2
VPORT
 70
     1
  0
VPORT
  2
*ACTIVE
 70
     0
 10
0.0
 20
0.0
 11
1.0
 21
1.0
 12
222.4505700596259
 22
36.018328775938933
 13
0.0
 23
0.0
 14
400.0
 24
400.0
 15
400.0
 25
400.0
 16
0.0
 26
0.0
 36
1.0
 17
0.0
 27
0.0
 37
0.0
 40
1107.853463240375
 41
1.3098995695839311
 42
50.0
 43
0.0
 44
0.0
 50
0.0
 51
0.0
 71
     0
 72
   500
 73
     1
 74
     0
 75
     0
 76
     0
 77
     0
 78
     0
  0
ENDTAB
  0
TABLE
  2
LTYPE
 70
     8
  0
LTYPE
  2
CONTINUOUS
 70
     0
  3
実線
 72
    65
 73
     0
 40
0.0
  0
LTYPE
  2
DOT
 70
     0
  3
...............................................
 72
    65
 73
     2
 40
0.8
 49
0.5
 49
-0.3
  0
LTYPE
  2
DASHED
 70
     0
  3
_ _ _ _ _ _ _ _ _ _ _ _ _ _ _ _ _ _ _ _ _ _ _
 72
    65
 73
     2
 40
2.0
 49
1.1999999999999991
 49
-0.8
  0
LTYPE
  2
DASHDOT
 70
     0
  3
____ _ ____ _ ____ _ ____ _ ____ _ ____ _ ____
 72
    65
 73
     4
 40
5.5
 49
4.0
 49
-0.6
 49
0.3
 49
-0.6
  0
LTYPE
  2
DASHDOT1
 70
     0
  3
____ _ ____ _ ____ _ ____ _ ____ _ ____ _ ____
 72
    65
 73
     4
 40
2.0
 49
1.5
 49
-0.2
 49
0.1
 49
-0.2
  0
LTYPE
  2
DIVIDE
 70
     0
  3
_____ _ _ _____ _ _ _____ _ _ _____ _ _ ____
 72
    65
 73
     6
 40
6.4000000000000004
 49
4.0
 49
-0.6
 49
0.3
 49
-0.6
 49
0.3
 49
-0.6
  0
LTYPE
  2
DIVIDE1
 70
     0
  3
_____ _ _ _____ _ _ _____ _ _ _____ _ _ ____
 72
    65
 73
     6
 40
3.2000000000000002
 49
2.0
 49
-0.3
 49
0.15
 49
-0.3
 49
0.15
 49
-0.3
  0
ENDTAB
  0
TABLE
  2
LAYER
 70
    12
  0
LAYER
  2
0
 70
     0
 62
     7
  6
CONTINUOUS
  0
LAYER
  2
OUTLINE
 70
     0
 62
     3
  6
CONTINUOUS
  0
LAYER
  2
SIZE
 70
     0
 62
    30
  6
CONTINUOUS
  0
LAYER
  2
DETAIL
 70
     0
 62
     5
  6
CONTINUOUS
  0
LAYER
  2
BASIS
 70
     0
 62
     6
  6
DASHDOT
  0
LAYER
  2
ARRANGE
 70
     0
 62
     1
  6
CONTINUOUS
  0
LAYER
  2
DEFPOINTS
 70
     0
 62
     7
  6
CONTINUOUS
  0
LAYER
  2
ETC
 70
     0
 62
    61
  6
CONTINUOUS
  0
LAYER
  2
NOTE
 70
     0
 62
     4
  6
CONTINUOUS
  0
LAYER
  2
FIX
 70
     0
 62
    11
  6
CONTINUOUS
  0
LAYER
  2
SERVICESPACE
 70
     0
 62
     2
  6
DASHDOT
  0
LAYER
  2
SYMBOLLINE
 70
     0
 62
    15
  6
CONTINUOUS
  0
ENDTAB
  0
TABLE
  2
STYLE
 70
     2
  0
STYLE
  2
STANDARD
 70
     0
 40
0.0
 41
0.9
 50
0.0
 71
     0
 42
64.0
  3
SIMPLEX
  4
BIGFONT
  0
STYLE
  2
ANNOTATIVE
 70
     0
 40
0.0
 41
1.0
 50
0.0
 71
     0
 42
0.2
  3
txt
  4

  0
ENDTAB
  0
TABLE
  2
VIEW
 70
     1
  0
VIEW
  2
ALL
 70
     0
 40
6374.9789810000002
 10
0.0
 20
58.11501599999999
 41
8842.1052629999976
 11
0.0
 21
0.0
 31
1.0
 12
0.0
 22
0.0
 32
0.0
 42
50.0
 43
0.0
 44
0.0
 50
0.0
 71
     0
  0
ENDTAB
  0
TABLE
  2
UCS
 70
     0
  0
ENDTAB
  0
TABLE
  2
APPID
 70
     4
  0
APPID
  2
ACAD
 70
     0
  0
APPID
  2
ACADANNOTATIVE
 70
     0
  0
APPID
  2
ACAD_MLEADERVER
 70
     0
  0
APPID
  2
ACAD_EXEMPT_FROM_CAD_STANDARDS
 70
     0
  0
ENDTAB
  0
TABLE
  2
DIMSTYLE
 70
     2
  0
DIMSTYLE
  2
STANDARD
 70
     0
  3

  4

  5

  6

  7

 40
1.0
 41
0.18
 42
0.0625
 43
0.38
 44
0.18
 45
0.0
 46
0.0
 47
0.0
 48
0.0
140
0.18
141
0.09
142
0.0
143
25.399999999999999
144
1.0
145
0.0
146
1.0
147
0.09
 71
     0
 72
     0
 73
     1
 74
     1
 75
     0
 76
     0
 77
     0
 78
     0
170
     0
171
     2
172
     0
173
     0
174
     0
175
     0
176
     0
177
     0
178
     0
  0
DIMSTYLE
  2
ANNOTATIVE
 70
     0
  3

  4

  5

  6

  7

 40
1.0
 41
0.18
 42
0.0625
 43
0.38
 44
0.18
 45
0.0
 46
0.0
 47
0.0
 48
0.0
140
0.18
141
0.09
142
0.0
143
25.399999999999999
144
1.0
145
0.0
146
1.0
147
0.09
 71
     0
 72
     0
 73
     1
 74
     1
 75
     0
 76
     0
 77
     0
 78
     0
170
     0
171
     2
172
     0
173
     0
174
     0
175
     0
176
     0
177
     0
178
     0
  0
ENDTAB
  0
ENDSEC
  0
SECTION
  2
BLOCKS
  0
BLOCK
  8
0
  2
$MODEL_SPACE
 70
     0
 10
0.0
 20
0.0
 30
0.0
  3
$MODEL_SPACE
  1

  0
ENDBLK
  5
498
  8
0
  0
BLOCK
 67
     1
  8
0
  2
$PAPER_SPACE
 70
     0
 10
0.0
 20
0.0
 30
0.0
  3
$PAPER_SPACE
  1

  0
ENDBLK
  5
494
 67
     1
  8
0
  0
BLOCK
  8
0
 62
    30
  2
_ORIGIN
 70
     0
 10
0.0
 20
0.0
 30
0.0
  3
_ORIGIN
  1

  0
CIRCLE
  5
283
  8
0
  6
BYBLOCK
 62
     0
 10
0.0
 20
0.0
 30
0.0
 40
0.5
  0
LINE
  5
284
  8
0
  6
BYBLOCK
 62
     0
 10
0.0
 20
0.0
 30
0.0
 11
-1.0
 21
0.0
 31
0.0
  0
ENDBLK
  5
285
  8
0
 62
    30
  0
BLOCK
  8
0
 62
    30
  2
_OPEN30
 70
     0
 10
0.0
 20
0.0
 30
0.0
  3
_OPEN30
  1

  0
LINE
  5
288
  8
0
  6
BYBLOCK
 62
     0
 10
-1.0
 20
0.26794919
 30
0.0
 11
0.0
 21
0.0
 31
0.0
  0
LINE
  5
289
  8
0
  6
BYBLOCK
 62
     0
 10
0.0
 20
0.0
 30
0.0
 11
-1.0
 21
-0.26794919
 31
0.0
  0
LINE
  5
28A
  8
0
  6
BYBLOCK
 62
     0
 10
0.0
 20
0.0
 30
0.0
 11
-1.0
 21
0.0
 31
0.0
  0
ENDBLK
  5
28B
  8
0
 62
    30
  0
BLOCK
  8
0
 62
    30
  2
*D4
 70
     1
 10
0.0
 20
0.0
 30
0.0
  3
*D4
  1

  0
LINE
  5
28E
  8
SIZE
  6
CONTINUOUS
 62
     0
 10
-92.0
 20
-52.5
 30
0.0
 11
-92.0
 21
-217.91114443843071
 31
0.0
  0
LINE
  5
28F
  8
SIZE
  6
CONTINUOUS
 62
     0
 10
92.0
 20
-52.5
 30
0.0
 11
91.999999999999986
 21
-217.91114443843071
 31
0.0
  0
LINE
  5
290
  8
SIZE
  6
CONTINUOUS
 62
     0
 10
-80.000000000000014
 20
-187.91114443843071
 30
0.0
 11
79.999999999999986
 21
-187.91114443843071
 31
0.0
  0
INSERT
  5
291
  8
SIZE
  6
CONTINUOUS
 62
     0
  2
_ORIGIN
 10
-92.0
 20
-187.91114443843071
 30
0.0
 41
12.0
 42
12.0
 43
12.0
 50
180.0
  0
INSERT
  5
292
  8
SIZE
  6
CONTINUOUS
 62
     0
  2
_ORIGIN
 10
91.999999999999986
 20
-187.91114443843071
 30
0.0
 41
12.0
 42
12.0
 43
12.0
  0
TEXT
  5
293
  8
SIZE
  6
CONTINUOUS
 62
     0
 10
-69.942857142857136
 20
-167.91114443843071
 30
0.0
 40
64.0
  1
184
 41
0.9
  0
POINT
  5
294
  8
DEFPOINTS
  6
CONTINUOUS
 62
     0
 10
-92.0
 20
-32.5
 30
0.0
  0
POINT
  5
295
  8
DEFPOINTS
  6
CONTINUOUS
 62
     0
 10
92.0
 20
-32.5
 30
0.0
  0
POINT
  5
296
  8
DEFPOINTS
  6
CONTINUOUS
 62
     0
 10
91.999999999999986
 20
-187.91114443843071
 30
0.0
  0
ENDBLK
  5
297
  8
0
 62
    30
  0
ENDSEC
  0
SECTION
  2
ENTITIES
  0
LINE
  5
298
  8
DETAIL
  6
CONTINUOUS
 62
     5
 10
0.0
 20
0.0
 30
0.0
 11
106.0
 21
0.0
 31
0.0
  0
LINE
  5
299
  8
DETAIL
  6
CONTINUOUS
 62
     5
 10
0.0
 20
-35.0
 30
0.0
 11
89.500000000000014
 21
-35.0
 31
0.0
  0
LINE
  5
29A
  8
DETAIL
  6
CONTINUOUS
 62
     5
 10
94.500000000000014
 20
-10.0
 30
0.0
 11
103.4439609999999
 21
-10.0
 31
0.0
  0
LINE
  5
29B
  8
DETAIL
  6
CONTINUOUS
 62
     5
 10
105.686173
 20
-7.8456839999999959
 30
0.0
 11
106.0
 21
0.0
 31
0.0
  0
ARC
  5
29C
  8
DETAIL
  6
CONTINUOUS
 62
     5
 10
103.4439609999999
 20
-7.7559959999999979
 30
0.0
 40
2.2440039999999981
 50
270.0
 51
357.70938999999993
  0
LINE
  5
29D
  8
BASIS
  6
DASHDOT
 62
     6
 10
0.0
 20
72.025718999999995
 30
0.0
 11
0.0
 21
-70.277181999999996
 31
0.0
  0
LINE
  5
29E
  8
DETAIL
  6
CONTINUOUS
 62
     5
 10
73.5
 20
0.0
 30
0.0
 11
73.5
 21
62.0
 31
0.0
  0
ARC
  5
29F
  8
DETAIL
  6
CONTINUOUS
 62
     5
 10
-103.4439609999999
 20
-7.7559959999999979
 30
0.0
 40
2.2440039999999981
 50
182.2906099999999
 51
270.0
  0
LINE
  5
2A0
  8
DETAIL
  6
CONTINUOUS
 62
     5
 10
-105.686173
 20
-7.8456839999999959
 30
0.0
 11
-106.0
 21
0.0
 31
0.0
  0
LINE
  5
2A1
  8
DETAIL
  6
CONTINUOUS
 62
     5
 10
-94.500000000000014
 20
-10.0
 30
0.0
 11
-103.4439609999999
 21
-10.0
 31
0.0
  0
LINE
  5
2A2
  8
DETAIL
  6
CONTINUOUS
 62
     5
 10
0.0
 20
-35.0
 30
0.0
 11
-89.500000000000014
 21
-35.0
 31
0.0
  0
LINE
  5
2A3
  8
DETAIL
  6
CONTINUOUS
 62
     5
 10
0.0
 20
0.0
 30
0.0
 11
-106.0
 21
0.0
 31
0.0
  0
LINE
  5
2A4
  8
DETAIL
  6
CONTINUOUS
 62
     5
 10
-73.5
 20
0.0
 30
0.0
 11
-73.5
 21
62.0
 31
0.0
  0
POINT
  5
2A5
  8
ARRANGE
  6
CONTINUOUS
 62
     1
 10
0.0
 20
0.0
 30
0.0
  0
CIRCLE
  5
2A6
  8
ARRANGE
  6
CONTINUOUS
 62
     1
 10
0.0
 20
0.0
 30
0.0
 40
40.0
  0
LINE
  5
2A7
  8
SIZE
  6
CONTINUOUS
 62
    30
 10
-313.96998499999989
 20
-35.0
 30
0.0
 11
-313.96998499999989
 21
-161.24922699999991
 31
0.0
  0
LINE
  5
2A8
  8
SIZE
  6
CONTINUOUS
 62
    30
 10
-187.511876
 20
-12.0
 30
0.0
 11
-187.511876
 21
-161.90159499999979
 31
0.0
  0
LINE
  5
2A9
  8
SIZE
  6
CONTINUOUS
 62
    30
 10
-313.96998499999989
 20
54.0
 30
0.0
 11
-313.96998499999989
 21
181.24386899999999
 31
0.0
  0
LINE
  5
2AA
  8
DETAIL
  6
CONTINUOUS
 62
     5
 10
73.5
 20
62.0
 30
0.0
 11
-73.5
 21
62.0
 31
0.0
  0
LINE
  5
2AB
  8
OUTLINE
  6
CONTINUOUS
 62
     3
 10
-73.5
 20
0.0
 30
0.0
 11
-73.5
 21
62.0
 31
0.0
  0
LINE
  5
2AC
  8
OUTLINE
  6
CONTINUOUS
 62
     3
 10
73.5
 20
62.0
 30
0.0
 11
-73.5
 21
62.0
 31
0.0
  0
LINE
  5
2AD
  8
OUTLINE
  6
CONTINUOUS
 62
     3
 10
73.5
 20
0.0
 30
0.0
 11
73.5
 21
62.0
 31
0.0
  0
LINE
  5
2AE
  8
SIZE
  6
CONTINUOUS
 62
    30
 10
104.0
 20
-328.56434999999988
 30
0.0
 11
340.29537900000008
 21
-328.56434999999988
 31
0.0
  0
LINE
  5
2AF
  8
SIZE
  6
BYBLOCK
 62
    30
 10
-126.0
 20
0.0
 30
0.0
 11
-343.96998500000001
 21
0.0
 31
0.0
  0
LINE
  5
2B0
  8
SIZE
  6
BYBLOCK
 62
    30
 10
-93.499999999999986
 20
62.0
 30
0.0
 11
-343.96998500000001
 21
62.0
 31
0.0
  0
LINE
  5
2B1
  8
SIZE
  6
BYBLOCK
 62
    30
 10
-313.96998499999989
 20
63.0
 30
0.0
 11
-313.96998499999989
 21
65.0
 31
0.0
  0
LINE
  5
2B2
  8
SIZE
  6
BYBLOCK
 62
    30
 10
-313.96998499999989
 20
-2.0
 30
0.0
 11
-313.96998499999989
 21
-4.0
 31
0.0
  0
LINE
  5
2B3
  8
SIZE
  6
BYBLOCK
 62
    30
 10
-313.96998499999989
 20
61.0
 30
0.0
 11
-313.96998499999989
 21
0.0
 31
0.0
  0
TEXT
  5
2B4
  8
SIZE
  6
BYBLOCK
 62
    30
 10
-345.96998500000001
 20
86.282713999999999
 30
0.0
 40
64.0
  1
62
 50
90.0
 41
0.9
  0
LINE
  5
2B5
  8
SIZE
  6
BYBLOCK
 62
    30
 10
-73.5
 20
81.0
 30
0.0
 11
-73.5
 21
246.269498
 31
0.0
  0
LINE
  5
2B6
  8
SIZE
  6
BYBLOCK
 62
    30
 10
73.5
 20
81.0
 30
0.0
 11
73.5
 21
246.269498
 31
0.0
  0
LINE
  5
2B7
  8
SIZE
  6
BYBLOCK
 62
    30
 10
75.5
 20
216.26949799999991
 30
0.0
 11
77.5
 21
216.26949799999991
 31
0.0
  0
LINE
  5
2B8
  8
SIZE
  6
BYBLOCK
 62
    30
 10
-75.5
 20
216.26949799999991
 30
0.0
 11
-77.5
 21
216.26949799999991
 31
0.0
  0
LINE
  5
2B9
  8
SIZE
  6
BYBLOCK
 62
    30
 10
73.5
 20
216.26949799999991
 30
0.0
 11
-73.5
 21
216.26949799999991
 31
0.0
  0
TEXT
  5
2BA
  8
SIZE
  6
BYBLOCK
 62
    30
 10
-118.983986
 20
242.76480599999999
 30
0.0
 40
64.0
  1
φ147
 41
0.9
  0
LINE
  5
2BB
  8
SIZE
  6
BYBLOCK
 62
    30
 10
-106.0
 20
-20.0
 30
0.0
 11
-106.0
 21
-358.56434999999982
 31
0.0
  0
LINE
  5
2BC
  8
SIZE
  6
BYBLOCK
 62
    30
 10
106.0
 20
-20.0
 30
0.0
 11
106.0
 21
-358.56434999999982
 31
0.0
  0
LINE
  5
2BD
  8
SIZE
  6
BYBLOCK
 62
    30
 10
-104.0
 20
-328.56434999999988
 30
0.0
 11
0.0
 21
-328.56434999999988
 31
0.0
  0
LINE
  5
2BE
  8
SIZE
  6
BYBLOCK
 62
    30
 10
104.0
 20
-328.56434999999988
 30
0.0
 11
0.0
 21
-328.56434999999988
 31
0.0
  0
TEXT
  5
2BF
  8
SIZE
  6
BYBLOCK
 62
    30
 10
125.8537409999999
 20
-298.46623799999992
 30
0.0
 40
64.0
  1
φ212
 41
0.9
  0
TEXT
  5
2C0
  8
SIZE
  6
BYBLOCK
 62
    30
 10
121.584373
 20
-176.3128309999999
 30
0.0
 40
64.0
  1
φ184
 41
0.9
  0
LINE
  5
2C1
  8
SIZE
  6
BYBLOCK
 62
    30
 10
-111.881995
 20
-35.0
 30
0.0
 11
-343.96998500000001
 21
-35.0
 31
0.0
  0
LINE
  5
2C2
  8
SIZE
  6
BYBLOCK
 62
    30
 10
-126.0
 20
0.0
 30
0.0
 11
-343.96998500000001
 21
0.0
 31
0.0
  0
LINE
  5
2C3
  8
SIZE
  6
BYBLOCK
 62
    30
 10
-313.96998499999989
 20
2.0
 30
0.0
 11
-313.96998499999989
 21
4.0
 31
0.0
  0
LINE
  5
2C4
  8
SIZE
  6
BYBLOCK
 62
    30
 10
-313.96998499999989
 20
-37.0
 30
0.0
 11
-313.96998499999989
 21
-39.0
 31
0.0
  0
LINE
  5
2C5
  8
SIZE
  6
BYBLOCK
 62
    30
 10
-313.96998499999989
 20
0.0
 30
0.0
 11
-313.96998499999989
 21
-35.0
 31
0.0
  0
TEXT
  5
2C6
  8
SIZE
  6
BYBLOCK
 62
    30
 10
-345.96998500000001
 20
-157.41716700000001
 30
0.0
 40
64.0
  1
35
 50
90.0
 41
0.9
  0
LINE
  5
2C7
  8
SIZE
  6
BYBLOCK
 62
    30
 10
-123.443961
 20
-10.0
 30
0.0
 11
-217.51187599999969
 21
-10.0
 31
0.0
  0
LINE
  5
2C8
  8
SIZE
  6
BYBLOCK
 62
    30
 10
-126.0
 20
0.0
 30
0.0
 11
-217.51187599999969
 21
0.0
 31
0.0
  0
LINE
  5
2C9
  8
SIZE
  6
BYBLOCK
 62
    30
 10
-187.511876
 20
2.0
 30
0.0
 11
-187.511876
 21
4.0
 31
0.0
  0
LINE
  5
2CA
  8
SIZE
  6
BYBLOCK
 62
    30
 10
-187.511876
 20
-12.0
 30
0.0
 11
-187.511876
 21
-14.0
 31
0.0
  0
LINE
  5
2CB
  8
SIZE
  6
BYBLOCK
 62
    30
 10
-187.511876
 20
0.0
 30
0.0
 11
-187.511876
 21
-10.0
 31
0.0
  0
TEXT
  5
2CC
  8
SIZE
  6
BYBLOCK
 62
    30
 10
-219.51187599999969
 20
-150.52170599999991
 30
0.0
 40
64.0
  1
10
 50
90.0
 41
0.9
  0
CIRCLE
  5
2CD
  8
SIZE
  6
CONTINUOUS
 62
    30
 10
-187.511876
 20
-10.0
 30
0.0
 40
6.0
  0
CIRCLE
  5
2CE
  8
SIZE
  6
CONTINUOUS
 62
    30
 10
-187.511876
 20
0.0
 30
0.0
 40
6.0
  0
CIRCLE
  5
2CF
  8
SIZE
  6
CONTINUOUS
 62
    30
 10
-313.96998499999989
 20
-35.0
 30
0.0
 40
6.0
  0
CIRCLE
  5
2D0
  8
SIZE
  6
CONTINUOUS
 62
    30
 10
-313.96998499999989
 20
0.0
 30
0.0
 40
6.0
  0
CIRCLE
  5
2D1
  8
SIZE
  6
CONTINUOUS
 62
    30
 10
106.0
 20
-328.56434999999988
 30
0.0
 40
6.0
  0
CIRCLE
  5
2D2
  8
SIZE
  6
CONTINUOUS
 62
    30
 10
-106.0
 20
-328.56434999999988
 30
0.0
 40
6.0
  0
CIRCLE
  5
2D3
  8
SIZE
  6
CONTINUOUS
 62
    30
 10
-73.5
 20
216.26949799999991
 30
0.0
 40
6.0
  0
CIRCLE
  5
2D4
  8
SIZE
  6
CONTINUOUS
 62
    30
 10
73.5
 20
216.26949799999991
 30
0.0
 40
6.0
  0
CIRCLE
  5
2D5
  8
SIZE
  6
CONTINUOUS
 62
    30
 10
-313.96998499999989
 20
0.0
 30
0.0
 40
6.0
  0
CIRCLE
  5
2D6
  8
SIZE
  6
CONTINUOUS
 62
    30
 10
-313.96998499999989
 20
62.0
 30
0.0
 40
6.0
  0
TEXT
  5
2D7
  8
ETC
  6
CONTINUOUS
 62
    61
 10
258.56601757866542
 20
347.46573638422689
 30
0.0
 40
64.0
  1
P-18RSQD2_6
 41
0.9
  0
TEXT
  5
2D8
  8
ETC
  6
CONTINUOUS
 62
    61
 10
249.3143955786654
 20
246.38981338422701
 30
0.0
 40
64.0
  1
システム部材
 41
0.9
  0
TEXT
  5
2D9
  8
ETC
  6
CONTINUOUS
 62
    61
 10
379.14286345282591
 20
162.43513473937111
 30
0.0
 40
50.0
  1
P-18RSQD2
 41
0.9
  0
TEXT
  5
2DA
  8
ETC
  6
CONTINUOUS
 62
    61
 10
379.14286345282591
 20
90.710302473067742
 30
0.0
 40
50.0
  1
P-18RSQDK2
 41
0.9
  0
LINE
  5
2DF
  8
SIZE
  6
CONTINUOUS
 62
    30
 10
-187.511876
 20
0.0
 30
0.0
 11
-187.511876
 21
24.56661516192252
 31
0.0
  0
LINE
  5
2E0
  8
DETAIL
 62
     5
 10
92.0
 20
-12.5
 30
0.0
 11
92.0
 21
-32.5
 31
0.0
  0
LINE
  5
2E1
  8
DETAIL
 62
     5
 10
-92.0
 20
-12.5
 30
0.0
 11
-92.0
 21
-32.5
 31
0.0
  0
ARC
  5
2E2
  8
DETAIL
  6
CONTINUOUS
 62
     5
 10
-89.500000000000014
 20
-32.5
 30
0.0
 40
2.5
 50
180.0
 51
270.0
  0
ARC
  5
2E3
  8
DETAIL
  6
CONTINUOUS
 62
     5
 10
89.500000000000014
 20
-32.5
 30
0.0
 40
2.5
 50
270.0
 51
0.0
  0
ARC
  5
2E4
  8
DETAIL
  6
CONTINUOUS
 62
     5
 10
94.500000000000014
 20
-12.5
 30
0.0
 40
2.5
 50
90.0
 51
180.0
  0
ARC
  5
2E5
  8
DETAIL
  6
CONTINUOUS
 62
     5
 10
-94.500000000000014
 20
-12.5
 30
0.0
 40
2.5
 50
0.0
 51
90.0
  0
LINE
  5
2E6
  8
DETAIL
  6
CONTINUOUS
 62
     5
 10
-94.500000000000014
 20
-10.0
 30
0.0
 11
94.500000000000014
 21
-10.0
 31
0.0
  0
LINE
  5
2E7
  8
OUTLINE
 62
     3
 10
-92.0
 20
-12.5
 30
0.0
 11
-91.999999999999986
 21
-32.5
 31
0.0
  0
LINE
  5
2E8
  8
OUTLINE
 62
     3
 10
92.0
 20
-12.5
 30
0.0
 11
91.999999999999986
 21
-32.5
 31
0.0
  0
ARC
  5
2E9
  8
OUTLINE
  6
CONTINUOUS
 62
     3
 10
-94.500000000000014
 20
-12.5
 30
0.0
 40
2.5
 50
0.0
 51
90.0
  0
ARC
  5
2EA
  8
OUTLINE
  6
CONTINUOUS
 62
     3
 10
94.500000000000014
 20
-12.5
 30
0.0
 40
2.5
 50
90.0
 51
180.0
  0
ARC
  5
2EB
  8
OUTLINE
  6
CONTINUOUS
 62
     3
 10
89.499999999999986
 20
-32.5
 30
0.0
 40
2.5
 50
270.0
 51
359.99999999999972
  0
ARC
  5
2EC
  8
OUTLINE
  6
CONTINUOUS
 62
     3
 10
-89.499999999999986
 20
-32.5
 30
0.0
 40
2.5
 50
180.0
 51
270.0
  0
LINE
  5
2ED
  8
SIZE
  6
CONTINUOUS
 62
    30
 10
-92.0
 20
-52.5
 30
0.0
 11
-92.0
 21
-217.91114443843071
 31
0.0
  0
LINE
  5
2EE
  8
SIZE
  6
CONTINUOUS
 62
    30
 10
92.0
 20
-52.5
 30
0.0
 11
91.999999999999986
 21
-217.91114443843071
 31
0.0
  0
LINE
  5
2EF
  8
SIZE
  6
CONTINUOUS
 62
    30
 10
-80.000000000000014
 20
-187.91114443843071
 30
0.0
 11
79.999999999999986
 21
-187.91114443843071
 31
0.0
  0
LINE
  5
2F0
  8
SIZE
  6
CONTINUOUS
 62
    30
 10
91.999999999999986
 20
-187.91114443843071
 30
0.0
 11
330.29487565635281
 21
-187.91114443843071
 31
0.0
  0
CIRCLE
  5
2F1
  8
SIZE
  6
BYBLOCK
 62
    30
 10
-92.0
 20
-187.91114443843071
 30
0.0
 40
6.0
  0
LINE
  5
2F2
  8
SIZE
  6
BYBLOCK
 62
    30
 10
-92.0
 20
-187.91114443843071
 30
0.0
 11
-80.000000000000014
 21
-187.91114443843071
 31
0.0
  0
CIRCLE
  5
2F3
  8
SIZE
  6
BYBLOCK
 62
    30
 10
91.999999999999986
 20
-187.91114443843071
 30
0.0
 40
6.0
  0
LINE
  5
2F4
  8
SIZE
  6
BYBLOCK
 62
    30
 10
91.999999999999986
 20
-187.91114443843071
 30
0.0
 11
79.999999999999986
 21
-187.91114443843071
 31
0.0
  0
LINE
  5
2F5
  8
OUTLINE
  6
CONTINUOUS
 62
     3
 10
-106.0
 20
0.0
 30
0.0
 11
106.0
 21
0.0
 31
0.0
  0
LINE
  5
2F8
  8
OUTLINE
  6
CONTINUOUS
 62
     3
 10
-89.499999999999986
 20
-35.0
 30
0.0
 11
89.500000000000014
 21
-35.0
 31
0.0
  0
LINE
  5
2F9
  8
OUTLINE
  6
CONTINUOUS
 62
     3
 10
-103.4439648431982
 20
-9.9999999999999982
 30
0.0
 11
103.4439648431982
 21
-10.0
 31
0.0
  0
LINE
  5
2FD
  8
OUTLINE
  6
CONTINUOUS
 62
     3
 10
-106.0
 20
0.0
 30
0.0
 11
-105.6861717868738
 21
-7.8456884704563929
 31
0.0
  0
LINE
  5
2FE
  8
OUTLINE
  6
CONTINUOUS
 62
     3
 10
106.0
 20
0.0
 30
0.0
 11
105.6861717868738
 21
-7.8456884704564001
 31
0.0
  0
ARC
  5
2FF
  8
OUTLINE
  6
CONTINUOUS
 62
     3
 10
103.4439648431982
 20
-7.756000000000002
 30
0.0
 40
2.2440000000000002
 50
270.0
 51
357.70938504086809
  0
ARC
  5
300
  8
OUTLINE
  6
CONTINUOUS
 62
     3
 10
-103.4439648431982
 20
-7.7559999999999958
 30
0.0
 40
2.2440000000000002
 50
182.29061495913169
 51
270.0
  0
ENDSEC
  0
EOF
