  0
SECTION
  2
HEADER
  9
$ACADVER
  1
AC1009
  9
$INSBASE
 10
0.0
 20
0.0
 30
0.0
  9
$EXTMIN
 10
-1129.211402648609
 20
-588.23545702993385
 30
-0.0015258207003583
  9
$EXTMAX
 10
835.69337501620612
 20
420.55665148719697
 30
0.0000000349246037
  9
$LIMMIN
 10
-4200.0
 20
-2970.0
  9
$LIMMAX
 10
4200.0
 20
2970.0
  9
$ORTHOMODE
 70
     1
  9
$REGENMODE
 70
     1
  9
$FILLMODE
 70
     1
  9
$QTEXTMODE
 70
     0
  9
$MIRRTEXT
 70
     0
  9
$DRAGMODE
 70
     2
  9
$LTSCALE
 40
20.0
  9
$OSMODE
 70
    47
  9
$ATTMODE
 70
     1
  9
$TEXTSIZE
 40
64.0
  9
$TRACEWID
 40
0.05
  9
$TEXTSTYLE
  7
STANDARD
  9
$CLAYER
  8
OUTLINE
  9
$CELTYPE
  6
CONTINUOUS
  9
$CECOLOR
 62
     3
  9
$DIMSCALE
 40
1.0
  9
$DIMASZ
 40
2.0
  9
$DIMEXO
 40
20.0
  9
$DIMDLI
 40
200.0
  9
$DIMRND
 40
0.0
  9
$DIMDLE
 40
0.0
  9
$DIMEXE
 40
30.0
  9
$DIMTP
 40
0.0
  9
$DIMTM
 40
0.0
  9
$DIMTXT
 40
64.0
  9
$DIMCEN
 40
0.09
  9
$DIMTSZ
 40
0.0
  9
$DIMTOL
 70
     0
  9
$DIMLIM
 70
     0
  9
$DIMTIH
 70
     0
  9
$DIMTOH
 70
     0
  9
$DIMSE1
 70
     0
  9
$DIMSE2
 70
     0
  9
$DIMTAD
 70
     1
  9
$DIMZIN
 70
     8
  9
$DIMBLK
  1
DOT1
  9
$DIMASO
 70
     1
  9
$DIMSHO
 70
     0
  9
$DIMPOST
  1

  9
$DIMAPOST
  1

  9
$DIMALT
 70
     0
  9
$DIMALTD
 70
     2
  9
$DIMALTF
 40
25.399999999999999
  9
$DIMLFAC
 40
1.0
  9
$DIMTOFL
 70
     1
  9
$DIMTVP
 40
0.0
  9
$DIMTIX
 70
     1
  9
$DIMSOXD
 70
     0
  9
$DIMSAH
 70
     0
  9
$DIMBLK1
  1

  9
$DIMBLK2
  1

  9
$DIMSTYLE
  2
STANDARD
  9
$DIMCLRD
 70
     7
  9
$DIMCLRE
 70
     7
  9
$DIMCLRT
 70
     7
  9
$DIMTFAC
 40
1.0
  9
$DIMGAP
 40
0.09
  9
$LUNITS
 70
     2
  9
$LUPREC
 70
     4
  9
$SKETCHINC
 40
0.1
  9
$FILLETRAD
 40
10.0
  9
$AUNITS
 70
     1
  9
$AUPREC
 70
     3
  9
$MENU
  1
ACAD
  9
$ELEVATION
 40
0.0
  9
$PELEVATION
 40
0.0
  9
$THICKNESS
 40
0.0
  9
$LIMCHECK
 70
     1
  9
$BLIPMODE
 70
     0
  9
$CHAMFERA
 40
0.0
  9
$CHAMFERB
 40
0.0
  9
$SKPOLY
 70
     0
  9
$TDCREATE
 40
2451606.7748495368
  9
$TDUPDATE
 40
2455075.4644704629
  9
$TDINDWG
 40
0.0528133565
  9
$TDUSRTIMER
 40
0.0528131829
  9
$USRTIMER
 70
     1
  9
$ANGBASE
 50
0.0
  9
$ANGDIR
 70
     0
  9
$PDMODE
 70
     3
  9
$PDSIZE
 40
-2.0
  9
$PLINEWID
 40
0.0
  9
$COORDS
 70
     0
  9
$SPLFRAME
 70
     0
  9
$SPLINETYPE
 70
     6
  9
$SPLINESEGS
 70
     8
  9
$ATTDIA
 70
     0
  9
$ATTREQ
 70
     1
  9
$HANDLING
 70
     1
  9
$HANDSEED
  5
232
  9
$SURFTAB1
 70
     6
  9
$SURFTAB2
 70
     6
  9
$SURFTYPE
 70
     6
  9
$SURFU
 70
     6
  9
$SURFV
 70
     6
  9
$UCSNAME
  2

  9
$UCSORG
 10
0.0
 20
0.0
 30
0.0
  9
$UCSXDIR
 10
1.0
 20
0.0
 30
0.0
  9
$UCSYDIR
 10
0.0
 20
1.0
 30
0.0
  9
$PUCSNAME
  2

  9
$PUCSORG
 10
0.0
 20
0.0
 30
0.0
  9
$PUCSXDIR
 10
1.0
 20
0.0
 30
0.0
  9
$PUCSYDIR
 10
0.0
 20
1.0
 30
0.0
  9
$USERI1
 70
     0
  9
$USERI2
 70
     0
  9
$USERI3
 70
     0
  9
$USERI4
 70
     0
  9
$USERI5
 70
     0
  9
$USERR1
 40
20.0
  9
$USERR2
 40
0.0
  9
$USERR3
 40
0.0
  9
$USERR4
 40
0.0
  9
$USERR5
 40
0.0
  9
$WORLDVIEW
 70
     1
  9
$SHADEDGE
 70
     3
  9
$SHADEDIF
 70
    70
  9
$TILEMODE
 70
     1
  9
$MAXACTVP
 70
    48
  9
$PLIMCHECK
 70
     0
  9
$PEXTMIN
 10
-1.0000000000000000E+020
 20
-1.0000000000000000E+020
 30
-1.0000000000000000E+020
  9
$PEXTMAX
 10
1.0000000000000000E+020
 20
1.0000000000000000E+020
 30
1.0000000000000000E+020
  9
$PLIMMIN
 10
0.0
 20
0.0
  9
$PLIMMAX
 10
12.0
 20
9.0
  9
$UNITMODE
 70
     0
  9
$VISRETAIN
 70
     0
  9
$PLINEGEN
 70
     0
  9
$PSLTSCALE
 70
     0
  0
ENDSEC
  0
SECTION
  2
TABLES
  0
TABLE
  2
VPORT
 70
     1
  0
VPORT
  2
*ACTIVE
 70
     0
 10
0.0
 20
0.0
 11
1.0
 21
1.0
 12
-136.12579277471531
 22
-123.4077187700225
 13
0.0
 23
0.0
 14
400.0
 24
400.0
 15
400.0
 25
400.0
 16
0.0
 26
0.0
 36
1.0
 17
0.0
 27
0.0
 37
0.0
 40
1244.1547153930719
 41
1.78125
 42
50.0
 43
0.0
 44
0.0
 50
0.0
 51
0.0
 71
     0
 72
   500
 73
     1
 74
     0
 75
     0
 76
     0
 77
     0
 78
     1
  0
ENDTAB
  0
TABLE
  2
LTYPE
 70
     2
  0
LTYPE
  2
CONTINUOUS
 70
     0
  3
実線
 72
    65
 73
     0
 40
0.0
  0
LTYPE
  2
DASHDOT
 70
     0
  3
____ _ ____ _ ____ _ ____ _ ____ _ ____ _ ____
 72
    65
 73
     4
 40
5.5
 49
4.0
 49
-0.6
 49
0.3
 49
-0.6
  0
ENDTAB
  0
TABLE
  2
LAYER
 70
    12
  0
LAYER
  2
0
 70
     0
 62
     7
  6
CONTINUOUS
  0
LAYER
  2
OUTLINE
 70
     0
 62
     3
  6
CONTINUOUS
  0
LAYER
  2
SIZE
 70
     0
 62
    30
  6
CONTINUOUS
  0
LAYER
  2
DETAIL
 70
     0
 62
     5
  6
CONTINUOUS
  0
LAYER
  2
BASIS
 70
     0
 62
     6
  6
DASHDOT
  0
LAYER
  2
NOTE
 70
     0
 62
     4
  6
CONTINUOUS
  0
LAYER
  2
ARRANGE
 70
     0
 62
     1
  6
CONTINUOUS
  0
LAYER
  2
FIX
 70
     0
 62
    11
  6
CONTINUOUS
  0
LAYER
  2
ETC
 70
     0
 62
    61
  6
CONTINUOUS
  0
LAYER
  2
DEFPOINTS
 70
     0
 62
     7
  6
CONTINUOUS
  0
LAYER
  2
SERVICESPACE
 70
     0
 62
     2
  6
DASHDOT
  0
LAYER
  2
SYMBOLLINE
 70
     0
 62
    15
  6
CONTINUOUS
  0
ENDTAB
  0
TABLE
  2
STYLE
 70
     2
  0
STYLE
  2
STANDARD
 70
     0
 40
0.0
 41
0.9
 50
0.0
 71
     0
 42
64.0
  3
SIMPLEX
  4
BIGFONT
  0
STYLE
  2
ANNOTATIVE
 70
     0
 40
0.0
 41
1.0
 50
0.0
 71
     0
 42
0.2
  3
txt
  4

  0
ENDTAB
  0
TABLE
  2
VIEW
 70
     1
  0
VIEW
  2
ALL
 70
     0
 40
6374.9789810000002
 10
0.0
 20
58.11501599999999
 41
8842.1052629999976
 11
0.0
 21
0.0
 31
1.0
 12
0.0
 22
0.0
 32
0.0
 42
50.0
 43
0.0
 44
0.0
 50
0.0
 71
     0
  0
ENDTAB
  0
TABLE
  2
UCS
 70
     0
  0
ENDTAB
  0
TABLE
  2
APPID
 70
     3
  0
APPID
  2
ACAD
 70
     0
  0
APPID
  2
ACADANNOTATIVE
 70
     0
  0
APPID
  2
ACAD_MLEADERVER
 70
     0
  0
ENDTAB
  0
TABLE
  2
DIMSTYLE
 70
     2
  0
DIMSTYLE
  2
STANDARD
 70
     0
  3

  4

  5

  6

  7

 40
1.0
 41
0.18
 42
0.0625
 43
0.38
 44
0.18
 45
0.0
 46
0.0
 47
0.0
 48
0.0
140
0.18
141
0.09
142
0.0
143
25.399999999999999
144
1.0
145
0.0
146
1.0
147
0.09
 71
     0
 72
     0
 73
     1
 74
     1
 75
     0
 76
     0
 77
     0
 78
     0
170
     0
171
     2
172
     0
173
     0
174
     0
175
     0
176
     7
177
     7
178
     7
  0
DIMSTYLE
  2
ANNOTATIVE
 70
     0
  3

  4

  5

  6

  7

 40
1.0
 41
0.18
 42
0.0625
 43
0.38
 44
0.18
 45
0.0
 46
0.0
 47
0.0
 48
0.0
140
0.18
141
0.09
142
0.0
143
25.399999999999999
144
1.0
145
0.0
146
1.0
147
0.09
 71
     0
 72
     0
 73
     1
 74
     1
 75
     0
 76
     0
 77
     0
 78
     0
170
     0
171
     2
172
     0
173
     0
174
     0
175
     0
176
     0
177
     0
178
     0
  0
ENDTAB
  0
ENDSEC
  0
SECTION
  2
BLOCKS
  0
BLOCK
  8
0
  2
$MODEL_SPACE
 70
     0
 10
0.0
 20
0.0
 30
0.0
  3
$MODEL_SPACE
  1

  0
ENDBLK
  5
1E1
  8
0
  0
BLOCK
 67
     1
  8
0
  2
$PAPER_SPACE
 70
     0
 10
0.0
 20
0.0
 30
0.0
  3
$PAPER_SPACE
  1

  0
ENDBLK
  5
1DD
 67
     1
  8
0
  0
BLOCK
  8
SIZE
  2
DOT1
 70
     0
 10
0.0
 20
0.0
 30
0.0
  3
DOT1
  1

  0
CIRCLE
  5
35
  8
SIZE
  6
CONTINUOUS
 62
     8
 10
0.0
 20
0.0
 30
0.0
 40
3.0
  0
ENDBLK
  5
36
  8
SIZE
  0
ENDSEC
  0
SECTION
  2
ENTITIES
  0
ARC
  5
37
  8
DETAIL
  6
CONTINUOUS
 62
     5
 10
15.0
 20
-2.0
 30
0.0
 40
100.0
 50
0.0
 51
90.0
  0
ARC
  5
38
  8
DETAIL
  6
CONTINUOUS
 62
     5
 10
15.0
 20
-2.0
 30
0.0
 40
93.187517999999983
 50
0.0
 51
16.483914000000009
  0
LINE
  5
39
  8
DETAIL
  6
CONTINUOUS
 62
     5
 10
3.0713939999999971
 20
-134.4717879999998
 30
0.0
 11
15.660949
 21
-145.572124
 31
0.0
  0
LINE
  5
3A
  8
DETAIL
  6
CONTINUOUS
 62
     5
 10
0.0
 20
-135.81872899999991
 30
0.0
 11
22.678605999999998
 21
-152.38302200000001
 31
0.0
  0
LINE
  5
3B
  8
DETAIL
  6
CONTINUOUS
 62
     5
 10
15.660949
 20
-145.572124
 30
0.0
 11
23.0
 21
-152.0
 31
0.0
  0
LINE
  5
3C
  8
DETAIL
  6
CONTINUOUS
 62
     5
 10
23.0
 20
-152.0
 30
0.0
 11
22.678605999999998
 21
-152.38302200000001
 31
0.0
  0
LINE
  5
3D
  8
DETAIL
  6
CONTINUOUS
 62
     5
 10
3.0
 20
-121.0
 30
0.0
 11
3.0713939999999971
 21
-134.4717879999998
 31
0.0
  0
LINE
  5
3E
  8
DETAIL
  6
CONTINUOUS
 62
     5
 10
7.145216000000004
 20
-122.31451199999999
 30
0.0
 11
108.187518
 21
-151.66665699999999
 31
0.0
  0
LINE
  5
3F
  8
DETAIL
  6
CONTINUOUS
 62
     5
 10
7.145216000000004
 20
-122.31451199999999
 30
0.0
 11
5.7189479999999833
 21
-121.0
 31
0.0
  0
LINE
  5
40
  8
DETAIL
  6
CONTINUOUS
 62
     5
 10
6.0
 20
-121.0
 30
0.0
 11
0.0
 21
-121.0
 31
0.0
  0
ARC
  5
41
  8
DETAIL
  6
CONTINUOUS
 62
     5
 10
6.0
 20
-119.0
 30
0.0
 40
2.0
 50
270.0
 51
0.0
  0
LINE
  5
42
  8
DETAIL
  6
CONTINUOUS
 62
     5
 10
7.0236369999999928
 20
-120.718187
 30
0.0
 11
115.0
 21
-152.0
 31
0.0
  0
LINE
  5
43
  8
DETAIL
  6
CONTINUOUS
 62
     5
 10
0.0
 20
-135.81872899999991
 30
0.0
 11
0.0
 21
-121.0
 31
0.0
  0
LINE
  5
44
  8
DETAIL
  6
CONTINUOUS
 62
     5
 10
8.0
 20
-119.0
 30
0.0
 11
8.0
 21
106.0
 31
0.0
  0
LINE
  5
45
  8
DETAIL
  6
CONTINUOUS
 62
     5
 10
0.0
 20
-121.0
 30
0.0
 11
0.0
 21
30.0
 31
0.0
  0
LINE
  5
46
  8
DETAIL
  6
CONTINUOUS
 62
     5
 10
108.187518
 20
-151.66665699999999
 30
0.0
 11
108.187518
 21
-2.0
 31
0.0
  0
LINE
  5
47
  8
DETAIL
  6
CONTINUOUS
 62
     5
 10
115.0
 20
-152.0
 30
0.0
 11
115.0
 21
-2.0
 31
0.0
  0
LINE
  5
48
  8
DETAIL
  6
CONTINUOUS
 62
     5
 10
10.0
 20
98.0
 30
0.0
 11
15.0
 21
98.0
 31
0.0
  0
LINE
  5
49
  8
DETAIL
  6
CONTINUOUS
 62
     5
 10
0.0
 20
30.0
 30
0.0
 11
0.0
 21
108.0
 31
0.0
  0
ARC
  5
4A
  8
DETAIL
  6
CONTINUOUS
 62
     5
 10
6.0
 20
106.0
 30
0.0
 40
2.0
 50
0.0
 51
90.0
  0
LINE
  5
4B
  8
DETAIL
  6
CONTINUOUS
 62
     5
 10
11.59421899999999
 20
98.0
 30
0.0
 11
8.0
 21
98.0
 31
0.0
  0
LINE
  5
4C
  8
DETAIL
  6
CONTINUOUS
 62
     5
 10
6.0
 20
108.0
 30
0.0
 11
0.0
 21
108.0
 31
0.0
  0
LINE
  5
4D
  8
BASIS
  6
DASHDOT
 62
     6
 10
-125.073802
 20
0.0
 30
0.0
 11
181.12414699999979
 21
0.0
 31
0.0
  0
LINE
  5
4E
  8
SIZE
  6
CONTINUOUS
 62
    30
 10
0.0
 20
128.0
 30
0.0
 11
0.0
 21
280.225844
 31
0.0
  0
LINE
  5
4F
  8
SIZE
  6
CONTINUOUS
 62
    30
 10
8.0
 20
126.0
 30
0.0
 11
8.0
 21
280.225844
 31
0.0
  0
LINE
  5
50
  8
SIZE
  6
CONTINUOUS
 62
    30
 10
2.0
 20
250.22584399999991
 30
0.0
 11
0.0
 21
250.22584399999991
 31
0.0
  0
TEXT
  5
51
  8
SIZE
  6
CONTINUOUS
 62
    30
 10
34.054446999999911
 20
282.225844
 30
0.0
 40
64.0
  1
8
 41
0.9
 72
     1
 11
53.254446999999907
 21
282.225844
 31
0.0
  0
CIRCLE
  5
52
  8
SIZE
  6
CONTINUOUS
 62
    30
 10
0.0
 20
250.22584399999991
 30
0.0
 40
6.0
  0
CIRCLE
  5
53
  8
SIZE
  6
CONTINUOUS
 62
    30
 10
8.0
 20
250.22584399999991
 30
0.0
 40
6.0
  0
LINE
  5
57
  8
SIZE
  6
CONTINUOUS
 62
    30
 10
115.0
 20
-172.0
 30
0.0
 11
115.0
 21
-453.02354799999989
 31
0.0
  0
LINE
  5
58
  8
SIZE
  6
CONTINUOUS
 62
    30
 10
0.0
 20
-155.81872899999999
 30
0.0
 11
0.0
 21
-453.02354799999989
 31
0.0
  0
LINE
  5
59
  8
SIZE
  6
CONTINUOUS
 62
    30
 10
115.0
 20
-423.02354800000012
 30
0.0
 11
2.0
 21
-423.02354800000012
 31
0.0
  0
TEXT
  5
5A
  8
SIZE
  6
CONTINUOUS
 62
    30
 10
140.13920071428561
 20
-391.02354800000001
 30
0.0
 40
64.0
  1
115
 41
0.9
 72
     1
 11
203.2249149999999
 21
-391.02354800000001
 31
0.0
  0
CIRCLE
  5
5B
  8
SIZE
  6
CONTINUOUS
 62
    30
 10
115.0
 20
-423.02354800000012
 30
0.0
 40
6.0
  0
CIRCLE
  5
5C
  8
SIZE
  6
CONTINUOUS
 62
    30
 10
0.0
 20
-423.02354800000012
 30
0.0
 40
6.0
  0
LINE
  5
60
  8
SIZE
  6
CONTINUOUS
 62
    30
 10
2.0
 20
-423.02354800000012
 30
0.0
 11
-184.48109600000001
 21
-423.02354800000012
 31
0.0
  0
LINE
  5
61
  8
SIZE
  6
CONTINUOUS
 62
    30
 10
115.0
 20
-423.02354800000012
 30
0.0
 11
271.49686299999991
 21
-423.02354800000012
 31
0.0
  0
LINE
  5
62
  8
SIZE
  6
CONTINUOUS
 62
    30
 10
0.0
 20
-155.81872899999999
 30
0.0
 11
0.0
 21
-324.15501599999999
 31
0.0
  0
LINE
  5
63
  8
SIZE
  6
CONTINUOUS
 62
    30
 10
23.0
 20
-172.0
 30
0.0
 11
23.0
 21
-324.15501599999999
 31
0.0
  0
TEXT
  5
65
  8
SIZE
  6
CONTINUOUS
 62
    30
 10
-174.8427744285714
 20
-262.15501599999988
 30
0.0
 40
64.0
  1
23
 41
0.9
 72
     1
 11
-128.214203
 21
-262.15501599999988
 31
0.0
  0
CIRCLE
  5
66
  8
SIZE
  6
CONTINUOUS
 62
    30
 10
0.0
 20
-294.15501599999988
 30
0.0
 40
6.0
  0
CIRCLE
  5
67
  8
SIZE
  6
CONTINUOUS
 62
    30
 10
23.0
 20
-294.15501599999988
 30
0.0
 40
6.0
  0
LINE
  5
6B
  8
SIZE
  6
CONTINUOUS
 62
    30
 10
23.0
 20
-294.15501599999988
 30
0.0
 11
-184.08825699999991
 21
-294.15501599999988
 31
0.0
  0
LINE
  5
6C
  8
SIZE
  6
CONTINUOUS
 62
    30
 10
-162.779663
 20
98.0
 30
0.0
 11
-162.779663
 21
225.06053499999999
 31
0.0
  0
LINE
  5
6D
  8
NOTE
  6
CONTINUOUS
 62
     4
 10
4.0
 20
74.0
 30
0.0
 11
4.0
 21
114.0
 31
0.0
  0
LINE
  5
6E
  8
NOTE
  6
CONTINUOUS
 62
     4
 10
24.0
 20
94.0
 30
0.0
 11
-16.0
 21
94.0
 31
0.0
  0
LINE
  5
6F
  8
NOTE
  6
CONTINUOUS
 62
     4
 10
4.0
 20
-103.0
 30
0.0
 11
4.0
 21
-63.0
 31
0.0
  0
LINE
  5
70
  8
NOTE
  6
CONTINUOUS
 62
     4
 10
24.0
 20
-83.0
 30
0.0
 11
-16.0
 21
-83.0
 31
0.0
  0
CIRCLE
  5
71
  8
FIX
  6
CONTINUOUS
 62
    11
 10
4.0
 20
94.0
 30
0.0
 40
2.25
  0
CIRCLE
  5
72
  8
FIX
  6
CONTINUOUS
 62
    11
 10
4.0
 20
-83.0
 30
0.0
 40
2.25
  0
TEXT
  5
73
  8
NOTE
  6
CONTINUOUS
 62
     4
 10
-1125.26099
 20
-164.37550100000001
 30
0.0
 40
64.0
  1
4×φ4.5ノックアウト取付穴
 41
0.9
  0
LINE
  5
74
  8
NOTE
  6
CONTINUOUS
 62
     4
 10
-176.52160000000001
 20
-193.93112999999991
 30
0.0
 11
-1128.7100689999991
 21
-193.93112999999991
 31
0.0
  0
LINE
  5
75
  8
NOTE
  6
CONTINUOUS
 62
     4
 10
4.0
 20
-83.0
 30
0.0
 11
-176.52160000000001
 21
-193.93112999999991
 31
0.0
  0
LINE
  5
76
  8
NOTE
  6
CONTINUOUS
 62
     4
 10
-35.081139
 20
-91.524349999999998
 30
0.0
 11
4.0
 21
-83.0
 31
0.0
  0
LINE
  5
77
  8
NOTE
  6
CONTINUOUS
 62
     4
 10
4.0
 20
-83.0
 30
0.0
 11
-25.583083999999999
 21
-109.92287399999999
 31
0.0
  0
POINT
  5
78
  8
ARRANGE
  6
CONTINUOUS
 62
     1
 10
0.0
 20
0.0
 30
0.0
  0
CIRCLE
  5
79
  8
ARRANGE
  6
CONTINUOUS
 62
     1
 10
0.0
 20
0.0
 30
0.0
 40
40.0
  0
LINE
  5
7A
  8
OUTLINE
  6
CONTINUOUS
 62
     3
 10
6.0
 20
108.0
 30
0.0
 11
0.0
 21
108.0
 31
0.0
  0
LINE
  5
7B
  8
OUTLINE
  6
CONTINUOUS
 62
     3
 10
11.59421899999999
 20
98.0
 30
0.0
 11
8.0
 21
98.0
 31
0.0
  0
ARC
  5
7C
  8
OUTLINE
  6
CONTINUOUS
 62
     3
 10
6.0
 20
106.0
 30
0.0
 40
2.0
 50
0.0
 51
90.0
  0
LINE
  5
7D
  8
OUTLINE
  6
CONTINUOUS
 62
     3
 10
0.0
 20
30.0
 30
0.0
 11
0.0
 21
108.0
 31
0.0
  0
LINE
  5
7E
  8
OUTLINE
  6
CONTINUOUS
 62
     3
 10
10.0
 20
98.0
 30
0.0
 11
15.0
 21
98.0
 31
0.0
  0
LINE
  5
7F
  8
OUTLINE
  6
CONTINUOUS
 62
     3
 10
115.0
 20
-152.0
 30
0.0
 11
115.0
 21
-2.0
 31
0.0
  0
LINE
  5
80
  8
OUTLINE
  6
CONTINUOUS
 62
     3
 10
0.0
 20
-121.0
 30
0.0
 11
0.0
 21
30.0
 31
0.0
  0
LINE
  5
81
  8
OUTLINE
  6
CONTINUOUS
 62
     3
 10
8.0
 20
-119.0
 30
0.0
 11
8.0
 21
106.0
 31
0.0
  0
LINE
  5
82
  8
OUTLINE
  6
CONTINUOUS
 62
     3
 10
108.187518
 20
-150.02635699999999
 30
0.0
 11
115.0
 21
-152.0
 31
0.0
  0
ARC
  5
83
  8
OUTLINE
  6
CONTINUOUS
 62
     3
 10
6.0
 20
-119.0
 30
0.0
 40
2.0
 50
270.0
 51
0.0
  0
LINE
  5
84
  8
OUTLINE
  6
CONTINUOUS
 62
     3
 10
6.0
 20
-121.0
 30
0.0
 11
0.0
 21
-121.0
 31
0.0
  0
LINE
  5
85
  8
OUTLINE
  6
CONTINUOUS
 62
     3
 10
7.145216000000004
 20
-122.31451199999999
 30
0.0
 11
5.7189479999999833
 21
-121.0
 31
0.0
  0
LINE
  5
86
  8
OUTLINE
  6
CONTINUOUS
 62
     3
 10
7.145216000000004
 20
-122.31451199999999
 30
0.0
 11
108.187518
 21
-151.66665699999999
 31
0.0
  0
ARC
  5
87
  8
OUTLINE
  6
CONTINUOUS
 62
     3
 10
15.0
 20
-2.0
 30
0.0
 40
100.0
 50
0.0
 51
90.0
  0
LINE
  5
88
  8
OUTLINE
  6
CONTINUOUS
 62
     3
 10
108.187518
 20
-151.66665699999999
 30
0.0
 11
108.187518
 21
-150.02635699999999
 31
0.0
  0
LINE
  5
89
  8
SIZE
  6
CONTINUOUS
 62
    30
 10
26.0
 20
108.0
 30
0.0
 11
470.626285
 21
108.0
 31
0.0
  0
LINE
  5
8A
  8
SIZE
  6
CONTINUOUS
 62
    30
 10
135.0
 20
-152.0
 30
0.0
 11
470.626285
 21
-152.0
 31
0.0
  0
LINE
  5
8B
  8
SIZE
  6
CONTINUOUS
 62
    30
 10
440.626285
 20
108.0
 30
0.0
 11
440.626285
 21
-152.0
 31
0.0
  0
TEXT
  5
8C
  8
SIZE
  6
CONTINUOUS
 62
    30
 10
408.62628499999988
 20
-96.057142857142836
 30
0.0
 40
64.0
  1
260
 50
90.0
 41
0.9
 72
     1
 11
408.62628499999988
 21
-22.0
 31
0.0
  0
CIRCLE
  5
8D
  8
SIZE
  6
CONTINUOUS
 62
    30
 10
440.626285
 20
108.0
 30
0.0
 40
6.0
  0
CIRCLE
  5
8E
  8
SIZE
  6
CONTINUOUS
 62
    30
 10
440.626285
 20
-152.0
 30
0.0
 40
6.0
  0
LINE
  5
92
  8
SIZE
  6
CONTINUOUS
 62
    30
 10
-20.0
 20
108.0
 30
0.0
 11
-310.61580439117182
 21
108.0
 31
0.0
  0
LINE
  5
93
  8
SIZE
  6
CONTINUOUS
 62
    30
 10
-12.0
 20
98.0
 30
0.0
 11
-192.77966299999991
 21
98.0
 31
0.0
  0
TEXT
  5
95
  8
SIZE
  6
CONTINUOUS
 62
    30
 10
-194.77966299999991
 20
128.6592768571428
 30
0.0
 40
64.0
  1
10
 50
90.0
 41
0.9
 72
     1
 11
-194.77966299999991
 21
169.80213399999991
 31
0.0
  0
CIRCLE
  5
96
  8
SIZE
  6
CONTINUOUS
 62
    30
 10
-162.779663
 20
107.4999999999999
 30
0.0
 40
6.0
  0
CIRCLE
  5
97
  8
SIZE
  6
CONTINUOUS
 62
    30
 10
-162.779663
 20
98.0
 30
0.0
 40
6.0
  0
LINE
  5
9B
  8
SIZE
  6
CONTINUOUS
 62
    30
 10
201.12414699999999
 20
0.0
 30
0.0
 11
344.7309239999999
 21
0.0
 31
0.0
  0
LINE
  5
9C
  8
SIZE
  6
CONTINUOUS
 62
    30
 10
20.0
 20
108.0
 30
0.0
 11
344.7309239999999
 21
108.0
 31
0.0
  0
LINE
  5
9D
  8
SIZE
  6
CONTINUOUS
 62
    30
 10
314.73092400000002
 20
0.0
 30
0.0
 11
314.73092400000002
 21
108.0
 31
0.0
  0
TEXT
  5
9E
  8
SIZE
  6
CONTINUOUS
 62
    30
 10
282.73092400000002
 20
124.47565342857141
 30
0.0
 40
64.0
  1
108
 50
90.0
 41
0.9
 72
     1
 11
282.73092400000002
 21
193.04708199999999
 31
0.0
  0
CIRCLE
  5
9F
  8
SIZE
  6
CONTINUOUS
 62
    30
 10
314.73092400000002
 20
0.0
 30
0.0
 40
6.0
  0
CIRCLE
  5
A0
  8
SIZE
  6
CONTINUOUS
 62
    30
 10
314.73092400000002
 20
108.0
 30
0.0
 40
6.0
  0
LINE
  5
A4
  8
SIZE
  6
CONTINUOUS
 62
    30
 10
314.73092400000002
 20
108.0
 30
0.0
 11
314.73092400000002
 21
266.55953
 31
0.0
  0
LINE
  5
A5
  8
SIZE
  6
CONTINUOUS
 62
    30
 10
0.0
 20
-155.81872899999999
 30
0.0
 11
0.0
 21
-453.02354799999989
 31
0.0
  0
TEXT
  5
A8
  8
SIZE
  6
CONTINUOUS
 62
    30
 10
-172.74120300000001
 20
-391.02354800000001
 30
0.0
 40
64.0
  1
54
 41
0.9
 72
     1
 11
-124.741203
 21
-391.02354800000001
 31
0.0
  0
CIRCLE
  5
A9
  8
SIZE
  6
CONTINUOUS
 62
    30
 10
0.0
 20
-423.02354800000012
 30
0.0
 40
6.0
  0
CIRCLE
  5
AA
  8
SIZE
  6
CONTINUOUS
 62
    30
 10
-54.0
 20
-423.02354800000012
 30
0.0
 40
6.0
  0
LINE
  5
AE
  8
SIZE
  6
CONTINUOUS
 62
    30
 10
115.0
 20
-172.0
 30
0.0
 11
115.0
 21
-588.01378799999975
 31
0.0
  0
LINE
  5
AF
  8
SIZE
  6
CONTINUOUS
 62
    30
 10
-54.0
 20
-92.299999999999997
 30
0.0
 11
-54.0
 21
-588.01378799999975
 31
0.0
  0
LINE
  5
B0
  8
SIZE
  6
CONTINUOUS
 62
    30
 10
115.0
 20
-558.01378799999986
 30
0.0
 11
-53.0
 21
-558.01378799999986
 31
0.0
  0
TEXT
  5
B1
  8
SIZE
  6
CONTINUOUS
 62
    30
 10
-36.199999999999989
 20
-541.30300099999988
 30
0.0
 40
64.0
  1
169
 41
0.9
 72
     1
 11
31.0
 21
-541.30300099999988
 31
0.0
  0
CIRCLE
  5
B2
  8
SIZE
  6
CONTINUOUS
 62
    30
 10
115.0
 20
-558.01378799999986
 30
0.0
 40
6.0
  0
CIRCLE
  5
B3
  8
SIZE
  6
CONTINUOUS
 62
    30
 10
-54.0
 20
-558.01378799999986
 30
0.0
 40
6.0
  0
LINE
  5
B7
  8
DETAIL
  6
CONTINUOUS
 62
     5
 10
0.0
 20
73.0
 30
0.0
 11
-54.0
 21
73.0
 31
0.0
  0
LINE
  5
B8
  8
DETAIL
  6
CONTINUOUS
 62
     5
 10
-54.0
 20
73.0
 30
0.0
 11
-54.0
 21
-74.0
 31
0.0
  0
LINE
  5
B9
  8
DETAIL
  6
CONTINUOUS
 62
     5
 10
-54.0
 20
-74.0
 30
0.0
 11
0.0
 21
-74.0
 31
0.0
  0
LINE
  5
BF
  8
SIZE
  6
CONTINUOUS
 62
    30
 10
-287.48595899999992
 20
106.0
 30
0.0
 11
-287.48595899999992
 21
73.0
 31
0.0
  0
TEXT
  5
C0
  8
SIZE
  6
CONTINUOUS
 62
    30
 10
-317.26760599999989
 20
123.9470455714285
 30
0.0
 40
64.0
  1
35
 50
90.0
 41
0.9
 72
     1
 11
-317.26760599999989
 21
170.57561699999991
 31
0.0
  0
CIRCLE
  5
C1
  8
SIZE
  6
CONTINUOUS
 62
    30
 10
-287.48595899999992
 20
108.0
 30
0.0
 40
6.0
  0
CIRCLE
  5
C2
  8
SIZE
  6
CONTINUOUS
 62
    30
 10
-287.48595899999992
 20
73.0
 30
0.0
 40
6.0
  0
LINE
  5
C6
  8
SIZE
  6
CONTINUOUS
 62
    30
 10
-287.48595899999992
 20
102.0
 30
0.0
 11
-287.48595899999992
 21
294.20670999999999
 31
0.0
  0
LINE
  5
C7
  8
SIZE
  6
CONTINUOUS
 62
    30
 10
-73.0
 20
73.0
 30
0.0
 11
-452.56359500000002
 21
73.0
 31
0.0
  0
LINE
  5
C8
  8
SIZE
  6
CONTINUOUS
 62
    30
 10
-73.0
 20
-74.0
 30
0.0
 11
-452.56359500000002
 21
-74.0
 31
0.0
  0
LINE
  5
C9
  8
SIZE
  6
CONTINUOUS
 62
    30
 10
-422.56359500000002
 20
71.0
 30
0.0
 11
-422.56359500000002
 21
-74.0
 31
0.0
  0
TEXT
  5
CA
  8
SIZE
  6
CONTINUOUS
 62
    30
 10
-446.258871
 20
95.677438428571364
 30
0.0
 40
64.0
  1
φ147
 50
90.0
 41
0.9
 72
     1
 11
-446.258871
 21
204.5688669999999
 31
0.0
  0
CIRCLE
  5
CB
  8
SIZE
  6
CONTINUOUS
 62
    30
 10
-422.56359500000002
 20
73.0
 30
0.0
 40
6.0
  0
CIRCLE
  5
CC
  8
SIZE
  6
CONTINUOUS
 62
    30
 10
-422.56359500000002
 20
-74.0
 30
0.0
 40
6.0
  0
LINE
  5
D0
  8
SIZE
  6
CONTINUOUS
 62
    30
 10
0.0
 20
250.22584399999991
 30
0.0
 11
85.724229000000008
 21
250.22584399999991
 31
0.0
  0
LINE
  5
D1
  8
SIZE
  6
CONTINUOUS
 62
    30
 10
-422.56359500000002
 20
67.0
 30
0.0
 11
-422.56359500000002
 21
283.371399
 31
0.0
  0
TEXT
  5
DF
  8
ETC
  6
CONTINUOUS
 62
    61
 10
383.76083662112472
 20
370.44058070257631
 30
0.0
 40
50.0
  1
P-18VS3_5
 41
0.9
  0
TEXT
  5
E0
  8
ETC
  6
CONTINUOUS
 62
    61
 10
488.8401108814316
 20
172.79450673541521
 30
0.0
 40
40.0
  1
P-18VS3-BL
 41
0.9
  0
TEXT
  5
E1
  8
ETC
  6
CONTINUOUS
 62
    61
 10
486.7213506827303
 20
230.20109171041511
 30
0.0
 40
40.0
  1
P-18VS3
 41
0.9
  0
TEXT
  5
E2
  8
ETC
  6
CONTINUOUS
 62
    61
 10
372.25243671411749
 20
293.53395583746442
 30
0.0
 40
50.0
  1
システム部材
 41
0.9
  0
LINE
  5
12A
  8
OUTLINE
  6
CONTINUOUS
 62
     3
 10
0.0
 20
-74.0
 30
0.0
 11
-54.0
 21
-74.0
 31
0.0
  0
LINE
  5
12B
  8
OUTLINE
  6
CONTINUOUS
 62
     3
 10
-54.0
 20
-74.0
 30
0.0
 11
-54.0
 21
73.0
 31
0.0
  0
LINE
  5
12C
  8
OUTLINE
  6
CONTINUOUS
 62
     3
 10
-54.0
 20
73.0
 30
0.0
 11
0.0
 21
73.0
 31
0.0
  0
ENDSEC
  0
EOF
