  0
SECTION
  2
HEADER
  9
$ACADVER
  1
AC1009
  9
$INSBASE
 10
0.0
 20
0.0
 30
0.0
  9
$EXTMIN
 10
-410.15622603026708
 20
-521.61710978441249
 30
-0.0015258207003583
  9
$EXTMAX
 10
1182.403580497954
 20
397.8973497030056
 30
0.0000000349246037
  9
$LIMMIN
 10
-4200.0
 20
-2970.0
  9
$LIMMAX
 10
4200.0
 20
2970.0
  9
$ORTHOMODE
 70
     1
  9
$REGENMODE
 70
     1
  9
$FILLMODE
 70
     1
  9
$QTEXTMODE
 70
     0
  9
$MIRRTEXT
 70
     0
  9
$DRAGMODE
 70
     2
  9
$LTSCALE
 40
20.0
  9
$OSMODE
 70
    47
  9
$ATTMODE
 70
     1
  9
$TEXTSIZE
 40
64.0
  9
$TRACEWID
 40
0.05
  9
$TEXTSTYLE
  7
STANDARD
  9
$CLAYER
  8
SIZE
  9
$CELTYPE
  6
CONTINUOUS
  9
$CECOLOR
 62
    30
  9
$DIMSCALE
 40
1.0
  9
$DIMASZ
 40
2.0
  9
$DIMEXO
 40
20.0
  9
$DIMDLI
 40
200.0
  9
$DIMRND
 40
0.0
  9
$DIMDLE
 40
0.0
  9
$DIMEXE
 40
30.0
  9
$DIMTP
 40
0.0
  9
$DIMTM
 40
0.0
  9
$DIMTXT
 40
64.0
  9
$DIMCEN
 40
0.09
  9
$DIMTSZ
 40
0.0
  9
$DIMTOL
 70
     0
  9
$DIMLIM
 70
     0
  9
$DIMTIH
 70
     0
  9
$DIMTOH
 70
     0
  9
$DIMSE1
 70
     0
  9
$DIMSE2
 70
     0
  9
$DIMTAD
 70
     1
  9
$DIMZIN
 70
     8
  9
$DIMBLK
  1
DOT1
  9
$DIMASO
 70
     1
  9
$DIMSHO
 70
     0
  9
$DIMPOST
  1

  9
$DIMAPOST
  1

  9
$DIMALT
 70
     0
  9
$DIMALTD
 70
     2
  9
$DIMALTF
 40
25.399999999999999
  9
$DIMLFAC
 40
1.0
  9
$DIMTOFL
 70
     1
  9
$DIMTVP
 40
0.0
  9
$DIMTIX
 70
     1
  9
$DIMSOXD
 70
     0
  9
$DIMSAH
 70
     0
  9
$DIMBLK1
  1

  9
$DIMBLK2
  1

  9
$DIMSTYLE
  2
STANDARD
  9
$DIMCLRD
 70
     7
  9
$DIMCLRE
 70
     7
  9
$DIMCLRT
 70
     7
  9
$DIMTFAC
 40
1.0
  9
$DIMGAP
 40
0.09
  9
$LUNITS
 70
     2
  9
$LUPREC
 70
     4
  9
$SKETCHINC
 40
0.1
  9
$FILLETRAD
 40
10.0
  9
$AUNITS
 70
     1
  9
$AUPREC
 70
     3
  9
$MENU
  1
ACAD
  9
$ELEVATION
 40
0.0
  9
$PELEVATION
 40
0.0
  9
$THICKNESS
 40
0.0
  9
$LIMCHECK
 70
     1
  9
$BLIPMODE
 70
     0
  9
$CHAMFERA
 40
0.0
  9
$CHAMFERB
 40
0.0
  9
$SKPOLY
 70
     0
  9
$TDCREATE
 40
2451606.770706018
  9
$TDUPDATE
 40
2455075.4874665271
  9
$TDINDWG
 40
0.0468655787
  9
$TDUSRTIMER
 40
0.0468655787
  9
$USRTIMER
 70
     1
  9
$ANGBASE
 50
0.0
  9
$ANGDIR
 70
     0
  9
$PDMODE
 70
     3
  9
$PDSIZE
 40
-2.0
  9
$PLINEWID
 40
0.0
  9
$COORDS
 70
     0
  9
$SPLFRAME
 70
     0
  9
$SPLINETYPE
 70
     6
  9
$SPLINESEGS
 70
     8
  9
$ATTDIA
 70
     0
  9
$ATTREQ
 70
     1
  9
$HANDLING
 70
     1
  9
$HANDSEED
  5
20E
  9
$SURFTAB1
 70
     6
  9
$SURFTAB2
 70
     6
  9
$SURFTYPE
 70
     6
  9
$SURFU
 70
     6
  9
$SURFV
 70
     6
  9
$UCSNAME
  2

  9
$UCSORG
 10
0.0
 20
0.0
 30
0.0
  9
$UCSXDIR
 10
1.0
 20
0.0
 30
0.0
  9
$UCSYDIR
 10
0.0
 20
1.0
 30
0.0
  9
$PUCSNAME
  2

  9
$PUCSORG
 10
0.0
 20
0.0
 30
0.0
  9
$PUCSXDIR
 10
1.0
 20
0.0
 30
0.0
  9
$PUCSYDIR
 10
0.0
 20
1.0
 30
0.0
  9
$USERI1
 70
     0
  9
$USERI2
 70
     0
  9
$USERI3
 70
     0
  9
$USERI4
 70
     0
  9
$USERI5
 70
     0
  9
$USERR1
 40
20.0
  9
$USERR2
 40
0.0
  9
$USERR3
 40
0.0
  9
$USERR4
 40
0.0
  9
$USERR5
 40
0.0
  9
$WORLDVIEW
 70
     1
  9
$SHADEDGE
 70
     3
  9
$SHADEDIF
 70
    70
  9
$TILEMODE
 70
     1
  9
$MAXACTVP
 70
    48
  9
$PLIMCHECK
 70
     0
  9
$PEXTMIN
 10
-1.0000000000000000E+020
 20
-1.0000000000000000E+020
 30
-1.0000000000000000E+020
  9
$PEXTMAX
 10
1.0000000000000000E+020
 20
1.0000000000000000E+020
 30
1.0000000000000000E+020
  9
$PLIMMIN
 10
0.0
 20
0.0
  9
$PLIMMAX
 10
12.0
 20
9.0
  9
$UNITMODE
 70
     0
  9
$VISRETAIN
 70
     0
  9
$PLINEGEN
 70
     0
  9
$PSLTSCALE
 70
     0
  0
ENDSEC
  0
SECTION
  2
TABLES
  0
TABLE
  2
VPORT
 70
     1
  0
VPORT
  2
*ACTIVE
 70
     0
 10
0.0
 20
0.0
 11
1.0
 21
1.0
 12
436.41564351166022
 22
-88.370738619280019
 13
0.0
 23
0.0
 14
400.0
 24
400.0
 15
400.0
 25
400.0
 16
0.0
 26
0.0
 36
1.0
 17
0.0
 27
0.0
 37
0.0
 40
1040.9424684847879
 41
1.78125
 42
50.0
 43
0.0
 44
0.0
 50
0.0
 51
0.0
 71
     0
 72
   500
 73
     1
 74
     0
 75
     0
 76
     0
 77
     0
 78
     0
  0
ENDTAB
  0
TABLE
  2
LTYPE
 70
     2
  0
LTYPE
  2
CONTINUOUS
 70
     0
  3
実線
 72
    65
 73
     0
 40
0.0
  0
LTYPE
  2
DASHDOT
 70
     0
  3
____ _ ____ _ ____ _ ____ _ ____ _ ____ _ ____
 72
    65
 73
     4
 40
5.5
 49
4.0
 49
-0.6
 49
0.3
 49
-0.6
  0
ENDTAB
  0
TABLE
  2
LAYER
 70
    12
  0
LAYER
  2
0
 70
     0
 62
     7
  6
CONTINUOUS
  0
LAYER
  2
SIZE
 70
     0
 62
    30
  6
CONTINUOUS
  0
LAYER
  2
OUTLINE
 70
     0
 62
     3
  6
CONTINUOUS
  0
LAYER
  2
DETAIL
 70
     0
 62
     5
  6
CONTINUOUS
  0
LAYER
  2
BASIS
 70
     0
 62
     6
  6
DASHDOT
  0
LAYER
  2
NOTE
 70
     0
 62
     4
  6
CONTINUOUS
  0
LAYER
  2
ARRANGE
 70
     0
 62
     1
  6
CONTINUOUS
  0
LAYER
  2
FIX
 70
     0
 62
    11
  6
CONTINUOUS
  0
LAYER
  2
ETC
 70
     0
 62
    61
  6
CONTINUOUS
  0
LAYER
  2
DEFPOINTS
 70
     0
 62
     7
  6
CONTINUOUS
  0
LAYER
  2
SERVICESPACE
 70
     0
 62
     2
  6
DASHDOT
  0
LAYER
  2
SYMBOLLINE
 70
     0
 62
    15
  6
CONTINUOUS
  0
ENDTAB
  0
TABLE
  2
STYLE
 70
     2
  0
STYLE
  2
STANDARD
 70
     0
 40
0.0
 41
0.9
 50
0.0
 71
     0
 42
64.0
  3
SIMPLEX
  4
BIGFONT
  0
STYLE
  2
ANNOTATIVE
 70
     0
 40
0.0
 41
1.0
 50
0.0
 71
     0
 42
0.2
  3
txt
  4

  0
ENDTAB
  0
TABLE
  2
VIEW
 70
     1
  0
VIEW
  2
ALL
 70
     0
 40
6374.9789810000002
 10
0.0
 20
58.11501599999999
 41
8842.1052629999976
 11
0.0
 21
0.0
 31
1.0
 12
0.0
 22
0.0
 32
0.0
 42
50.0
 43
0.0
 44
0.0
 50
0.0
 71
     0
  0
ENDTAB
  0
TABLE
  2
UCS
 70
     0
  0
ENDTAB
  0
TABLE
  2
APPID
 70
     3
  0
APPID
  2
ACAD
 70
     0
  0
APPID
  2
ACADANNOTATIVE
 70
     0
  0
APPID
  2
ACAD_MLEADERVER
 70
     0
  0
ENDTAB
  0
TABLE
  2
DIMSTYLE
 70
     2
  0
DIMSTYLE
  2
STANDARD
 70
     0
  3

  4

  5

  6

  7

 40
1.0
 41
0.18
 42
0.0625
 43
0.38
 44
0.18
 45
0.0
 46
0.0
 47
0.0
 48
0.0
140
0.18
141
0.09
142
0.0
143
25.399999999999999
144
1.0
145
0.0
146
1.0
147
0.09
 71
     0
 72
     0
 73
     1
 74
     1
 75
     0
 76
     0
 77
     0
 78
     0
170
     0
171
     2
172
     0
173
     0
174
     0
175
     0
176
     7
177
     7
178
     7
  0
DIMSTYLE
  2
ANNOTATIVE
 70
     0
  3

  4

  5

  6

  7

 40
1.0
 41
0.18
 42
0.0625
 43
0.38
 44
0.18
 45
0.0
 46
0.0
 47
0.0
 48
0.0
140
0.18
141
0.09
142
0.0
143
25.399999999999999
144
1.0
145
0.0
146
1.0
147
0.09
 71
     0
 72
     0
 73
     1
 74
     1
 75
     0
 76
     0
 77
     0
 78
     0
170
     0
171
     2
172
     0
173
     0
174
     0
175
     0
176
     0
177
     0
178
     0
  0
ENDTAB
  0
ENDSEC
  0
SECTION
  2
BLOCKS
  0
BLOCK
  8
0
  2
$MODEL_SPACE
 70
     0
 10
0.0
 20
0.0
 30
0.0
  3
$MODEL_SPACE
  1

  0
ENDBLK
  5
1BD
  8
0
  0
BLOCK
 67
     1
  8
0
  2
$PAPER_SPACE
 70
     0
 10
0.0
 20
0.0
 30
0.0
  3
$PAPER_SPACE
  1

  0
ENDBLK
  5
1B9
 67
     1
  8
0
  0
BLOCK
  8
SIZE
  2
DOT1
 70
     0
 10
0.0
 20
0.0
 30
0.0
  3
DOT1
  1

  0
CIRCLE
  5
35
  8
SIZE
  6
CONTINUOUS
 62
     8
 10
0.0
 20
0.0
 30
0.0
 40
3.0
  0
ENDBLK
  5
36
  8
SIZE
  0
ENDSEC
  0
SECTION
  2
ENTITIES
  0
ARC
  5
37
  8
DETAIL
  6
CONTINUOUS
 62
     5
 10
-101.8512459999999
 20
-122.026912
 30
0.0
 40
30.0
 50
231.70591899999999
 51
267.57293099999998
  0
ARC
  5
38
  8
DETAIL
  6
CONTINUOUS
 62
     5
 10
-101.8512459999999
 20
-122.40993400000001
 30
0.0
 40
30.0
 50
231.70591899999999
 51
267.57293099999998
  0
LINE
  5
39
  8
DETAIL
  6
CONTINUOUS
 62
     5
 10
0.0
 20
-152.38302200000001
 30
0.0
 11
-103.12167700000001
 21
-152.38302200000001
 31
0.0
  0
LINE
  5
3A
  8
DETAIL
  6
CONTINUOUS
 62
     5
 10
0.0
 20
-152.0
 30
0.0
 11
-103.12167700000001
 21
-152.0
 31
0.0
  0
ARC
  5
3B
  8
DETAIL
  6
CONTINUOUS
 62
     5
 10
101.8512459999999
 20
-122.026912
 30
0.0
 40
30.0
 50
272.42706900000002
 51
308.29408100000001
  0
ARC
  5
3C
  8
DETAIL
  6
CONTINUOUS
 62
     5
 10
101.8512459999999
 20
-122.40993400000001
 30
0.0
 40
30.0
 50
272.42706900000002
 51
308.29408100000001
  0
LINE
  5
3D
  8
DETAIL
  6
CONTINUOUS
 62
     5
 10
0.0
 20
-152.38302200000001
 30
0.0
 11
103.12167700000001
 21
-152.38302200000001
 31
0.0
  0
LINE
  5
3E
  8
DETAIL
  6
CONTINUOUS
 62
     5
 10
0.0
 20
-152.0
 30
0.0
 11
103.12167700000001
 21
-152.0
 31
0.0
  0
LINE
  5
3F
  8
DETAIL
  6
CONTINUOUS
 62
     5
 10
-130.0
 20
-126.637557
 30
0.0
 11
-120.44218499999999
 21
-145.9551459999999
 31
0.0
  0
LINE
  5
40
  8
DETAIL
  6
CONTINUOUS
 62
     5
 10
130.0
 20
-126.637557
 30
0.0
 11
120.44218499999999
 21
-145.9551459999999
 31
0.0
  0
LINE
  5
41
  8
DETAIL
  6
CONTINUOUS
 62
     5
 10
-130.0
 20
-125.4717879999999
 30
0.0
 11
-120.44218499999999
 21
-145.572124
 31
0.0
  0
LINE
  5
42
  8
DETAIL
  6
CONTINUOUS
 62
     5
 10
130.0
 20
-125.4717879999999
 30
0.0
 11
120.44218499999999
 21
-145.572124
 31
0.0
  0
LINE
  5
43
  8
DETAIL
  6
CONTINUOUS
 62
     5
 10
-125.0
 20
-121.0
 30
0.0
 11
-130.0
 21
-121.0
 31
0.0
  0
LINE
  5
44
  8
DETAIL
  6
CONTINUOUS
 62
     5
 10
125.0
 20
-121.0000919999999
 30
0.0
 11
130.0
 21
-121.0000919999999
 31
0.0
  0
LINE
  5
45
  8
DETAIL
  6
CONTINUOUS
 62
     5
 10
-130.0
 20
-126.637557
 30
0.0
 11
-130.0
 21
-121.0
 31
0.0
  0
LINE
  5
46
  8
DETAIL
  6
CONTINUOUS
 62
     5
 10
130.0
 20
-126.637557
 30
0.0
 11
130.0
 21
-121.0000919999999
 31
0.0
  0
LINE
  5
47
  8
DETAIL
  6
CONTINUOUS
 62
     5
 10
-129.445671
 20
-126.637557
 30
0.0
 11
-111.111637
 21
-126.637557
 31
0.0
  0
LINE
  5
48
  8
DETAIL
  6
CONTINUOUS
 62
     5
 10
129.445671
 20
-126.637557
 30
0.0
 11
111.111637
 21
-126.637557
 31
0.0
  0
ARC
  5
49
  8
DETAIL
  6
CONTINUOUS
 62
     5
 10
-27.670090999999989
 20
-32.477336000000001
 30
0.0
 40
130.47905700000001
 50
89.705748999999983
 51
117.046516
  0
ARC
  5
4A
  8
DETAIL
  6
CONTINUOUS
 62
     5
 10
-27.0
 20
-126.0
 30
0.0
 40
234.0
 50
90.0
 51
105.5057679999999
  0
ARC
  5
4B
  8
DETAIL
  6
CONTINUOUS
 62
     5
 10
604.0
 20
-30.81622299999999
 30
0.0
 40
729.0
 50
172.3470879999999
 51
180.0
  0
ARC
  5
4C
  8
DETAIL
  6
CONTINUOUS
 62
     5
 10
-69.086281999999997
 20
50.981811999999991
 30
0.0
 40
37.329807999999993
 50
118.677373
 51
159.3070219999999
  0
ARC
  5
4D
  8
DETAIL
  6
CONTINUOUS
 62
     5
 10
177.92760799999999
 20
-16.583469000000001
 30
0.0
 40
293.27317399999998
 50
164.0164399999999
 51
182.78169700000001
  0
ARC
  5
4E
  8
DETAIL
  6
CONTINUOUS
 62
     5
 10
-78.863062999999983
 20
60.939087999999998
 30
0.0
 40
40.0
 50
105.5057679999999
 51
172.3470879999999
  0
LINE
  5
4F
  8
DETAIL
  6
CONTINUOUS
 62
     5
 10
-125.0
 20
-30.81622299999999
 30
0.0
 11
-125.0
 21
-121.0
 31
0.0
  0
LINE
  5
50
  8
DETAIL
  6
CONTINUOUS
 62
     5
 10
-115.0
 20
-30.81622299999999
 30
0.0
 11
-115.0
 21
-121.0
 31
0.0
  0
LINE
  5
51
  8
DETAIL
  6
CONTINUOUS
 62
     5
 10
-76.052999999999983
 20
-52.011322999999997
 30
0.0
 11
-76.052999999999983
 21
-150.03367800000001
 31
0.0
  0
ARC
  5
52
  8
DETAIL
  6
CONTINUOUS
 62
     5
 10
-27.0
 20
460.83538099999993
 30
0.0
 40
612.83538099999998
 50
265.40897999999987
 51
270.0
  0
LINE
  5
53
  8
DETAIL
  6
CONTINUOUS
 62
     5
 10
-115.0
 20
-121.0
 30
0.0
 11
-125.0
 21
-121.0
 31
0.0
  0
CIRCLE
  5
54
  8
DETAIL
  6
CONTINUOUS
 62
     5
 10
-120.0
 20
-69.0
 30
0.0
 40
2.25
  0
CIRCLE
  5
55
  8
DETAIL
  6
CONTINUOUS
 62
     5
 10
-87.0
 20
87.0
 30
0.0
 40
2.25
  0
CIRCLE
  5
56
  8
DETAIL
  6
CONTINUOUS
 62
     5
 10
87.0
 20
87.0
 30
0.0
 40
2.25
  0
CIRCLE
  5
57
  8
DETAIL
  6
CONTINUOUS
 62
     5
 10
120.0
 20
-69.0
 30
0.0
 40
2.25
  0
LINE
  5
58
  8
DETAIL
  6
CONTINUOUS
 62
     5
 10
115.0
 20
-121.0000919999999
 30
0.0
 11
125.0
 21
-121.0000919999999
 31
0.0
  0
ARC
  5
59
  8
DETAIL
  6
CONTINUOUS
 62
     5
 10
27.0
 20
460.83538099999993
 30
0.0
 40
612.83538099999998
 50
270.0
 51
274.59102000000001
  0
LINE
  5
5A
  8
DETAIL
  6
CONTINUOUS
 62
     5
 10
76.052999999999983
 20
-52.011322999999997
 30
0.0
 11
76.052999999999983
 21
-150.03367800000001
 31
0.0
  0
LINE
  5
5B
  8
DETAIL
  6
CONTINUOUS
 62
     5
 10
115.0
 20
-30.81622299999999
 30
0.0
 11
115.0
 21
-121.0000919999999
 31
0.0
  0
LINE
  5
5C
  8
DETAIL
  6
CONTINUOUS
 62
     5
 10
125.0
 20
-30.81622299999999
 30
0.0
 11
125.0
 21
-121.0000919999999
 31
0.0
  0
ARC
  5
5D
  8
DETAIL
  6
CONTINUOUS
 62
     5
 10
78.863062999999983
 20
60.939087999999998
 30
0.0
 40
40.0
 50
7.6529119999999988
 51
74.494231999999982
  0
ARC
  5
5E
  8
DETAIL
  6
CONTINUOUS
 62
     5
 10
-275.11037900000002
 20
-19.829815
 30
0.0
 40
390.26504999999997
 50
358.38684499999999
 51
12.459664999999999
  0
ARC
  5
5F
  8
DETAIL
  6
CONTINUOUS
 62
     5
 10
68.355268999999993
 20
46.493091999999997
 30
0.0
 40
41.640934000000001
 50
25.424991999999989
 51
63.390785000000001
  0
ARC
  5
60
  8
DETAIL
  6
CONTINUOUS
 62
     5
 10
-604.0
 20
-30.81622299999999
 30
0.0
 40
729.0
 50
0.0
 51
7.6529119999999988
  0
ARC
  5
61
  8
DETAIL
  6
CONTINUOUS
 62
     5
 10
27.0
 20
-126.0
 30
0.0
 40
234.0
 50
74.494231999999982
 51
90.0
  0
ARC
  5
62
  8
DETAIL
  6
CONTINUOUS
 62
     5
 10
29.179151999999998
 20
-26.087081999999999
 30
0.0
 40
124.10621499999991
 50
62.228319999999997
 51
91.006095000000002
  0
LINE
  5
63
  8
DETAIL
  6
CONTINUOUS
 62
     5
 10
-27.0
 20
98.0
 30
0.0
 11
27.0
 21
98.0
 31
0.0
  0
LINE
  5
64
  8
DETAIL
  6
CONTINUOUS
 62
     5
 10
-27.0
 20
108.0
 30
0.0
 11
27.0
 21
108.0
 31
0.0
  0
ARC
  5
65
  8
DETAIL
  6
CONTINUOUS
 62
     5
 10
-59.025294999999993
 20
-86.552583999999996
 30
0.0
 40
65.725125000000006
 50
211.60857400000009
 51
254.984846
  0
ARC
  5
66
  8
DETAIL
  6
CONTINUOUS
 62
     5
 10
59.025294999999993
 20
-86.552583999999996
 30
0.0
 40
65.725125000000006
 50
285.015154
 51
328.39142599999991
  0
LINE
  5
67
  8
BASIS
  6
DASHDOT
 62
     6
 10
-187.41239299999989
 20
0.0
 30
0.0
 11
188.82047600000001
 21
0.0
 31
0.0
  0
LINE
  5
68
  8
BASIS
  6
DASHDOT
 62
     6
 10
0.0
 20
-252.1330669999999
 30
0.0
 11
0.0
 21
189.44570699999991
 31
0.0
  0
LINE
  5
69
  8
NOTE
  6
CONTINUOUS
 62
     4
 10
-87.0
 20
67.0
 30
0.0
 11
-87.0
 21
107.0
 31
0.0
  0
LINE
  5
6A
  8
NOTE
  6
CONTINUOUS
 62
     4
 10
-107.0
 20
87.0
 30
0.0
 11
-67.0
 21
87.0
 31
0.0
  0
LINE
  5
6B
  8
NOTE
  6
CONTINUOUS
 62
     4
 10
87.0
 20
67.0
 30
0.0
 11
87.0
 21
107.0
 31
0.0
  0
LINE
  5
6C
  8
NOTE
  6
CONTINUOUS
 62
     4
 10
107.0
 20
87.0
 30
0.0
 11
67.0
 21
87.0
 31
0.0
  0
LINE
  5
6D
  8
NOTE
  6
CONTINUOUS
 62
     4
 10
-120.0
 20
-89.0
 30
0.0
 11
-120.0
 21
-49.0
 31
0.0
  0
LINE
  5
6E
  8
NOTE
  6
CONTINUOUS
 62
     4
 10
-140.0
 20
-69.0
 30
0.0
 11
-100.0
 21
-69.0
 31
0.0
  0
LINE
  5
6F
  8
NOTE
  6
CONTINUOUS
 62
     4
 10
120.0
 20
-89.0
 30
0.0
 11
120.0
 21
-49.0
 31
0.0
  0
LINE
  5
70
  8
NOTE
  6
CONTINUOUS
 62
     4
 10
140.0
 20
-69.0
 30
0.0
 11
100.0
 21
-69.0
 31
0.0
  0
TEXT
  5
71
  8
NOTE
  6
CONTINUOUS
 62
     4
 10
233.30741800000001
 20
211.45021
 30
0.0
 40
64.0
  1
4×φ4.5ノックアウト取付穴
 41
0.9
  0
LINE
  5
72
  8
NOTE
  6
CONTINUOUS
 62
     4
 10
216.32056499999999
 20
187.18076599999989
 30
0.0
 11
1182.1444879999999
 21
187.18076599999989
 31
0.0
  0
LINE
  5
73
  8
NOTE
  6
CONTINUOUS
 62
     4
 10
87.0
 20
87.0
 30
0.0
 11
216.32056499999999
 21
187.18076599999989
 31
0.0
  0
LINE
  5
74
  8
NOTE
  6
CONTINUOUS
 62
     4
 10
111.92940399999991
 20
118.28138199999999
 30
0.0
 11
87.0
 21
87.0
 31
0.0
  0
LINE
  5
75
  8
NOTE
  6
CONTINUOUS
 62
     4
 10
87.0
 20
87.0
 30
0.0
 11
124.2301879999999
 21
101.62576899999991
 31
0.0
  0
CIRCLE
  5
76
  8
FIX
  6
CONTINUOUS
 62
    11
 10
-87.0
 20
87.0
 30
0.0
 40
2.25
  0
CIRCLE
  5
77
  8
FIX
  6
CONTINUOUS
 62
    11
 10
87.0
 20
87.0
 30
0.0
 40
2.25
  0
CIRCLE
  5
78
  8
FIX
  6
CONTINUOUS
 62
    11
 10
-120.0
 20
-69.0
 30
0.0
 40
2.25
  0
CIRCLE
  5
79
  8
FIX
  6
CONTINUOUS
 62
    11
 10
120.0
 20
-69.0
 30
0.0
 40
2.25
  0
LINE
  5
7A
  8
OUTLINE
  6
CONTINUOUS
 62
     3
 10
-27.0
 20
108.0
 30
0.0
 11
27.0
 21
108.0
 31
0.0
  0
ARC
  5
7B
  8
OUTLINE
  6
CONTINUOUS
 62
     3
 10
27.0
 20
-126.0
 30
0.0
 40
234.0
 50
74.494231999999982
 51
90.0
  0
ARC
  5
7C
  8
OUTLINE
  6
CONTINUOUS
 62
     3
 10
-604.0
 20
-30.81622299999999
 30
0.0
 40
729.0
 50
0.0
 51
7.6529119999999988
  0
ARC
  5
7D
  8
OUTLINE
  6
CONTINUOUS
 62
     3
 10
78.863062999999983
 20
60.939087999999998
 30
0.0
 40
40.0
 50
7.6529119999999988
 51
74.494231999999982
  0
LINE
  5
7E
  8
OUTLINE
  6
CONTINUOUS
 62
     3
 10
125.0
 20
-30.81622299999999
 30
0.0
 11
125.0
 21
-121.0000919999999
 31
0.0
  0
LINE
  5
7F
  8
OUTLINE
  6
CONTINUOUS
 62
     3
 10
-125.0
 20
-30.81622299999999
 30
0.0
 11
-125.0
 21
-121.0
 31
0.0
  0
ARC
  5
80
  8
OUTLINE
  6
CONTINUOUS
 62
     3
 10
-78.863062999999983
 20
60.939087999999998
 30
0.0
 40
40.0
 50
105.5057679999999
 51
172.3470879999999
  0
ARC
  5
81
  8
OUTLINE
  6
CONTINUOUS
 62
     3
 10
604.0
 20
-30.81622299999999
 30
0.0
 40
729.0
 50
172.3470879999999
 51
180.0
  0
ARC
  5
82
  8
OUTLINE
  6
CONTINUOUS
 62
     3
 10
-27.0
 20
-126.0
 30
0.0
 40
234.0
 50
90.0
 51
105.5057679999999
  0
LINE
  5
83
  8
OUTLINE
  6
CONTINUOUS
 62
     3
 10
130.0
 20
-126.637557
 30
0.0
 11
130.0
 21
-121.0000919999999
 31
0.0
  0
LINE
  5
84
  8
OUTLINE
  6
CONTINUOUS
 62
     3
 10
-130.0
 20
-126.637557
 30
0.0
 11
-130.0
 21
-121.0
 31
0.0
  0
LINE
  5
85
  8
OUTLINE
  6
CONTINUOUS
 62
     3
 10
125.0
 20
-121.0000919999999
 30
0.0
 11
130.0
 21
-121.0000919999999
 31
0.0
  0
LINE
  5
86
  8
OUTLINE
  6
CONTINUOUS
 62
     3
 10
-125.0
 20
-121.0
 30
0.0
 11
-130.0
 21
-121.0
 31
0.0
  0
LINE
  5
87
  8
OUTLINE
  6
CONTINUOUS
 62
     3
 10
130.0
 20
-126.637557
 30
0.0
 11
120.44218499999999
 21
-145.9551459999999
 31
0.0
  0
LINE
  5
88
  8
OUTLINE
  6
CONTINUOUS
 62
     3
 10
-130.0
 20
-126.637557
 30
0.0
 11
-120.44218499999999
 21
-145.9551459999999
 31
0.0
  0
LINE
  5
89
  8
OUTLINE
  6
CONTINUOUS
 62
     3
 10
0.0
 20
-152.38302200000001
 30
0.0
 11
103.12167700000001
 21
-152.38302200000001
 31
0.0
  0
ARC
  5
8A
  8
OUTLINE
  6
CONTINUOUS
 62
     3
 10
101.8512459999999
 20
-122.40993400000001
 30
0.0
 40
30.0
 50
272.42706900000002
 51
308.29408100000001
  0
LINE
  5
8B
  8
OUTLINE
  6
CONTINUOUS
 62
     3
 10
0.0
 20
-152.38302200000001
 30
0.0
 11
-103.12167700000001
 21
-152.38302200000001
 31
0.0
  0
ARC
  5
8C
  8
OUTLINE
  6
CONTINUOUS
 62
     3
 10
-101.8512459999999
 20
-122.40993400000001
 30
0.0
 40
30.0
 50
231.70591899999999
 51
267.57293099999998
  0
POINT
  5
8D
  8
ARRANGE
  6
CONTINUOUS
 62
     1
 10
0.0
 20
0.0
 30
0.0
  0
CIRCLE
  5
8E
  8
ARRANGE
  6
CONTINUOUS
 62
     1
 10
0.0
 20
0.0
 30
0.0
 40
40.0
  0
LINE
  5
8F
  8
SIZE
  6
CONTINUOUS
 62
    30
 10
-87.0
 20
107.0
 30
0.0
 11
-87.0
 21
233.48779099999999
 31
0.0
  0
LINE
  5
90
  8
SIZE
  6
CONTINUOUS
 62
    30
 10
87.0
 20
107.0
 30
0.0
 11
87.0
 21
233.48779099999999
 31
0.0
  0
LINE
  5
91
  8
SIZE
  6
CONTINUOUS
 62
    30
 10
-87.0
 20
203.48779099999999
 30
0.0
 11
87.0
 21
203.48779099999999
 31
0.0
  0
TEXT
  5
92
  8
SIZE
  6
CONTINUOUS
 62
    30
 10
-69.942857142857136
 20
226.96593100000001
 30
0.0
 40
64.0
  1
174
 41
0.9
 72
     1
 11
0.0
 21
226.96593100000001
 31
0.0
  0
CIRCLE
  5
93
  8
SIZE
  6
CONTINUOUS
 62
    30
 10
-87.0
 20
203.48779099999999
 30
0.0
 40
6.0
  0
CIRCLE
  5
94
  8
SIZE
  6
CONTINUOUS
 62
    30
 10
87.0
 20
203.48779099999999
 30
0.0
 40
6.0
  0
LINE
  5
98
  8
SIZE
  6
CONTINUOUS
 62
    30
 10
120.0
 20
-49.0
 30
0.0
 11
120.0
 21
338.17656899999992
 31
0.0
  0
LINE
  5
99
  8
SIZE
  6
CONTINUOUS
 62
    30
 10
-120.0
 20
-49.0
 30
0.0
 11
-120.0
 21
338.17656899999992
 31
0.0
  0
LINE
  5
9A
  8
SIZE
  6
CONTINUOUS
 62
    30
 10
120.0
 20
308.17656899999992
 30
0.0
 11
-120.0
 21
308.17656899999992
 31
0.0
  0
TEXT
  5
9B
  8
SIZE
  6
CONTINUOUS
 62
    30
 10
-74.05714285714285
 20
333.70143599999989
 30
0.0
 40
64.0
  1
240
 41
0.9
 72
     1
 11
0.0
 21
333.70143599999989
 31
0.0
  0
CIRCLE
  5
9C
  8
SIZE
  6
CONTINUOUS
 62
    30
 10
120.0
 20
308.17656899999992
 30
0.0
 40
6.0
  0
CIRCLE
  5
9D
  8
SIZE
  6
CONTINUOUS
 62
    30
 10
-120.0
 20
308.17656899999992
 30
0.0
 40
6.0
  0
LINE
  5
A1
  8
SIZE
  6
CONTINUOUS
 62
    30
 10
-20.0
 20
98.0
 30
0.0
 11
-225.9356379999999
 21
98.0
 31
0.0
  0
LINE
  5
A2
  8
SIZE
  6
CONTINUOUS
 62
    30
 10
-150.0
 20
-121.0
 30
0.0
 11
-225.9356379999999
 21
-121.0
 31
0.0
  0
LINE
  5
A3
  8
SIZE
  6
CONTINUOUS
 62
    30
 10
-195.9356379999999
 20
106.0
 30
0.0
 11
-195.93563800000001
 21
-121.0
 31
0.0
  0
TEXT
  5
A4
  8
SIZE
  6
CONTINUOUS
 62
    30
 10
-222.77017900000001
 20
-78.699999999999989
 30
0.0
 40
64.0
  1
219
 50
90.0
 41
0.9
 72
     1
 11
-222.77017900000001
 21
-11.5
 31
0.0
  0
CIRCLE
  5
A5
  8
SIZE
  6
CONTINUOUS
 62
    30
 10
-195.9356379999999
 20
98.0
 30
0.0
 40
6.0
  0
CIRCLE
  5
A6
  8
SIZE
  6
CONTINUOUS
 62
    30
 10
-195.9356379999999
 20
-121.0
 30
0.0
 40
6.0
  0
LINE
  5
AA
  8
SIZE
  6
CONTINUOUS
 62
    30
 10
-20.0
 20
108.0
 30
0.0
 11
-353.59460300000001
 21
108.0
 31
0.0
  0
LINE
  5
AB
  8
SIZE
  6
CONTINUOUS
 62
    30
 10
-123.12167700000001
 20
-152.0
 30
0.0
 11
-353.59460300000001
 21
-152.0
 31
0.0
  0
LINE
  5
AC
  8
SIZE
  6
CONTINUOUS
 62
    30
 10
-323.59460300000001
 20
108.0
 30
0.0
 11
-323.59460300000001
 21
-152.0
 31
0.0
  0
TEXT
  5
AD
  8
SIZE
  6
CONTINUOUS
 62
    30
 10
-345.76197500000001
 20
-96.057142857142836
 30
0.0
 40
64.0
  1
260
 50
90.0
 41
0.9
 72
     1
 11
-345.76197500000001
 21
-22.0
 31
0.0
  0
CIRCLE
  5
AE
  8
SIZE
  6
CONTINUOUS
 62
    30
 10
-323.59460300000001
 20
108.0
 30
0.0
 40
6.0
  0
CIRCLE
  5
AF
  8
SIZE
  6
CONTINUOUS
 62
    30
 10
-323.59460300000001
 20
-152.0
 30
0.0
 40
6.0
  0
LINE
  5
B3
  8
SIZE
  6
CONTINUOUS
 62
    30
 10
-125.0
 20
-141.0
 30
0.0
 11
-125.0
 21
-378.972846
 31
0.0
  0
LINE
  5
B4
  8
SIZE
  6
CONTINUOUS
 62
    30
 10
125.0
 20
-141.0
 30
0.0
 11
125.0
 21
-378.972846
 31
0.0
  0
LINE
  5
B5
  8
SIZE
  6
CONTINUOUS
 62
    30
 10
-125.0
 20
-348.972846
 30
0.0
 11
125.0
 21
-348.972846
 31
0.0
  0
TEXT
  5
B6
  8
SIZE
  6
CONTINUOUS
 62
    30
 10
-74.05714285714285
 20
-331.22305199999988
 30
0.0
 40
64.0
  1
250
 41
0.9
 72
     1
 11
0.0
 21
-331.22305199999988
 31
0.0
  0
CIRCLE
  5
B7
  8
SIZE
  6
CONTINUOUS
 62
    30
 10
-125.0
 20
-348.972846
 30
0.0
 40
6.0
  0
CIRCLE
  5
B8
  8
SIZE
  6
CONTINUOUS
 62
    30
 10
125.0
 20
-348.972846
 30
0.0
 40
6.0
  0
LINE
  5
BC
  8
SIZE
  6
CONTINUOUS
 62
    30
 10
130.0
 20
-141.00009199999991
 30
0.0
 11
130.0
 21
-521.16450399999985
 31
0.0
  0
LINE
  5
BD
  8
SIZE
  6
CONTINUOUS
 62
    30
 10
-130.0
 20
-141.00009199999991
 30
0.0
 11
-130.0
 21
-521.16450399999985
 31
0.0
  0
LINE
  5
BE
  8
SIZE
  6
CONTINUOUS
 62
    30
 10
130.0
 20
-491.16450400000002
 30
0.0
 11
-130.0
 21
-491.16450399999979
 31
0.0
  0
TEXT
  5
BF
  8
SIZE
  6
CONTINUOUS
 62
    30
 10
-74.05714285714285
 20
-467.84020099999998
 30
0.0
 40
64.0
  1
260
 41
0.9
 72
     1
 11
0.0
 21
-467.84020099999998
 31
0.0
  0
CIRCLE
  5
C0
  8
SIZE
  6
CONTINUOUS
 62
    30
 10
130.0
 20
-491.16450400000002
 30
0.0
 40
6.0
  0
CIRCLE
  5
C1
  8
SIZE
  6
CONTINUOUS
 62
    30
 10
-130.0
 20
-491.16450400000002
 30
0.0
 40
6.0
  0
LINE
  5
C5
  8
SIZE
  6
CONTINUOUS
 62
    30
 10
-20.0
 20
108.0
 30
0.0
 11
-225.9356379999999
 21
108.0
 31
0.0
  0
LINE
  5
C6
  8
SIZE
  6
CONTINUOUS
 62
    30
 10
-20.0
 20
98.0
 30
0.0
 11
-225.9356379999999
 21
98.0
 31
0.0
  0
LINE
  5
C7
  8
SIZE
  6
CONTINUOUS
 62
    30
 10
-195.9356379999999
 20
106.0
 30
0.0
 11
-195.9356379999999
 21
100.0
 31
0.0
  0
TEXT
  5
C8
  8
SIZE
  6
CONTINUOUS
 62
    30
 10
-218.90921499999999
 20
130.59161885714281
 30
0.0
 40
64.0
  1
10
 50
90.0
 41
0.9
 72
     1
 11
-218.90921499999999
 21
171.734476
 31
0.0
  0
CIRCLE
  5
C9
  8
SIZE
  6
CONTINUOUS
 62
    30
 10
-195.9356379999999
 20
108.0
 30
0.0
 40
6.0
  0
CIRCLE
  5
CA
  8
SIZE
  6
CONTINUOUS
 62
    30
 10
-195.9356379999999
 20
98.0
 30
0.0
 40
6.0
  0
LINE
  5
CE
  8
SIZE
  6
CONTINUOUS
 62
    30
 10
-195.9356379999999
 20
106.0
 30
0.0
 11
-195.9356379999999
 21
217.9725819999999
 31
0.0
  0
LINE
  5
CF
  8
SIZE
  6
CONTINUOUS
 62
    30
 10
107.0
 20
87.0
 30
0.0
 11
276.68668700000001
 21
87.0
 31
0.0
  0
LINE
  5
D0
  8
SIZE
  6
CONTINUOUS
 62
    30
 10
134.65055699999999
 20
0.0
 30
0.0
 11
276.68668700000001
 21
0.0
 31
0.0
  0
LINE
  5
D1
  8
SIZE
  6
CONTINUOUS
 62
    30
 10
246.68668700000001
 20
87.0
 30
0.0
 11
246.68668700000001
 21
2.0
 31
0.0
  0
TEXT
  5
D2
  8
SIZE
  6
CONTINUOUS
 62
    30
 10
233.95774
 20
-228.07462842857129
 30
0.0
 40
64.0
  1
87
 50
90.0
 41
0.9
 72
     1
 11
233.95774
 21
-181.44605699999991
 31
0.0
  0
CIRCLE
  5
D3
  8
SIZE
  6
CONTINUOUS
 62
    30
 10
246.68668700000001
 20
87.0
 30
0.0
 40
6.0
  0
CIRCLE
  5
D4
  8
SIZE
  6
CONTINUOUS
 62
    30
 10
246.68668700000001
 20
0.0
 30
0.0
 40
6.0
  0
LINE
  5
D8
  8
SIZE
  6
CONTINUOUS
 62
    30
 10
107.0
 20
87.0
 30
0.0
 11
425.249301
 21
87.0
 31
0.0
  0
LINE
  5
D9
  8
SIZE
  6
CONTINUOUS
 62
    30
 10
140.0
 20
-69.0
 30
0.0
 11
425.249301
 21
-69.0
 31
0.0
  0
LINE
  5
DA
  8
SIZE
  6
CONTINUOUS
 62
    30
 10
395.24930099999989
 20
87.0
 30
0.0
 11
395.24930099999989
 21
-67.0
 31
0.0
  0
TEXT
  5
DB
  8
SIZE
  6
CONTINUOUS
 62
    30
 10
384.66260299999988
 20
-228.98496499999999
 30
0.0
 40
64.0
  1
156
 50
90.0
 41
0.9
 72
     1
 11
384.66260299999988
 21
-161.784965
 31
0.0
  0
CIRCLE
  5
DC
  8
SIZE
  6
CONTINUOUS
 62
    30
 10
395.24930099999989
 20
87.0
 30
0.0
 40
6.0
  0
CIRCLE
  5
DD
  8
SIZE
  6
CONTINUOUS
 62
    30
 10
395.24930099999989
 20
-69.0
 30
0.0
 40
6.0
  0
LINE
  5
E1
  8
SIZE
  6
CONTINUOUS
 62
    30
 10
20.0
 20
108.0
 30
0.0
 11
596.75301999999976
 21
108.0
 31
0.0
  0
LINE
  5
E2
  8
SIZE
  6
CONTINUOUS
 62
    30
 10
134.65055699999999
 20
0.0
 30
0.0
 11
596.75301999999976
 21
0.0
 31
0.0
  0
LINE
  5
E3
  8
SIZE
  6
CONTINUOUS
 62
    30
 10
566.75301999999976
 20
108.0
 30
0.0
 11
566.75301999999976
 21
2.0
 31
0.0
  0
TEXT
  5
E4
  8
SIZE
  6
CONTINUOUS
 62
    30
 10
544.48161999999991
 20
-218.0674555714285
 30
0.0
 40
64.0
  1
108
 50
90.0
 41
0.9
 72
     1
 11
544.48161999999991
 21
-149.49602699999991
 31
0.0
  0
CIRCLE
  5
E5
  8
SIZE
  6
CONTINUOUS
 62
    30
 10
566.75301999999976
 20
108.0
 30
0.0
 40
6.0
  0
CIRCLE
  5
E6
  8
SIZE
  6
CONTINUOUS
 62
    30
 10
566.75301999999976
 20
0.0
 30
0.0
 40
6.0
  0
LINE
  5
EA
  8
SIZE
  6
CONTINUOUS
 62
    30
 10
246.68668700000001
 20
6.0
 30
0.0
 11
246.68668700000001
 21
-241.69468199999989
 31
0.0
  0
LINE
  5
EB
  8
SIZE
  6
CONTINUOUS
 62
    30
 10
395.24930099999989
 20
-63.0
 30
0.0
 11
395.24930099999989
 21
-243.52039599999989
 31
0.0
  0
LINE
  5
EC
  8
SIZE
  6
CONTINUOUS
 62
    30
 10
566.75301999999976
 20
6.0
 30
0.0
 11
566.75301999999976
 21
-241.69468199999989
 31
0.0
  0
TEXT
  5
100
  8
ETC
  6
CONTINUOUS
 62
    61
 10
793.3248722861606
 20
-387.16943644599371
 30
0.0
 40
40.0
  1
P-18VSQD3
 41
0.9
  0
TEXT
  5
101
  8
ETC
  6
CONTINUOUS
 62
    61
 10
793.3248722861606
 20
-320.50276944599358
 30
0.0
 40
40.0
  1
P-18VSQ3
 41
0.9
  0
TEXT
  5
102
  8
ETC
  6
CONTINUOUS
 62
    61
 10
793.3248722861606
 20
-253.83610344599359
 30
0.0
 40
40.0
  1
P-18VSDK3
 41
0.9
  0
TEXT
  5
103
  8
ETC
  6
CONTINUOUS
 62
    61
 10
793.3248722861606
 20
-187.16943644599351
 30
0.0
 40
40.0
  1
P-18VSD3-BL
 41
0.9
  0
TEXT
  5
104
  8
ETC
  6
CONTINUOUS
 62
    61
 10
791.53077972867959
 20
-127.98914466751791
 30
0.0
 40
40.0
  1
P-18VSD3
 41
0.9
  0
TEXT
  5
105
  8
ETC
  6
CONTINUOUS
 62
    61
 10
678.6285265799977
 20
4.9524061749825687
 30
0.0
 40
50.0
  1
P-18VSD3_2
 41
0.9
  0
TEXT
  5
106
  8
ETC
  6
CONTINUOUS
 62
    61
 10
675.04033654429247
 20
-63.194599973112872
 30
0.0
 40
50.0
  1
システム部材
 41
0.9
  0
ENDSEC
  0
EOF
