  0
SECTION
  2
HEADER
  9
$ACADVER
  1
AC1009
  9
$INSBASE
 10
0.0
 20
0.0
 30
0.0
  9
$EXTMIN
 10
-143.29692900000001
 20
-291.23178299999978
 30
0.0
  9
$EXTMAX
 10
920.7067137587602
 20
510.93138564803979
 30
0.0
  9
$LIMMIN
 10
-4200.0
 20
-2970.0
  9
$LIMMAX
 10
4200.0
 20
2970.0
  9
$ORTHOMODE
 70
     1
  9
$REGENMODE
 70
     0
  9
$FILLMODE
 70
     1
  9
$QTEXTMODE
 70
     0
  9
$MIRRTEXT
 70
     0
  9
$DRAGMODE
 70
     2
  9
$LTSCALE
 40
20.0
  9
$OSMODE
 70
    41
  9
$ATTMODE
 70
     1
  9
$TEXTSIZE
 40
64.0
  9
$TRACEWID
 40
0.05
  9
$TEXTSTYLE
  7
STANDARD
  9
$CLAYER
  8
0
  9
$CELTYPE
  6
CONTINUOUS
  9
$CECOLOR
 62
     8
  9
$DIMSCALE
 40
1.0
  9
$DIMASZ
 40
2.0
  9
$DIMEXO
 40
20.0
  9
$DIMDLI
 40
200.0
  9
$DIMRND
 40
0.0
  9
$DIMDLE
 40
0.0
  9
$DIMEXE
 40
30.0
  9
$DIMTP
 40
0.0
  9
$DIMTM
 40
0.0
  9
$DIMTXT
 40
64.0
  9
$DIMCEN
 40
0.09
  9
$DIMTSZ
 40
0.0
  9
$DIMTOL
 70
     0
  9
$DIMLIM
 70
     0
  9
$DIMTIH
 70
     0
  9
$DIMTOH
 70
     0
  9
$DIMSE1
 70
     0
  9
$DIMSE2
 70
     0
  9
$DIMTAD
 70
     1
  9
$DIMZIN
 70
     8
  9
$DIMBLK
  1

  9
$DIMASO
 70
     1
  9
$DIMSHO
 70
     0
  9
$DIMPOST
  1

  9
$DIMAPOST
  1

  9
$DIMALT
 70
     0
  9
$DIMALTD
 70
     2
  9
$DIMALTF
 40
25.399999999999999
  9
$DIMLFAC
 40
1.0
  9
$DIMTOFL
 70
     1
  9
$DIMTVP
 40
0.0
  9
$DIMTIX
 70
     1
  9
$DIMSOXD
 70
     0
  9
$DIMSAH
 70
     0
  9
$DIMBLK1
  1

  9
$DIMBLK2
  1

  9
$DIMSTYLE
  2
STANDARD
  9
$DIMCLRD
 70
     0
  9
$DIMCLRE
 70
     0
  9
$DIMCLRT
 70
     0
  9
$DIMTFAC
 40
1.0
  9
$DIMGAP
 40
0.09
  9
$LUNITS
 70
     2
  9
$LUPREC
 70
     4
  9
$SKETCHINC
 40
0.1
  9
$FILLETRAD
 40
10.0
  9
$AUNITS
 70
     1
  9
$AUPREC
 70
     3
  9
$MENU
  1
ACAD
  9
$ELEVATION
 40
0.0
  9
$PELEVATION
 40
0.0
  9
$THICKNESS
 40
0.0
  9
$LIMCHECK
 70
     1
  9
$BLIPMODE
 70
     0
  9
$CHAMFERA
 40
0.0
  9
$CHAMFERB
 40
0.0
  9
$SKPOLY
 70
     0
  9
$TDCREATE
 40
2451844.550254629
  9
$TDUPDATE
 40
2453459.658720694
  9
$TDINDWG
 40
0.0019033912
  9
$TDUSRTIMER
 40
0.0019033912
  9
$USRTIMER
 70
     1
  9
$ANGBASE
 50
0.0
  9
$ANGDIR
 70
     0
  9
$PDMODE
 70
     3
  9
$PDSIZE
 40
-2.0
  9
$PLINEWID
 40
0.0
  9
$COORDS
 70
     2
  9
$SPLFRAME
 70
     0
  9
$SPLINETYPE
 70
     6
  9
$SPLINESEGS
 70
     8
  9
$ATTDIA
 70
     0
  9
$ATTREQ
 70
     1
  9
$HANDLING
 70
 22529
  9
$HANDSEED
  5
BB
  9
$SURFTAB1
 70
     6
  9
$SURFTAB2
 70
     6
  9
$SURFTYPE
 70
     6
  9
$SURFU
 70
     6
  9
$SURFV
 70
     6
  9
$UCSNAME
  2

  9
$UCSORG
 10
0.0
 20
0.0
 30
0.0
  9
$UCSXDIR
 10
1.0
 20
0.0
 30
0.0
  9
$UCSYDIR
 10
0.0
 20
1.0
 30
0.0
  9
$PUCSNAME
  2

  9
$PUCSORG
 10
0.0
 20
0.0
 30
0.0
  9
$PUCSXDIR
 10
1.0
 20
0.0
 30
0.0
  9
$PUCSYDIR
 10
0.0
 20
1.0
 30
0.0
  9
$USERI1
 70
     0
  9
$USERI2
 70
     0
  9
$USERI3
 70
     0
  9
$USERI4
 70
     0
  9
$USERI5
 70
     0
  9
$USERR1
 40
20.0
  9
$USERR2
 40
0.0
  9
$USERR3
 40
0.0
  9
$USERR4
 40
0.0
  9
$USERR5
 40
0.0
  9
$WORLDVIEW
 70
     1
  9
$SHADEDGE
 70
     3
  9
$SHADEDIF
 70
    70
  9
$TILEMODE
 70
     1
  9
$MAXACTVP
 70
    64
  9
$PLIMCHECK
 70
     0
  9
$PEXTMIN
 10
1.0000000000000000E+020
 20
1.0000000000000000E+020
 30
1.0000000000000000E+020
  9
$PEXTMAX
 10
-1.0000000000000000E+020
 20
-1.0000000000000000E+020
 30
-1.0000000000000000E+020
  9
$PLIMMIN
 10
0.0
 20
0.0
  9
$PLIMMAX
 10
12.0
 20
9.0
  9
$UNITMODE
 70
     0
  9
$VISRETAIN
 70
     1
  9
$PLINEGEN
 70
     0
  9
$PSLTSCALE
 70
     1
  0
ENDSEC
  0
SECTION
  2
TABLES
  0
TABLE
  2
VPORT
 70
     3
  0
VPORT
  2
*ACTIVE
 70
     0
 10
0.0
 20
0.0
 11
1.0
 21
1.0
 12
282.6076096677694
 22
117.1565519910982
 13
0.0
 23
0.0
 14
400.0
 24
400.0
 15
400.0
 25
400.0
 16
0.0
 26
0.0
 36
1.0
 17
0.0
 27
0.0
 37
0.0
 40
972.26111704079165
 41
1.4423558897243101
 42
50.0
 43
0.0
 44
0.0
 50
0.0
 51
0.0
 71
     0
 72
   500
 73
     1
 74
     0
 75
     0
 76
     0
 77
     0
 78
     1
  0
ENDTAB
  0
TABLE
  2
LTYPE
 70
     7
  0
LTYPE
  2
CONTINUOUS
 70
     0
  3
実線
 72
    65
 73
     0
 40
0.0
  0
LTYPE
  2
DOT
 70
     0
  3
...............................................
 72
    65
 73
     2
 40
0.8
 49
0.5
 49
-0.3
  0
LTYPE
  2
DASHED
 70
     0
  3
_ _ _ _ _ _ _ _ _ _ _ _ _ _ _ _ _ _ _ _ _ _ _
 72
    65
 73
     2
 40
2.0
 49
1.1999999999999991
 49
-0.8
  0
LTYPE
  2
DASHDOT
 70
     0
  3
____ _ ____ _ ____ _ ____ _ ____ _ ____ _ ____
 72
    65
 73
     4
 40
5.5
 49
4.0
 49
-0.6
 49
0.3
 49
-0.6
  0
LTYPE
  2
DASHDOT1
 70
     0
  3
____ _ ____ _ ____ _ ____ _ ____ _ ____ _ ____
 72
    65
 73
     4
 40
2.0
 49
1.5
 49
-0.2
 49
0.1
 49
-0.2
  0
LTYPE
  2
DIVIDE
 70
     0
  3
_____ _ _ _____ _ _ _____ _ _ _____ _ _ ____
 72
    65
 73
     6
 40
6.4000000000000004
 49
4.0
 49
-0.6
 49
0.3
 49
-0.6
 49
0.3
 49
-0.6
  0
LTYPE
  2
DIVIDE1
 70
     0
  3
_____ _ _ _____ _ _ _____ _ _ _____ _ _ ____
 72
    65
 73
     6
 40
3.2000000000000002
 49
2.0
 49
-0.3
 49
0.15
 49
-0.3
 49
0.15
 49
-0.3
  0
ENDTAB
  0
TABLE
  2
LAYER
 70
    12
  0
LAYER
  2
0
 70
     0
 62
     7
  6
CONTINUOUS
  0
LAYER
  2
OUTLINE
 70
     0
 62
     3
  6
CONTINUOUS
  0
LAYER
  2
DETAIL
 70
     0
 62
     5
  6
CONTINUOUS
  0
LAYER
  2
BASIS
 70
     0
 62
     6
  6
DASHDOT
  0
LAYER
  2
SIZE
 70
     0
 62
    30
  6
CONTINUOUS
  0
LAYER
  2
ARRANGE
 70
     0
 62
     1
  6
CONTINUOUS
  0
LAYER
  2
ETC
 70
     0
 62
    61
  6
CONTINUOUS
  0
LAYER
  2
DEFPOINTS
 70
     0
 62
     7
  6
CONTINUOUS
  0
LAYER
  2
NOTE
 70
     0
 62
     4
  6
CONTINUOUS
  0
LAYER
  2
FIX
 70
     0
 62
    11
  6
CONTINUOUS
  0
LAYER
  2
SERVICESPACE
 70
     0
 62
     2
  6
DASHDOT
  0
LAYER
  2
SYMBOLLINE
 70
     0
 62
    15
  6
CONTINUOUS
  0
ENDTAB
  0
TABLE
  2
STYLE
 70
     1
  0
STYLE
  2
STANDARD
 70
     0
 40
0.0
 41
0.9
 50
0.0
 71
     0
 42
64.0
  3
SIMPLEX
  4
BIGFONT
  0
ENDTAB
  0
TABLE
  2
VIEW
 70
     1
  0
VIEW
  2
ALL
 70
     0
 40
6374.9789810000002
 10
0.0
 20
58.115015999999997
 41
8842.1052629999976
 11
0.0
 21
0.0
 31
1.0
 12
0.0
 22
0.0
 32
0.0
 42
50.0
 43
0.0
 44
0.0
 50
0.0
 71
     0
  0
ENDTAB
  0
TABLE
  2
UCS
 70
     0
  0
ENDTAB
  0
TABLE
  2
APPID
 70
     1
  0
APPID
  2
ACAD
 70
     0
  0
ENDTAB
  0
TABLE
  2
DIMSTYLE
 70
     1
  0
DIMSTYLE
  2
STANDARD
 70
     0
  3

  4

  5

  6

  7

 40
1.0
 41
0.18
 42
0.0625
 43
0.38
 44
0.18
 45
0.0
 46
0.0
 47
0.0
 48
0.0
140
0.18
141
0.09
142
0.0
143
25.399999999999999
144
1.0
145
0.0
146
1.0
147
0.09
 71
     0
 72
     0
 73
     1
 74
     1
 75
     0
 76
     0
 77
     0
 78
     0
170
     0
171
     2
172
     0
173
     0
174
     0
175
     0
176
     0
177
     0
178
     0
  0
ENDTAB
  0
ENDSEC
  0
SECTION
  2
BLOCKS
  0
BLOCK
  8
0
  2
$MODEL_SPACE
 70
     0
 10
0.0
 20
0.0
 30
0.0
  3
$MODEL_SPACE
  1

  0
ENDBLK
  5
20
  8
0
  0
BLOCK
 67
     1
  8
0
  2
$PAPER_SPACE
 70
     0
 10
0.0
 20
0.0
 30
0.0
  3
$PAPER_SPACE
  1

  0
ENDBLK
  5
1C
 67
     1
  8
0
  0
ENDSEC
  0
SECTION
  2
ENTITIES
  0
LINE
  5
39
  8
DETAIL
  6
CONTINUOUS
 62
     5
 10
-115.0
 20
102.4999999999999
 30
0.0
 11
-115.0
 21
-102.4999999999999
 31
0.0
  0
LINE
  5
3A
  8
DETAIL
  6
CONTINUOUS
 62
     5
 10
-102.4999999999999
 20
115.0
 30
0.0
 11
102.4999999999999
 21
115.0
 31
0.0
  0
LINE
  5
3B
  8
DETAIL
  6
CONTINUOUS
 62
     5
 10
-102.4999999999999
 20
-115.0
 30
0.0
 11
102.4999999999999
 21
-115.0
 31
0.0
  0
LINE
  5
3C
  8
DETAIL
  6
CONTINUOUS
 62
     5
 10
115.0
 20
102.4999999999999
 30
0.0
 11
115.0
 21
-102.4999999999999
 31
0.0
  0
ARC
  5
3D
  8
DETAIL
  6
CONTINUOUS
 62
     5
 10
-102.4999999999999
 20
102.4999999999999
 30
0.0
 40
12.5
 50
90.0
 51
180.0
  0
ARC
  5
3E
  8
DETAIL
  6
CONTINUOUS
 62
     5
 10
-102.4999999999999
 20
-102.4999999999999
 30
0.0
 40
12.5
 50
180.0
 51
270.0
  0
ARC
  5
3F
  8
DETAIL
  6
CONTINUOUS
 62
     5
 10
102.4999999999999
 20
102.4999999999999
 30
0.0
 40
12.5
 50
0.0
 51
90.0
  0
ARC
  5
40
  8
DETAIL
  6
CONTINUOUS
 62
     5
 10
102.4999999999999
 20
-102.4999999999999
 30
0.0
 40
12.5
 50
270.0
 51
0.0
  0
LINE
  5
41
  8
BASIS
  6
DASHDOT
 62
     6
 10
-143.29692900000001
 20
0.0
 30
0.0
 11
143.6389649999999
 21
0.0
 31
0.0
  0
LINE
  5
42
  8
BASIS
  6
DASHDOT
 62
     6
 10
0.0
 20
-149.95505900000001
 30
0.0
 11
0.0
 21
146.5793709999999
 31
0.0
  0
POINT
  5
43
  8
ARRANGE
  6
CONTINUOUS
 62
     1
 10
0.0
 20
0.0
 30
0.0
  0
CIRCLE
  5
44
  8
ARRANGE
  6
CONTINUOUS
 62
     1
 10
0.0
 20
0.0
 30
0.0
 40
40.0
  0
ARC
  5
45
  8
OUTLINE
  6
CONTINUOUS
 62
     3
 10
102.4999999999999
 20
-102.4999999999999
 30
0.0
 40
12.5
 50
270.0
 51
0.0
  0
LINE
  5
46
  8
OUTLINE
  6
CONTINUOUS
 62
     3
 10
-102.4999999999999
 20
-115.0
 30
0.0
 11
102.4999999999999
 21
-115.0
 31
0.0
  0
ARC
  5
47
  8
OUTLINE
  6
CONTINUOUS
 62
     3
 10
-102.4999999999999
 20
-102.4999999999999
 30
0.0
 40
12.5
 50
180.0
 51
270.0
  0
LINE
  5
48
  8
OUTLINE
  6
CONTINUOUS
 62
     3
 10
-115.0
 20
102.4999999999999
 30
0.0
 11
-115.0
 21
-102.4999999999999
 31
0.0
  0
ARC
  5
49
  8
OUTLINE
  6
CONTINUOUS
 62
     3
 10
-102.4999999999999
 20
102.4999999999999
 30
0.0
 40
12.5
 50
90.0
 51
180.0
  0
LINE
  5
4A
  8
OUTLINE
  6
CONTINUOUS
 62
     3
 10
-102.4999999999999
 20
115.0
 30
0.0
 11
102.4999999999999
 21
115.0
 31
0.0
  0
ARC
  5
4B
  8
OUTLINE
  6
CONTINUOUS
 62
     3
 10
102.4999999999999
 20
102.4999999999999
 30
0.0
 40
12.5
 50
0.0
 51
90.0
  0
LINE
  5
4C
  8
OUTLINE
  6
CONTINUOUS
 62
     3
 10
115.0
 20
102.4999999999999
 30
0.0
 11
115.0
 21
-102.4999999999999
 31
0.0
  0
LINE
  5
4D
  8
DETAIL
  6
CONTINUOUS
 62
     5
 10
-95.0
 20
105.0
 30
0.0
 11
95.0
 21
105.0
 31
0.0
  0
LINE
  5
4E
  8
DETAIL
  6
CONTINUOUS
 62
     5
 10
-95.0
 20
-105.0
 30
0.0
 11
95.0
 21
-105.0
 31
0.0
  0
LINE
  5
4F
  8
DETAIL
  6
CONTINUOUS
 62
     5
 10
-105.0
 20
-95.0
 30
0.0
 11
-105.0
 21
95.0
 31
0.0
  0
LINE
  5
50
  8
DETAIL
  6
CONTINUOUS
 62
     5
 10
105.0
 20
-95.0
 30
0.0
 11
105.0
 21
95.0
 31
0.0
  0
ARC
  5
51
  8
DETAIL
  6
CONTINUOUS
 62
     5
 10
-95.0
 20
95.0
 30
0.0
 40
10.0
 50
90.0
 51
180.0
  0
ARC
  5
52
  8
DETAIL
  6
CONTINUOUS
 62
     5
 10
-95.0
 20
-95.0
 30
0.0
 40
10.0
 50
180.0
 51
270.0
  0
ARC
  5
53
  8
DETAIL
  6
CONTINUOUS
 62
     5
 10
95.0
 20
-95.0
 30
0.0
 40
10.0
 50
270.0
 51
0.0
  0
ARC
  5
54
  8
DETAIL
  6
CONTINUOUS
 62
     5
 10
95.0
 20
95.0
 30
0.0
 40
10.0
 50
0.0
 51
90.0
  0
LINE
  5
55
  8
SIZE
  6
CONTINUOUS
 62
    30
 10
302.63697400000001
 20
-61.0
 30
0.0
 11
302.63697400000001
 21
-285.70491600000003
 31
0.0
  0
CIRCLE
  5
56
  8
DETAIL
  6
CONTINUOUS
 62
     5
 10
0.0
 20
0.0
 30
0.0
 40
73.5
  0
LINE
  5
57
  8
SIZE
  6
BYBLOCK
 62
    30
 10
20.0
 20
73.5
 30
0.0
 11
332.63697400000001
 21
73.5
 31
0.0
  0
LINE
  5
58
  8
SIZE
  6
BYBLOCK
 62
    30
 10
20.0
 20
-73.5
 30
0.0
 11
332.63697400000001
 21
-73.5
 31
0.0
  0
LINE
  5
59
  8
SIZE
  6
BYBLOCK
 62
    30
 10
302.63697400000001
 20
-75.5
 30
0.0
 11
302.63697400000001
 21
-77.5
 31
0.0
  0
LINE
  5
5A
  8
SIZE
  6
BYBLOCK
 62
    30
 10
302.63697400000001
 20
75.5
 30
0.0
 11
302.63697400000001
 21
77.5
 31
0.0
  0
LINE
  5
5B
  8
SIZE
  6
BYBLOCK
 62
    30
 10
302.63697400000001
 20
-73.5
 30
0.0
 11
302.63697400000001
 21
73.5
 31
0.0
  0
TEXT
  5
5C
  8
SIZE
  6
BYBLOCK
 62
    30
 10
270.6369739999999
 20
-302.75178299999988
 30
0.0
 40
64.0
  1
φ147
 50
90.0
 41
0.9
  0
LINE
  5
5D
  8
SIZE
  6
BYBLOCK
 62
    30
 10
105.0
 20
115.0
 30
0.0
 11
105.0
 21
215.377297
 31
0.0
  0
LINE
  5
5E
  8
SIZE
  6
BYBLOCK
 62
    30
 10
-105.0
 20
115.0
 30
0.0
 11
-105.0
 21
215.377297
 31
0.0
  0
LINE
  5
5F
  8
SIZE
  6
BYBLOCK
 62
    30
 10
103.0
 20
185.37729699999991
 30
0.0
 11
0.0
 21
185.37729699999991
 31
0.0
  0
LINE
  5
60
  8
SIZE
  6
BYBLOCK
 62
    30
 10
-103.0
 20
185.37729699999991
 30
0.0
 11
0.0
 21
185.37729699999991
 31
0.0
  0
TEXT
  5
61
  8
SIZE
  6
BYBLOCK
 62
    30
 10
-101.211429
 20
217.377297
 30
0.0
 40
64.0
  1
□210
 41
0.9
  0
LINE
  5
62
  8
SIZE
  6
BYBLOCK
 62
    30
 10
115.0
 20
122.5
 30
0.0
 11
115.0
 21
335.965891
 31
0.0
  0
LINE
  5
63
  8
SIZE
  6
BYBLOCK
 62
    30
 10
-115.0
 20
122.5
 30
0.0
 11
-115.0
 21
335.965891
 31
0.0
  0
LINE
  5
64
  8
SIZE
  6
BYBLOCK
 62
    30
 10
113.0
 20
305.965891
 30
0.0
 11
0.0
 21
305.965891
 31
0.0
  0
LINE
  5
65
  8
SIZE
  6
BYBLOCK
 62
    30
 10
-113.0
 20
305.965891
 30
0.0
 11
0.0
 21
305.965891
 31
0.0
  0
TEXT
  5
66
  8
SIZE
  6
BYBLOCK
 62
    30
 10
-106.6971429999999
 20
337.96589099999989
 30
0.0
 40
64.0
  1
□230
 41
0.9
  0
CIRCLE
  5
67
  8
SIZE
  6
CONTINUOUS
 62
    30
 10
-115.0
 20
305.965891
 30
0.0
 40
6.0
  0
CIRCLE
  5
68
  8
SIZE
  6
CONTINUOUS
 62
    30
 10
115.0
 20
305.965891
 30
0.0
 40
6.0
  0
CIRCLE
  5
69
  8
SIZE
  6
CONTINUOUS
 62
    30
 10
-105.0
 20
185.37729699999991
 30
0.0
 40
6.0
  0
CIRCLE
  5
6A
  8
SIZE
  6
CONTINUOUS
 62
    30
 10
105.0
 20
185.37729699999991
 30
0.0
 40
6.0
  0
CIRCLE
  5
6B
  8
SIZE
  6
CONTINUOUS
 62
    30
 10
302.63697400000001
 20
73.5
 30
0.0
 40
6.0
  0
CIRCLE
  5
6C
  8
SIZE
  6
CONTINUOUS
 62
    30
 10
302.63697400000001
 20
-73.5
 30
0.0
 40
6.0
  0
TEXT
  5
77
  8
ETC
  6
CONTINUOUS
 62
    61
 10
355.85976765562742
 20
179.11028748808499
 30
0.0
 40
50.0
  1
P-18YSQ3-BL
 41
0.9
  0
TEXT
  5
78
  8
ETC
  6
CONTINUOUS
 62
    61
 10
353.46019466828062
 20
259.5636691381784
 30
0.0
 40
50.0
  1
P-18YS3-BL
 41
0.9
  0
TEXT
  5
79
  8
ETC
  6
CONTINUOUS
 62
    61
 10
248.70671375876009
 20
446.93138564803951
 30
0.0
 40
64.0
  1
P-18YS3-BL_3
 41
0.9
  0
TEXT
  5
7A
  8
ETC
  6
CONTINUOUS
 62
    61
 10
237.7995127587601
 20
351.81306864803952
 30
0.0
 40
64.0
  1
システム部材
 41
0.9
  0
ENDSEC
  0
EOF
