  0
SECTION
  2
HEADER
  9
$ACADVER
  1
AC1009
  9
$INSBASE
 10
0.0
 20
0.0
 30
0.0
  9
$EXTMIN
 10
-426.81882370591478
 20
-289.58585951429268
 30
-0.0000000349181948
  9
$EXTMAX
 10
927.33766223226837
 20
502.13013791028601
 30
0.0000000814935746
  9
$LIMMIN
 10
-4200.0
 20
-2970.0
  9
$LIMMAX
 10
4200.0
 20
2970.0
  9
$ORTHOMODE
 70
     1
  9
$REGENMODE
 70
     0
  9
$FILLMODE
 70
     1
  9
$QTEXTMODE
 70
     0
  9
$MIRRTEXT
 70
     0
  9
$DRAGMODE
 70
     2
  9
$LTSCALE
 40
20.0
  9
$OSMODE
 70
    37
  9
$ATTMODE
 70
     1
  9
$TEXTSIZE
 40
64.0
  9
$TRACEWID
 40
0.05
  9
$TEXTSTYLE
  7
STANDARD
  9
$CLAYER
  8
SIZE
  9
$CELTYPE
  6
CONTINUOUS
  9
$CECOLOR
 62
    30
  9
$DIMSCALE
 40
1.0
  9
$DIMASZ
 40
2.0
  9
$DIMEXO
 40
20.0
  9
$DIMDLI
 40
200.0
  9
$DIMRND
 40
0.0
  9
$DIMDLE
 40
0.0
  9
$DIMEXE
 40
30.0
  9
$DIMTP
 40
0.0
  9
$DIMTM
 40
0.0
  9
$DIMTXT
 40
64.0
  9
$DIMCEN
 40
0.09
  9
$DIMTSZ
 40
0.0
  9
$DIMTOL
 70
     0
  9
$DIMLIM
 70
     0
  9
$DIMTIH
 70
     0
  9
$DIMTOH
 70
     0
  9
$DIMSE1
 70
     0
  9
$DIMSE2
 70
     0
  9
$DIMTAD
 70
     1
  9
$DIMZIN
 70
     8
  9
$DIMBLK
  1

  9
$DIMASO
 70
     1
  9
$DIMSHO
 70
     0
  9
$DIMPOST
  1

  9
$DIMAPOST
  1

  9
$DIMALT
 70
     0
  9
$DIMALTD
 70
     2
  9
$DIMALTF
 40
25.399999999999999
  9
$DIMLFAC
 40
1.0
  9
$DIMTOFL
 70
     1
  9
$DIMTVP
 40
0.0
  9
$DIMTIX
 70
     1
  9
$DIMSOXD
 70
     0
  9
$DIMSAH
 70
     0
  9
$DIMBLK1
  1

  9
$DIMBLK2
  1

  9
$DIMSTYLE
  2
STANDARD
  9
$DIMCLRD
 70
     0
  9
$DIMCLRE
 70
     0
  9
$DIMCLRT
 70
     0
  9
$DIMTFAC
 40
1.0
  9
$DIMGAP
 40
0.09
  9
$LUNITS
 70
     2
  9
$LUPREC
 70
     4
  9
$SKETCHINC
 40
0.1
  9
$FILLETRAD
 40
1.0
  9
$AUNITS
 70
     1
  9
$AUPREC
 70
     3
  9
$MENU
  1
ACAD
  9
$ELEVATION
 40
0.0
  9
$PELEVATION
 40
0.0
  9
$THICKNESS
 40
0.0
  9
$LIMCHECK
 70
     1
  9
$BLIPMODE
 70
     0
  9
$CHAMFERA
 40
0.0
  9
$CHAMFERB
 40
0.0
  9
$SKPOLY
 70
     0
  9
$TDCREATE
 40
2451844.5886921301
  9
$TDUPDATE
 40
2454825.4617275121
  9
$TDINDWG
 40
0.0065432639
  9
$TDUSRTIMER
 40
0.0065432639
  9
$USRTIMER
 70
     1
  9
$ANGBASE
 50
0.0
  9
$ANGDIR
 70
     0
  9
$PDMODE
 70
     3
  9
$PDSIZE
 40
-2.0
  9
$PLINEWID
 40
0.0
  9
$COORDS
 70
     0
  9
$SPLFRAME
 70
     0
  9
$SPLINETYPE
 70
     6
  9
$SPLINESEGS
 70
     8
  9
$ATTDIA
 70
     0
  9
$ATTREQ
 70
     1
  9
$HANDLING
 70
     1
  9
$HANDSEED
  5
328
  9
$SURFTAB1
 70
     6
  9
$SURFTAB2
 70
     6
  9
$SURFTYPE
 70
     6
  9
$SURFU
 70
     6
  9
$SURFV
 70
     6
  9
$UCSNAME
  2

  9
$UCSORG
 10
0.0
 20
0.0
 30
0.0
  9
$UCSXDIR
 10
1.0
 20
0.0
 30
0.0
  9
$UCSYDIR
 10
0.0
 20
1.0
 30
0.0
  9
$PUCSNAME
  2

  9
$PUCSORG
 10
0.0
 20
0.0
 30
0.0
  9
$PUCSXDIR
 10
1.0
 20
0.0
 30
0.0
  9
$PUCSYDIR
 10
0.0
 20
1.0
 30
0.0
  9
$USERI1
 70
     0
  9
$USERI2
 70
     0
  9
$USERI3
 70
     0
  9
$USERI4
 70
     0
  9
$USERI5
 70
     0
  9
$USERR1
 40
20.0
  9
$USERR2
 40
0.0
  9
$USERR3
 40
0.0
  9
$USERR4
 40
0.0
  9
$USERR5
 40
0.0
  9
$WORLDVIEW
 70
     1
  9
$SHADEDGE
 70
     3
  9
$SHADEDIF
 70
    70
  9
$TILEMODE
 70
     1
  9
$MAXACTVP
 70
    64
  9
$PLIMCHECK
 70
     0
  9
$PEXTMIN
 10
1.0000000000000000E+020
 20
1.0000000000000000E+020
 30
1.0000000000000000E+020
  9
$PEXTMAX
 10
-1.0000000000000000E+020
 20
-1.0000000000000000E+020
 30
-1.0000000000000000E+020
  9
$PLIMMIN
 10
0.0
 20
0.0
  9
$PLIMMAX
 10
12.0
 20
9.0
  9
$UNITMODE
 70
     0
  9
$VISRETAIN
 70
     1
  9
$PLINEGEN
 70
     0
  9
$PSLTSCALE
 70
     1
  0
ENDSEC
  0
SECTION
  2
TABLES
  0
TABLE
  2
VPORT
 70
     1
  0
VPORT
  2
*ACTIVE
 70
     0
 10
0.0
 20
0.0
 11
1.0
 21
1.0
 12
250.25941926317699
 22
106.27213919799669
 13
0.0
 23
0.0
 14
400.0
 24
400.0
 15
400.0
 25
400.0
 16
0.0
 26
0.0
 36
1.0
 17
0.0
 27
0.0
 37
0.0
 40
1040.5705402596541
 41
1.3098995695839311
 42
50.0
 43
0.0
 44
0.0
 50
0.0
 51
0.0
 71
     0
 72
   500
 73
     1
 74
     0
 75
     0
 76
     0
 77
     0
 78
     1
  0
ENDTAB
  0
TABLE
  2
LTYPE
 70
     7
  0
LTYPE
  2
CONTINUOUS
 70
     0
  3
実線
 72
    65
 73
     0
 40
0.0
  0
LTYPE
  2
DOT
 70
     0
  3
...............................................
 72
    65
 73
     2
 40
0.8
 49
0.5
 49
-0.3
  0
LTYPE
  2
DASHED
 70
     0
  3
_ _ _ _ _ _ _ _ _ _ _ _ _ _ _ _ _ _ _ _ _ _ _
 72
    65
 73
     2
 40
2.0
 49
1.1999999999999991
 49
-0.8
  0
LTYPE
  2
DASHDOT
 70
     0
  3
____ _ ____ _ ____ _ ____ _ ____ _ ____ _ ____
 72
    65
 73
     4
 40
5.5
 49
4.0
 49
-0.6
 49
0.3
 49
-0.6
  0
LTYPE
  2
DASHDOT1
 70
     0
  3
____ _ ____ _ ____ _ ____ _ ____ _ ____ _ ____
 72
    65
 73
     4
 40
2.0
 49
1.5
 49
-0.2
 49
0.1
 49
-0.2
  0
LTYPE
  2
DIVIDE
 70
     0
  3
_____ _ _ _____ _ _ _____ _ _ _____ _ _ ____
 72
    65
 73
     6
 40
6.4000000000000004
 49
4.0
 49
-0.6
 49
0.3
 49
-0.6
 49
0.3
 49
-0.6
  0
LTYPE
  2
DIVIDE1
 70
     0
  3
_____ _ _ _____ _ _ _____ _ _ _____ _ _ ____
 72
    65
 73
     6
 40
3.2000000000000002
 49
2.0
 49
-0.3
 49
0.15
 49
-0.3
 49
0.15
 49
-0.3
  0
ENDTAB
  0
TABLE
  2
LAYER
 70
    12
  0
LAYER
  2
0
 70
     0
 62
     7
  6
CONTINUOUS
  0
LAYER
  2
SIZE
 70
     0
 62
    30
  6
CONTINUOUS
  0
LAYER
  2
OUTLINE
 70
     0
 62
     3
  6
CONTINUOUS
  0
LAYER
  2
DETAIL
 70
     0
 62
     5
  6
CONTINUOUS
  0
LAYER
  2
BASIS
 70
     0
 62
     6
  6
DASHDOT
  0
LAYER
  2
ARRANGE
 70
     0
 62
     1
  6
CONTINUOUS
  0
LAYER
  2
ETC
 70
     0
 62
    61
  6
CONTINUOUS
  0
LAYER
  2
DEFPOINTS
 70
     0
 62
     7
  6
CONTINUOUS
  0
LAYER
  2
NOTE
 70
     0
 62
     4
  6
CONTINUOUS
  0
LAYER
  2
FIX
 70
     0
 62
    11
  6
CONTINUOUS
  0
LAYER
  2
SERVICESPACE
 70
     0
 62
     2
  6
DASHDOT
  0
LAYER
  2
SYMBOLLINE
 70
     0
 62
    15
  6
CONTINUOUS
  0
ENDTAB
  0
TABLE
  2
STYLE
 70
     2
  0
STYLE
  2
STANDARD
 70
     0
 40
0.0
 41
0.9
 50
0.0
 71
     0
 42
64.0
  3
SIMPLEX
  4
BIGFONT
  0
STYLE
  2
ANNOTATIVE
 70
     0
 40
0.0
 41
1.0
 50
0.0
 71
     0
 42
0.2
  3
txt
  4

  0
ENDTAB
  0
TABLE
  2
VIEW
 70
     1
  0
VIEW
  2
ALL
 70
     0
 40
6374.9789810000002
 10
0.0
 20
58.11501599999999
 41
8842.1052629999976
 11
0.0
 21
0.0
 31
1.0
 12
0.0
 22
0.0
 32
0.0
 42
50.0
 43
0.0
 44
0.0
 50
0.0
 71
     0
  0
ENDTAB
  0
TABLE
  2
UCS
 70
     0
  0
ENDTAB
  0
TABLE
  2
APPID
 70
     4
  0
APPID
  2
ACAD
 70
     0
  0
APPID
  2
ACADANNOTATIVE
 70
     0
  0
APPID
  2
ACAD_MLEADERVER
 70
     0
  0
APPID
  2
ACAD_EXEMPT_FROM_CAD_STANDARDS
 70
     0
  0
ENDTAB
  0
TABLE
  2
DIMSTYLE
 70
     2
  0
DIMSTYLE
  2
STANDARD
 70
     0
  3

  4

  5

  6

  7

 40
1.0
 41
0.18
 42
0.0625
 43
0.38
 44
0.18
 45
0.0
 46
0.0
 47
0.0
 48
0.0
140
0.18
141
0.09
142
0.0
143
25.399999999999999
144
1.0
145
0.0
146
1.0
147
0.09
 71
     0
 72
     0
 73
     1
 74
     1
 75
     0
 76
     0
 77
     0
 78
     0
170
     0
171
     2
172
     0
173
     0
174
     0
175
     0
176
     0
177
     0
178
     0
  0
DIMSTYLE
  2
ANNOTATIVE
 70
     0
  3

  4

  5

  6

  7

 40
1.0
 41
0.18
 42
0.0625
 43
0.38
 44
0.18
 45
0.0
 46
0.0
 47
0.0
 48
0.0
140
0.18
141
0.09
142
0.0
143
25.399999999999999
144
1.0
145
0.0
146
1.0
147
0.09
 71
     0
 72
     0
 73
     1
 74
     1
 75
     0
 76
     0
 77
     0
 78
     0
170
     0
171
     2
172
     0
173
     0
174
     0
175
     0
176
     0
177
     0
178
     0
  0
ENDTAB
  0
ENDSEC
  0
SECTION
  2
BLOCKS
  0
BLOCK
  8
0
  2
$MODEL_SPACE
 70
     0
 10
0.0
 20
0.0
 30
0.0
  3
$MODEL_SPACE
  1

  0
ENDBLK
  5
2CD
  8
0
  0
BLOCK
 67
     1
  8
0
  2
$PAPER_SPACE
 70
     0
 10
0.0
 20
0.0
 30
0.0
  3
$PAPER_SPACE
  1

  0
ENDBLK
  5
2C9
 67
     1
  8
0
  0
ENDSEC
  0
SECTION
  2
ENTITIES
  0
LINE
  5
173
  8
DETAIL
  6
CONTINUOUS
 62
     5
 10
-115.0
 20
-57.0
 30
0.0
 11
-115.0
 21
-58.0
 31
0.0
  0
LINE
  5
174
  8
DETAIL
  6
CONTINUOUS
 62
     5
 10
95.310338000000016
 20
-16.625346
 30
0.0
 11
95.310338000000016
 21
-9.375
 31
0.0
  0
LINE
  5
175
  8
DETAIL
  6
CONTINUOUS
 62
     5
 10
-73.440237999999979
 20
-34.0
 30
0.0
 11
-73.440237999999979
 21
-56.25
 31
0.0
  0
LINE
  5
176
  8
DETAIL
  6
CONTINUOUS
 62
     5
 10
-81.395189000000002
 20
-34.0
 30
0.0
 11
-81.395189000000002
 21
-56.25
 31
0.0
  0
LINE
  5
177
  8
DETAIL
  6
CONTINUOUS
 62
     5
 10
-81.395189000000002
 20
-34.0
 30
0.0
 11
-78.743538000000001
 21
-34.0
 31
0.0
  0
LINE
  5
178
  8
DETAIL
  6
CONTINUOUS
 62
     5
 10
-73.970568
 20
-57.0
 30
0.0
 11
-89.671839000000006
 21
-57.0
 31
0.0
  0
LINE
  5
179
  8
DETAIL
  6
CONTINUOUS
 62
     5
 10
-78.743538000000001
 20
-57.0
 30
0.0
 11
-77.417713000000006
 21
-55.409009999999981
 31
0.0
  0
LINE
  5
17A
  8
DETAIL
  6
CONTINUOUS
 62
     5
 10
-77.417713000000006
 20
-55.409009999999981
 30
0.0
 11
-76.091887999999983
 21
-57.0
 31
0.0
  0
LINE
  5
17B
  8
DETAIL
  6
CONTINUOUS
 62
     5
 10
-77.417713000000006
 20
-38.302641999999999
 30
0.0
 11
-78.743538000000001
 21
-34.0
 31
0.0
  0
LINE
  5
17C
  8
DETAIL
  6
CONTINUOUS
 62
     5
 10
-77.417713000000006
 20
-38.302641999999999
 30
0.0
 11
-76.091887999999983
 21
-34.0
 31
0.0
  0
LINE
  5
17D
  8
DETAIL
  6
CONTINUOUS
 62
     5
 10
-76.091887999999983
 20
-34.0
 30
0.0
 11
-77.948042999999998
 21
-29.762723999999999
 31
0.0
  0
LINE
  5
17E
  8
DETAIL
  6
CONTINUOUS
 62
     5
 10
-77.948042999999998
 20
-29.762723999999999
 30
0.0
 11
-78.743538000000001
 21
-34.0
 31
0.0
  0
LINE
  5
17F
  8
DETAIL
  6
CONTINUOUS
 62
     5
 10
-77.948042999999998
 20
-29.762723999999999
 30
0.0
 11
-77.417713000000006
 21
-38.302641999999999
 31
0.0
  0
LINE
  5
180
  8
DETAIL
  6
CONTINUOUS
 62
     5
 10
-76.091887999999983
 20
-34.0
 30
0.0
 11
-73.440237999999979
 21
-34.0
 31
0.0
  0
LINE
  5
181
  8
DETAIL
  6
CONTINUOUS
 62
     5
 10
-81.395189000000002
 20
-34.0
 30
0.0
 11
-82.810242000000002
 21
-18.776045
 31
0.0
  0
LINE
  5
182
  8
DETAIL
  6
CONTINUOUS
 62
     5
 10
-73.440237999999979
 20
-34.0
 30
0.0
 11
-74.991406999999981
 21
-17.311630999999991
 31
0.0
  0
LINE
  5
183
  8
DETAIL
  6
CONTINUOUS
 62
     5
 10
76.091887999999983
 20
-34.0
 30
0.0
 11
73.440237999999979
 21
-34.0
 31
0.0
  0
LINE
  5
184
  8
DETAIL
  6
CONTINUOUS
 62
     5
 10
77.948042999999998
 20
-29.762723999999999
 30
0.0
 11
77.417713000000006
 21
-38.302641999999999
 31
0.0
  0
LINE
  5
185
  8
DETAIL
  6
CONTINUOUS
 62
     5
 10
77.948042999999998
 20
-29.762723999999999
 30
0.0
 11
78.743538000000001
 21
-34.0
 31
0.0
  0
LINE
  5
186
  8
DETAIL
  6
CONTINUOUS
 62
     5
 10
76.091887999999983
 20
-34.0
 30
0.0
 11
77.948042999999998
 21
-29.762723999999999
 31
0.0
  0
LINE
  5
187
  8
DETAIL
  6
CONTINUOUS
 62
     5
 10
77.417713000000006
 20
-38.302641999999999
 30
0.0
 11
76.091887999999983
 21
-34.0
 31
0.0
  0
LINE
  5
188
  8
DETAIL
  6
CONTINUOUS
 62
     5
 10
77.417713000000006
 20
-38.302641999999999
 30
0.0
 11
78.743538000000001
 21
-34.0
 31
0.0
  0
LINE
  5
189
  8
DETAIL
  6
CONTINUOUS
 62
     5
 10
77.417713000000006
 20
-55.409009999999981
 30
0.0
 11
76.091887999999983
 21
-57.0
 31
0.0
  0
LINE
  5
18A
  8
DETAIL
  6
CONTINUOUS
 62
     5
 10
78.743538000000001
 20
-57.0
 30
0.0
 11
77.417713000000006
 21
-55.409009999999981
 31
0.0
  0
LINE
  5
18B
  8
DETAIL
  6
CONTINUOUS
 62
     5
 10
81.395189000000002
 20
-34.0
 30
0.0
 11
78.743538000000001
 21
-34.0
 31
0.0
  0
LINE
  5
18C
  8
DETAIL
  6
CONTINUOUS
 62
     5
 10
81.395189000000002
 20
-34.0
 30
0.0
 11
81.395189000000002
 21
-56.25
 31
0.0
  0
LINE
  5
18D
  8
DETAIL
  6
CONTINUOUS
 62
     5
 10
73.440237999999979
 20
-34.0
 30
0.0
 11
73.440237999999979
 21
-56.25
 31
0.0
  0
LINE
  5
18E
  8
DETAIL
  6
CONTINUOUS
 62
     5
 10
81.395189000000002
 20
-34.0
 30
0.0
 11
82.810242000000002
 21
-18.776045
 31
0.0
  0
LINE
  5
18F
  8
DETAIL
  6
CONTINUOUS
 62
     5
 10
73.440237999999979
 20
-34.0
 30
0.0
 11
74.985604000000023
 21
-17.37407
 31
0.0
  0
LINE
  5
190
  8
DETAIL
  6
CONTINUOUS
 62
     5
 10
95.310338000000016
 20
-16.625346
 30
0.0
 11
83.752249000000006
 21
-16.625346
 31
0.0
  0
LINE
  5
191
  8
DETAIL
  6
CONTINUOUS
 62
     5
 10
72.793058000000002
 20
-16.250346
 30
0.0
 11
-72.793058000000002
 21
-16.250346
 31
0.0
  0
ARC
  5
192
  8
DETAIL
  6
CONTINUOUS
 62
     5
 10
85.810068999999999
 20
-18.808320999999999
 30
0.0
 40
3.0
 50
133.30956
 51
179.38356999999999
  0
ARC
  5
193
  8
DETAIL
  6
CONTINUOUS
 62
     5
 10
95.685338000000002
 20
-9.375
 30
0.0
 40
0.375
 50
90.0
 51
180.0
  0
ARC
  5
194
  8
DETAIL
  6
CONTINUOUS
 62
     5
 10
82.144476999999995
 20
-56.282673000000003
 30
0.0
 40
0.75
 50
177.5031459999999
 51
253.025634
  0
ARC
  5
195
  8
DETAIL
  6
CONTINUOUS
 62
     5
 10
74.189526000000001
 20
-56.282673000000003
 30
0.0
 40
0.75
 50
177.5031459999999
 51
253.025634
  0
ARC
  5
196
  8
DETAIL
  6
CONTINUOUS
 62
     5
 10
-74.189526000000001
 20
-56.282673000000003
 30
0.0
 40
0.75
 50
286.97436599999992
 51
2.496853999999999
  0
ARC
  5
197
  8
DETAIL
  6
CONTINUOUS
 62
     5
 10
-82.144476999999995
 20
-56.282673000000003
 30
0.0
 40
0.75
 50
286.97436599999992
 51
2.496853999999999
  0
LINE
  5
198
  8
DETAIL
  6
CONTINUOUS
 62
     5
 10
-73.5
 20
0.0
 30
0.0
 11
-73.5
 21
63.0
 31
0.0
  0
LINE
  5
199
  8
DETAIL
  6
CONTINUOUS
 62
     5
 10
115.0
 20
-57.0
 30
0.0
 11
-115.0
 21
-57.0
 31
0.0
  0
LINE
  5
19A
  8
DETAIL
  6
CONTINUOUS
 62
     5
 10
73.5
 20
0.0
 30
0.0
 11
73.5
 21
63.0
 31
0.0
  0
LINE
  5
19B
  8
DETAIL
  6
CONTINUOUS
 62
     5
 10
-105.0
 20
0.0
 30
0.0
 11
-105.0
 21
-6.0
 31
0.0
  0
LINE
  5
19C
  8
DETAIL
  6
CONTINUOUS
 62
     5
 10
105.0
 20
0.0
 30
0.0
 11
105.0
 21
-6.0
 31
0.0
  0
LINE
  5
19D
  8
DETAIL
  6
CONTINUOUS
 62
     5
 10
102.0
 20
-9.0
 30
0.0
 11
-102.0
 21
-9.0
 31
0.0
  0
LINE
  5
19E
  8
DETAIL
  6
CONTINUOUS
 62
     5
 10
115.0
 20
-57.0
 30
0.0
 11
115.0
 21
-58.0
 31
0.0
  0
LINE
  5
19F
  8
BASIS
  6
DASHDOT
 62
     6
 10
0.0
 20
-93.184522000000015
 30
0.0
 11
0.0
 21
89.645255999999989
 31
0.0
  0
LINE
  5
1A0
  8
DETAIL
  6
CONTINUOUS
 62
     5
 10
114.0
 20
-59.0
 30
0.0
 11
-114.0
 21
-59.0
 31
0.0
  0
ARC
  5
1A1
  8
DETAIL
  6
CONTINUOUS
 62
     5
 10
114.0
 20
-58.0
 30
0.0
 40
1.0
 50
270.0
 51
0.0
  0
ARC
  5
1A2
  8
DETAIL
  6
CONTINUOUS
 62
     5
 10
-114.0
 20
-58.0
 30
0.0
 40
1.0
 50
180.0
 51
270.0
  0
LINE
  5
1A3
  8
DETAIL
  6
CONTINUOUS
 62
     5
 10
105.0
 20
0.0
 30
0.0
 11
-105.0
 21
0.0
 31
0.0
  0
ARC
  5
1A4
  8
DETAIL
  6
CONTINUOUS
 62
     5
 10
-102.0
 20
-6.0
 30
0.0
 40
3.0
 50
180.0
 51
270.0
  0
ARC
  5
1A5
  8
DETAIL
  6
CONTINUOUS
 62
     5
 10
102.0
 20
-6.0
 30
0.0
 40
3.0
 50
270.0
 51
0.0
  0
LINE
  5
1A6
  8
DETAIL
  6
CONTINUOUS
 62
     5
 10
73.5
 20
63.0
 30
0.0
 11
-73.5
 21
63.0
 31
0.0
  0
CIRCLE
  5
1A7
  8
ARRANGE
  6
CONTINUOUS
 62
     1
 10
0.0
 20
0.0
 30
0.0
 40
40.0
  0
POINT
  5
1A8
  8
ARRANGE
  6
CONTINUOUS
 62
     1
 10
0.0
 20
0.0
 30
0.0
  0
LINE
  5
1A9
  8
DETAIL
  6
CONTINUOUS
 62
     5
 10
-71.348223000000004
 20
-34.0
 30
0.0
 11
-73.078186000000002
 21
-16.250346
 31
0.0
  0
LINE
  5
1AA
  8
DETAIL
  6
CONTINUOUS
 62
     5
 10
45.293058000000002
 20
-16.250346
 30
0.0
 11
-45.293058000000002
 21
-16.250346
 31
0.0
  0
LINE
  5
1AB
  8
DETAIL
  6
CONTINUOUS
 62
     5
 10
71.348223000000004
 20
-34.0
 30
0.0
 11
-71.348223000000004
 21
-34.0
 31
0.0
  0
LINE
  5
1AC
  8
DETAIL
  6
CONTINUOUS
 62
     5
 10
45.293058000000002
 20
-16.250346
 30
0.0
 11
46.537776000000001
 21
-16.250346
 31
0.0
  0
ARC
  5
1AD
  8
DETAIL
  6
CONTINUOUS
 62
     5
 10
-73.993286999999981
 20
-17.250346
 30
0.0
 40
1.0
 50
90.0
 51
187.10707600000001
  0
LINE
  5
1AE
  8
DETAIL
  6
CONTINUOUS
 62
     5
 10
-72.748569000000003
 20
-16.250346
 30
0.0
 11
-73.993286999999981
 21
-16.250346
 31
0.0
  0
LINE
  5
1AF
  8
DETAIL
  6
CONTINUOUS
 62
     5
 10
72.748569000000003
 20
-16.250346
 30
0.0
 11
73.993286999999981
 21
-16.250346
 31
0.0
  0
ARC
  5
1B0
  8
DETAIL
  6
CONTINUOUS
 62
     5
 10
73.993286999999981
 20
-17.250346
 30
0.0
 40
1.0
 50
352.89292399999999
 51
90.0
  0
LINE
  5
1B1
  8
DETAIL
  6
CONTINUOUS
 62
     5
 10
71.348223000000004
 20
-34.0
 30
0.0
 11
73.078186000000002
 21
-16.250346
 31
0.0
  0
ARC
  5
1B2
  8
DETAIL
  6
CONTINUOUS
 62
     5
 10
-95.685338000000002
 20
-9.375
 30
0.0
 40
0.375
 50
0.0
 51
90.0
  0
ARC
  5
1B3
  8
DETAIL
  6
CONTINUOUS
 62
     5
 10
-85.810068999999999
 20
-18.808320999999999
 30
0.0
 40
3.0
 50
0.6164300000000003
 51
46.690440000000009
  0
LINE
  5
1B4
  8
DETAIL
  6
CONTINUOUS
 62
     5
 10
-95.310338000000016
 20
-16.625346
 30
0.0
 11
-83.752249000000006
 21
-16.625346
 31
0.0
  0
LINE
  5
1B5
  8
DETAIL
  6
CONTINUOUS
 62
     5
 10
-95.310338000000016
 20
-16.625346
 30
0.0
 11
-95.310338000000016
 21
-9.375
 31
0.0
  0
LINE
  5
1B6
  8
SIZE
  6
CONTINUOUS
 62
    30
 10
-207.1296509999998
 20
-9.0
 30
0.0
 11
-207.1296509999998
 21
-149.01498899999979
 31
0.0
  0
LINE
  5
1B7
  8
SIZE
  6
CONTINUOUS
 62
    30
 10
-330.29266899999999
 20
-59.0
 30
0.0
 11
-330.29266899999999
 21
-204.2266799999999
 31
0.0
  0
LINE
  5
1B8
  8
OUTLINE
  6
CONTINUOUS
 62
     3
 10
-95.310338000000016
 20
-16.625346
 30
0.0
 11
-95.310338000000016
 21
-9.375
 31
0.0
  0
LINE
  5
1B9
  8
OUTLINE
  6
CONTINUOUS
 62
     3
 10
-95.310338000000016
 20
-16.625346
 30
0.0
 11
-83.752249000000006
 21
-16.625346
 31
0.0
  0
ARC
  5
1BA
  8
OUTLINE
  6
CONTINUOUS
 62
     3
 10
-85.810068999999999
 20
-18.808320999999999
 30
0.0
 40
3.0
 50
0.6164300000000003
 51
46.690440000000009
  0
ARC
  5
1BB
  8
OUTLINE
  6
CONTINUOUS
 62
     3
 10
-95.685338000000002
 20
-9.375
 30
0.0
 40
0.375
 50
0.0
 51
90.0
  0
LINE
  5
1BC
  8
OUTLINE
  6
CONTINUOUS
 62
     3
 10
71.348223000000004
 20
-34.0
 30
0.0
 11
73.078186000000002
 21
-16.250346
 31
0.0
  0
ARC
  5
1BD
  8
OUTLINE
  6
CONTINUOUS
 62
     3
 10
73.993286999999981
 20
-17.250346
 30
0.0
 40
1.0
 50
352.89292399999999
 51
90.0
  0
LINE
  5
1BE
  8
OUTLINE
  6
CONTINUOUS
 62
     3
 10
72.748569000000003
 20
-16.250346
 30
0.0
 11
73.993286999999981
 21
-16.250346
 31
0.0
  0
LINE
  5
1BF
  8
OUTLINE
  6
CONTINUOUS
 62
     3
 10
-72.748569000000003
 20
-16.250346
 30
0.0
 11
-73.993286999999981
 21
-16.250346
 31
0.0
  0
ARC
  5
1C0
  8
OUTLINE
  6
CONTINUOUS
 62
     3
 10
-73.993286999999981
 20
-17.250346
 30
0.0
 40
1.0
 50
90.0
 51
187.10707600000001
  0
LINE
  5
1C1
  8
OUTLINE
  6
CONTINUOUS
 62
     3
 10
45.293058000000002
 20
-16.250346
 30
0.0
 11
46.537776000000001
 21
-16.250346
 31
0.0
  0
LINE
  5
1C2
  8
OUTLINE
  6
CONTINUOUS
 62
     3
 10
71.348223000000004
 20
-34.0
 30
0.0
 11
-71.348223000000004
 21
-34.0
 31
0.0
  0
LINE
  5
1C3
  8
OUTLINE
  6
CONTINUOUS
 62
     3
 10
45.293058000000002
 20
-16.250346
 30
0.0
 11
-45.293058000000002
 21
-16.250346
 31
0.0
  0
LINE
  5
1C4
  8
OUTLINE
  6
CONTINUOUS
 62
     3
 10
-71.348223000000004
 20
-34.0
 30
0.0
 11
-73.078186000000002
 21
-16.250346
 31
0.0
  0
LINE
  5
1C5
  8
OUTLINE
  6
CONTINUOUS
 62
     3
 10
73.5
 20
63.0
 30
0.0
 11
-73.5
 21
63.0
 31
0.0
  0
ARC
  5
1C6
  8
OUTLINE
  6
CONTINUOUS
 62
     3
 10
102.0
 20
-6.0
 30
0.0
 40
3.0
 50
270.0
 51
0.0
  0
ARC
  5
1C7
  8
OUTLINE
  6
CONTINUOUS
 62
     3
 10
-102.0
 20
-6.0
 30
0.0
 40
3.0
 50
180.0
 51
270.0
  0
LINE
  5
1C8
  8
OUTLINE
  6
CONTINUOUS
 62
     3
 10
105.0
 20
0.0
 30
0.0
 11
-105.0
 21
0.0
 31
0.0
  0
ARC
  5
1C9
  8
OUTLINE
  6
CONTINUOUS
 62
     3
 10
-114.0
 20
-58.0
 30
0.0
 40
1.0
 50
180.0
 51
270.0
  0
ARC
  5
1CA
  8
OUTLINE
  6
CONTINUOUS
 62
     3
 10
114.0
 20
-58.0
 30
0.0
 40
1.0
 50
270.0
 51
0.0
  0
LINE
  5
1CB
  8
OUTLINE
  6
CONTINUOUS
 62
     3
 10
114.0
 20
-59.0
 30
0.0
 11
-114.0
 21
-59.0
 31
0.0
  0
LINE
  5
1CC
  8
OUTLINE
  6
CONTINUOUS
 62
     3
 10
115.0
 20
-57.0
 30
0.0
 11
115.0
 21
-58.0
 31
0.0
  0
LINE
  5
1CD
  8
OUTLINE
  6
CONTINUOUS
 62
     3
 10
102.0
 20
-9.0
 30
0.0
 11
-102.0
 21
-9.0
 31
0.0
  0
LINE
  5
1CE
  8
OUTLINE
  6
CONTINUOUS
 62
     3
 10
105.0
 20
0.0
 30
0.0
 11
105.0
 21
-6.0
 31
0.0
  0
LINE
  5
1CF
  8
OUTLINE
  6
CONTINUOUS
 62
     3
 10
-105.0
 20
0.0
 30
0.0
 11
-105.0
 21
-6.0
 31
0.0
  0
LINE
  5
1D0
  8
OUTLINE
  6
CONTINUOUS
 62
     3
 10
73.5
 20
0.0
 30
0.0
 11
73.5
 21
63.0
 31
0.0
  0
LINE
  5
1D1
  8
OUTLINE
  6
CONTINUOUS
 62
     3
 10
115.0
 20
-57.0
 30
0.0
 11
-115.0
 21
-57.0
 31
0.0
  0
LINE
  5
1D2
  8
OUTLINE
  6
CONTINUOUS
 62
     3
 10
-73.5
 20
0.0
 30
0.0
 11
-73.5
 21
63.0
 31
0.0
  0
ARC
  5
1D3
  8
OUTLINE
  6
CONTINUOUS
 62
     3
 10
-82.144476999999995
 20
-56.282673000000003
 30
0.0
 40
0.75
 50
286.97436599999992
 51
2.496853999999999
  0
ARC
  5
1D4
  8
OUTLINE
  6
CONTINUOUS
 62
     3
 10
-74.189526000000001
 20
-56.282673000000003
 30
0.0
 40
0.75
 50
286.97436599999992
 51
2.496853999999999
  0
ARC
  5
1D5
  8
OUTLINE
  6
CONTINUOUS
 62
     3
 10
74.189526000000001
 20
-56.282673000000003
 30
0.0
 40
0.75
 50
177.5031459999999
 51
253.025634
  0
ARC
  5
1D6
  8
OUTLINE
  6
CONTINUOUS
 62
     3
 10
82.144476999999995
 20
-56.282673000000003
 30
0.0
 40
0.75
 50
177.5031459999999
 51
253.025634
  0
ARC
  5
1D7
  8
OUTLINE
  6
CONTINUOUS
 62
     3
 10
95.685338000000002
 20
-9.375
 30
0.0
 40
0.375
 50
90.0
 51
180.0
  0
ARC
  5
1D8
  8
OUTLINE
  6
CONTINUOUS
 62
     3
 10
85.810068999999999
 20
-18.808320999999999
 30
0.0
 40
3.0
 50
133.30956
 51
179.38356999999999
  0
LINE
  5
1D9
  8
OUTLINE
  6
CONTINUOUS
 62
     3
 10
72.793058000000002
 20
-16.250346
 30
0.0
 11
-72.793058000000002
 21
-16.250346
 31
0.0
  0
LINE
  5
1DA
  8
OUTLINE
  6
CONTINUOUS
 62
     3
 10
95.310338000000016
 20
-16.625346
 30
0.0
 11
83.752249000000006
 21
-16.625346
 31
0.0
  0
LINE
  5
1DB
  8
OUTLINE
  6
CONTINUOUS
 62
     3
 10
73.440237999999979
 20
-34.0
 30
0.0
 11
74.985604000000023
 21
-17.37407
 31
0.0
  0
LINE
  5
1DC
  8
OUTLINE
  6
CONTINUOUS
 62
     3
 10
81.395189000000002
 20
-34.0
 30
0.0
 11
82.810242000000002
 21
-18.776045
 31
0.0
  0
LINE
  5
1DD
  8
OUTLINE
  6
CONTINUOUS
 62
     3
 10
73.440237999999979
 20
-34.0
 30
0.0
 11
73.440237999999979
 21
-56.25
 31
0.0
  0
LINE
  5
1DE
  8
OUTLINE
  6
CONTINUOUS
 62
     3
 10
81.395189000000002
 20
-34.0
 30
0.0
 11
81.395189000000002
 21
-56.25
 31
0.0
  0
LINE
  5
1DF
  8
OUTLINE
  6
CONTINUOUS
 62
     3
 10
-73.440237999999979
 20
-34.0
 30
0.0
 11
-74.991406999999981
 21
-17.311630999999991
 31
0.0
  0
LINE
  5
1E0
  8
OUTLINE
  6
CONTINUOUS
 62
     3
 10
-81.395189000000002
 20
-34.0
 30
0.0
 11
-82.810242000000002
 21
-18.776045
 31
0.0
  0
LINE
  5
1E1
  8
OUTLINE
  6
CONTINUOUS
 62
     3
 10
-73.970568
 20
-57.0
 30
0.0
 11
-89.671839000000006
 21
-57.0
 31
0.0
  0
LINE
  5
1E2
  8
OUTLINE
  6
CONTINUOUS
 62
     3
 10
-81.395189000000002
 20
-34.0
 30
0.0
 11
-81.395189000000002
 21
-56.25
 31
0.0
  0
LINE
  5
1E3
  8
OUTLINE
  6
CONTINUOUS
 62
     3
 10
-73.440237999999979
 20
-34.0
 30
0.0
 11
-73.440237999999979
 21
-56.25
 31
0.0
  0
LINE
  5
1E4
  8
OUTLINE
  6
CONTINUOUS
 62
     3
 10
95.310338000000016
 20
-16.625346
 30
0.0
 11
95.310338000000016
 21
-9.375
 31
0.0
  0
LINE
  5
1E5
  8
OUTLINE
  6
CONTINUOUS
 62
     3
 10
-115.0
 20
-57.0
 30
0.0
 11
-115.0
 21
-58.0
 31
0.0
  0
LINE
  5
1E6
  8
SIZE
  6
BYBLOCK
 62
    30
 10
73.5
 20
82.0
 30
0.0
 11
73.5
 21
163.170952
 31
0.0
  0
LINE
  5
1E7
  8
SIZE
  6
BYBLOCK
 62
    30
 10
-73.5
 20
82.0
 30
0.0
 11
-73.5
 21
163.170952
 31
0.0
  0
LINE
  5
1E8
  8
SIZE
  6
BYBLOCK
 62
    30
 10
-75.5
 20
133.1709519999998
 30
0.0
 11
-77.5
 21
133.1709519999998
 31
0.0
  0
LINE
  5
1E9
  8
SIZE
  6
BYBLOCK
 62
    30
 10
75.5
 20
133.1709519999998
 30
0.0
 11
77.5
 21
133.1709519999998
 31
0.0
  0
LINE
  5
1EA
  8
SIZE
  6
BYBLOCK
 62
    30
 10
-73.5
 20
133.1709519999998
 30
0.0
 11
73.5
 21
133.1709519999998
 31
0.0
  0
TEXT
  5
1EB
  8
SIZE
  6
BYBLOCK
 62
    30
 10
-108.46420000000001
 20
165.1709519999998
 30
0.0
 40
64.0
  1
φ147
 41
0.9
  0
LINE
  5
1ED
  8
SIZE
  6
BYBLOCK
 62
    30
 10
-93.499999999999986
 20
63.0
 30
0.0
 11
-360.29270000000002
 21
63.0
 31
0.0
  0
TEXT
  5
1EF
  8
SIZE
  6
BYBLOCK
 62
    30
 10
-355.96833243380797
 20
89.070272863543437
 30
0.0
 40
64.0
  1
63
 50
90.0
 41
0.9
  0
LINE
  5
1F0
  8
SIZE
  6
BYBLOCK
 62
    30
 10
105.0
 20
20.0
 30
0.0
 11
105.0
 21
283.03937500000001
 31
0.0
  0
LINE
  5
1F1
  8
SIZE
  6
BYBLOCK
 62
    30
 10
-105.0
 20
20.0
 30
0.0
 11
-105.0
 21
283.03937500000001
 31
0.0
  0
LINE
  5
1F2
  8
SIZE
  6
BYBLOCK
 62
    30
 10
103.0
 20
253.03937499999989
 30
0.0
 11
-103.0
 21
253.03937499999989
 31
0.0
  0
TEXT
  5
1F3
  8
SIZE
  6
BYBLOCK
 62
    30
 10
-101.211429
 20
285.03937500000001
 30
0.0
 40
64.0
  1
□210
 41
0.9
  0
LINE
  5
1F4
  8
SIZE
  6
BYBLOCK
 62
    30
 10
115.0
 20
-77.0
 30
0.0
 11
115.0
 21
-289.4383709999999
 31
0.0
  0
LINE
  5
1F5
  8
SIZE
  6
BYBLOCK
 62
    30
 10
-115.0
 20
-77.0
 30
0.0
 11
-115.0
 21
-289.4383709999999
 31
0.0
  0
LINE
  5
1F6
  8
SIZE
  6
BYBLOCK
 62
    30
 10
113.0
 20
-259.43837100000002
 30
0.0
 11
0.0
 21
-259.43837100000002
 31
0.0
  0
LINE
  5
1F7
  8
SIZE
  6
BYBLOCK
 62
    30
 10
-113.0
 20
-259.43837100000002
 30
0.0
 11
0.0
 21
-259.43837100000002
 31
0.0
  0
TEXT
  5
1F8
  8
SIZE
  6
BYBLOCK
 62
    30
 10
-110.9441429999999
 20
-227.4383709999999
 30
0.0
 40
64.0
  1
□230
 41
0.9
  0
LINE
  5
1F9
  8
SIZE
  6
BYBLOCK
 62
    30
 10
-125.0
 20
0.0
 30
0.0
 11
-360.29266899999988
 21
0.0
 31
0.0
  0
LINE
  5
1FA
  8
SIZE
  6
BYBLOCK
 62
    30
 10
-134.0
 20
-59.0
 30
0.0
 11
-360.29266899999988
 21
-59.0
 31
0.0
  0
LINE
  5
1FB
  8
SIZE
  6
BYBLOCK
 62
    30
 10
-330.29266899999999
 20
-61.0
 30
0.0
 11
-330.29266899999999
 21
-63.0
 31
0.0
  0
LINE
  5
1FD
  8
SIZE
  6
BYBLOCK
 62
    30
 10
-330.29266899999999
 20
-59.0
 30
0.0
 11
-330.29266899999999
 21
185.26776127037829
 31
0.0
  0
TEXT
  5
1FE
  8
SIZE
  6
BYBLOCK
 62
    30
 10
-362.29266899999988
 20
-183.76483999999991
 30
0.0
 40
64.0
  1
59
 50
90.0
 41
0.9
  0
LINE
  5
1FF
  8
SIZE
  6
BYBLOCK
 62
    30
 10
-125.0
 20
0.0
 30
0.0
 11
-237.12965099999991
 21
0.0
 31
0.0
  0
LINE
  5
200
  8
SIZE
  6
BYBLOCK
 62
    30
 10
-122.0
 20
-9.0
 30
0.0
 11
-237.12965099999991
 21
-9.0
 31
0.0
  0
LINE
  5
201
  8
SIZE
  6
BYBLOCK
 62
    30
 10
-207.1296509999998
 20
-11.0
 30
0.0
 11
-207.1296509999998
 21
-13.0
 31
0.0
  0
LINE
  5
203
  8
SIZE
  6
BYBLOCK
 62
    30
 10
-207.1296509999998
 20
-9.0
 30
0.0
 11
-207.1296509999998
 21
0.0
 31
0.0
  0
TEXT
  5
204
  8
SIZE
  6
BYBLOCK
 62
    30
 10
-239.12965099999991
 20
-131.3362689999999
 30
0.0
 40
64.0
  1
9
 50
90.0
 41
0.9
  0
CIRCLE
  5
205
  8
SIZE
  6
CONTINUOUS
 62
    30
 10
-207.1296509999998
 20
0.0
 30
0.0
 40
6.0
  0
CIRCLE
  5
206
  8
SIZE
  6
CONTINUOUS
 62
    30
 10
-207.1296509999998
 20
-9.0
 30
0.0
 40
6.0
  0
CIRCLE
  5
207
  8
SIZE
  6
CONTINUOUS
 62
    30
 10
-330.29266899999999
 20
0.0
 30
0.0
 40
6.0
  0
CIRCLE
  5
208
  8
SIZE
  6
CONTINUOUS
 62
    30
 10
-330.29266899999999
 20
-59.0
 30
0.0
 40
6.0
  0
CIRCLE
  5
209
  8
SIZE
  6
CONTINUOUS
 62
    30
 10
-115.0
 20
-259.43837100000002
 30
0.0
 40
6.0
  0
CIRCLE
  5
20A
  8
SIZE
  6
CONTINUOUS
 62
    30
 10
115.0
 20
-259.43837100000002
 30
0.0
 40
6.0
  0
CIRCLE
  5
20B
  8
SIZE
  6
CONTINUOUS
 62
    30
 10
-105.0
 20
253.03937499999989
 30
0.0
 40
6.0
  0
CIRCLE
  5
20C
  8
SIZE
  6
CONTINUOUS
 62
    30
 10
105.0
 20
253.03937499999989
 30
0.0
 40
6.0
  0
CIRCLE
  5
20D
  8
SIZE
  6
CONTINUOUS
 62
    30
 10
-330.29266899999999
 20
63.0
 30
0.0
 40
6.0
  0
CIRCLE
  5
20F
  8
SIZE
  6
CONTINUOUS
 62
    30
 10
73.5
 20
133.1709519999998
 30
0.0
 40
6.0
  0
CIRCLE
  5
210
  8
SIZE
  6
CONTINUOUS
 62
    30
 10
-73.5
 20
133.1709519999998
 30
0.0
 40
6.0
  0
TEXT
  5
211
  8
ETC
  6
CONTINUOUS
 62
    61
 10
222.34658434900291
 20
438.10253824200362
 30
0.0
 40
64.0
  1
P-18YSD3-BL_1
 41
0.9
  0
TEXT
  5
212
  8
ETC
  6
CONTINUOUS
 62
    61
 10
211.4393833490029
 20
342.98422124200363
 30
0.0
 40
64.0
  1
システム部材
 41
0.9
  0
TEXT
  5
213
  8
ETC
  6
CONTINUOUS
 62
    61
 10
331.89921123321801
 20
253.13347320101201
 30
0.0
 40
50.0
  1
P-18YSD3-BL
 41
0.9
  0
TEXT
  5
214
  8
ETC
  6
CONTINUOUS
 62
    61
 10
336.69835254403631
 20
172.68009155091841
 30
0.0
 40
50.0
  1
P-18YSDK3-BL
 41
0.9
  0
TEXT
  5
215
  8
ETC
  6
CONTINUOUS
 62
    61
 10
336.69835254403631
 20
93.524651281446651
 30
0.0
 40
50.0
  1
P-18YSQD3-BL
 41
0.9
  0
ENDSEC
  0
EOF
