  0
SECTION
  2
HEADER
  9
$ACADVER
  1
AC1009
  9
$INSBASE
 10
0.0
 20
0.0
 30
0.0
  9
$EXTMIN
 10
-587.61496700000009
 20
-743.43140599999992
 30
0.0
  9
$EXTMAX
 10
1204.8202630000001
 20
666.18232500000011
 30
50.0
  9
$LIMMIN
 10
-2970.0
 20
-2100.0
  9
$LIMMAX
 10
2970.0
 20
2100.0
  9
$ORTHOMODE
 70
     1
  9
$REGENMODE
 70
     1
  9
$FILLMODE
 70
     1
  9
$QTEXTMODE
 70
     0
  9
$MIRRTEXT
 70
     0
  9
$DRAGMODE
 70
     2
  9
$LTSCALE
 40
20.0
  9
$OSMODE
 70
   167
  9
$ATTMODE
 70
     1
  9
$TEXTSIZE
 40
64.0
  9
$TRACEWID
 40
0.05
  9
$TEXTSTYLE
  7
STANDARD
  9
$CLAYER
  8
DETAIL
  9
$CELTYPE
  6
CONTINUOUS
  9
$CECOLOR
 62
     7
  9
$DIMSCALE
 40
1.0
  9
$DIMASZ
 40
12.0
  9
$DIMEXO
 40
20.0
  9
$DIMDLI
 40
200.0
  9
$DIMRND
 40
0.0
  9
$DIMDLE
 40
0.0
  9
$DIMEXE
 40
20.0
  9
$DIMTP
 40
0.0
  9
$DIMTM
 40
0.0
  9
$DIMTXT
 40
64.0
  9
$DIMCEN
 40
0.09
  9
$DIMTSZ
 40
0.0
  9
$DIMTOL
 70
     0
  9
$DIMLIM
 70
     0
  9
$DIMTIH
 70
     0
  9
$DIMTOH
 70
     0
  9
$DIMSE1
 70
     0
  9
$DIMSE2
 70
     0
  9
$DIMTAD
 70
     1
  9
$DIMZIN
 70
     8
  9
$DIMBLK
  1
DOT1
  9
$DIMASO
 70
     1
  9
$DIMSHO
 70
     0
  9
$DIMPOST
  1

  9
$DIMAPOST
  1

  9
$DIMALT
 70
     0
  9
$DIMALTD
 70
     2
  9
$DIMALTF
 40
25.399999999999999
  9
$DIMLFAC
 40
1.0
  9
$DIMTOFL
 70
     1
  9
$DIMTVP
 40
0.0
  9
$DIMTIX
 70
     1
  9
$DIMSOXD
 70
     0
  9
$DIMSAH
 70
     1
  9
$DIMBLK1
  1
ORIGIN
  9
$DIMBLK2
  1
ORIGIN
  9
$DIMSTYLE
  2
STANDARD
  9
$DIMCLRD
 70
     7
  9
$DIMCLRE
 70
     7
  9
$DIMCLRT
 70
     7
  9
$DIMTFAC
 40
1.0
  9
$DIMGAP
 40
25.0
  9
$LUNITS
 70
     2
  9
$LUPREC
 70
     4
  9
$SKETCHINC
 40
0.1
  9
$FILLETRAD
 40
5.0
  9
$AUNITS
 70
     1
  9
$AUPREC
 70
     3
  9
$MENU
  1
ACAD
  9
$ELEVATION
 40
0.0
  9
$PELEVATION
 40
0.0
  9
$THICKNESS
 40
50.0
  9
$LIMCHECK
 70
     0
  9
$BLIPMODE
 70
     0
  9
$CHAMFERA
 40
0.0
  9
$CHAMFERB
 40
0.0
  9
$SKPOLY
 70
     0
  9
$TDCREATE
 40
2453019.6230103699
  9
$TDUPDATE
 40
2454574.7094138772
  9
$TDINDWG
 40
0.3493614583
  9
$TDUSRTIMER
 40
0.3493614583
  9
$USRTIMER
 70
     1
  9
$ANGBASE
 50
0.0
  9
$ANGDIR
 70
     0
  9
$PDMODE
 70
     3
  9
$PDSIZE
 40
-2.0
  9
$PLINEWID
 40
0.0
  9
$COORDS
 70
     2
  9
$SPLFRAME
 70
     0
  9
$SPLINETYPE
 70
     6
  9
$SPLINESEGS
 70
     8
  9
$ATTDIA
 70
     0
  9
$ATTREQ
 70
     1
  9
$HANDLING
 70
 22529
  9
$HANDSEED
  5
268
  9
$SURFTAB1
 70
     6
  9
$SURFTAB2
 70
     6
  9
$SURFTYPE
 70
     6
  9
$SURFU
 70
     6
  9
$SURFV
 70
     6
  9
$UCSNAME
  2

  9
$UCSORG
 10
0.0
 20
0.0
 30
0.0
  9
$UCSXDIR
 10
1.0
 20
0.0
 30
0.0
  9
$UCSYDIR
 10
0.0
 20
1.0
 30
0.0
  9
$PUCSNAME
  2

  9
$PUCSORG
 10
0.0
 20
0.0
 30
0.0
  9
$PUCSXDIR
 10
1.0
 20
0.0
 30
0.0
  9
$PUCSYDIR
 10
0.0
 20
1.0
 30
0.0
  9
$USERI1
 70
     0
  9
$USERI2
 70
     0
  9
$USERI3
 70
     0
  9
$USERI4
 70
     0
  9
$USERI5
 70
     0
  9
$USERR1
 40
20.0
  9
$USERR2
 40
0.0
  9
$USERR3
 40
0.0
  9
$USERR4
 40
0.0
  9
$USERR5
 40
0.0
  9
$WORLDVIEW
 70
     1
  9
$SHADEDGE
 70
     3
  9
$SHADEDIF
 70
    70
  9
$TILEMODE
 70
     1
  9
$MAXACTVP
 70
    48
  9
$PLIMCHECK
 70
     0
  9
$PEXTMIN
 10
-1.0000000000000000E+020
 20
-1.0000000000000000E+020
 30
-1.0000000000000000E+020
  9
$PEXTMAX
 10
1.0000000000000000E+020
 20
1.0000000000000000E+020
 30
1.0000000000000000E+020
  9
$PLIMMIN
 10
0.0
 20
0.0
  9
$PLIMMAX
 10
12.0
 20
9.0
  9
$UNITMODE
 70
     0
  9
$VISRETAIN
 70
     0
  9
$PLINEGEN
 70
     0
  9
$PSLTSCALE
 70
     0
  0
ENDSEC
  0
SECTION
  2
TABLES
  0
TABLE
  2
VPORT
 70
     3
  0
VPORT
  2
*ACTIVE
 70
     0
 10
0.0
 20
0.0
 11
1.0
 21
1.0
 12
308.6197039999999
 22
-38.624507319247861
 13
0.0
 23
0.0
 14
1.0
 24
1.0
 15
0.0
 25
0.0
 16
0.0
 26
0.0
 36
1.0
 17
0.0
 27
0.0
 37
0.0
 40
1435.0316654075029
 41
1.670382165605095
 42
50.0
 43
0.0
 44
0.0
 50
0.0
 51
0.0
 71
     0
 72
  1000
 73
     1
 74
     0
 75
     0
 76
     0
 77
     0
 78
     0
  0
ENDTAB
  0
TABLE
  2
LTYPE
 70
     2
  0
LTYPE
  2
CONTINUOUS
 70
     0
  3
実線
 72
    65
 73
     0
 40
0.0
  0
LTYPE
  2
DASHDOT
 70
     0
  3
____ _ ____ _ ____ _ ____ _ ____ _ ____ _ ____
 72
    65
 73
     4
 40
5.5
 49
4.0
 49
-0.6
 49
0.3
 49
-0.6
  0
ENDTAB
  0
TABLE
  2
LAYER
 70
    12
  0
LAYER
  2
0
 70
     0
 62
     7
  6
CONTINUOUS
  0
LAYER
  2
DETAIL
 70
     0
 62
     5
  6
CONTINUOUS
  0
LAYER
  2
BASIS
 70
     0
 62
     6
  6
DASHDOT
  0
LAYER
  2
OUTLINE
 70
     0
 62
     3
  6
CONTINUOUS
  0
LAYER
  2
SIZE
 70
     0
 62
    30
  6
CONTINUOUS
  0
LAYER
  2
ARRANGE
 70
     0
 62
     1
  6
CONTINUOUS
  0
LAYER
  2
DEFPOINTS
 70
     0
 62
     7
  6
CONTINUOUS
  0
LAYER
  2
ETC
 70
     0
 62
    61
  6
CONTINUOUS
  0
LAYER
  2
FIX
 70
     0
 62
    11
  6
CONTINUOUS
  0
LAYER
  2
NOTE
 70
     0
 62
     4
  6
CONTINUOUS
  0
LAYER
  2
SERVICESPACE
 70
     0
 62
     2
  6
DASHDOT
  0
LAYER
  2
SYMBOLLINE
 70
     0
 62
    15
  6
CONTINUOUS
  0
ENDTAB
  0
TABLE
  2
STYLE
 70
     1
  0
STYLE
  2
STANDARD
 70
     0
 40
64.0
 41
0.9
 50
0.0
 71
     0
 42
64.0
  3
SIMPLEX.shx
  4
BIGFONT.shx
  0
ENDTAB
  0
TABLE
  2
VIEW
 70
     1
  0
VIEW
  2
ALL
 70
     0
 40
4282.6198079999986
 10
0.0
 20
41.309903999999989
 41
5940.0
 11
0.0
 21
0.0
 31
1.0
 12
0.0
 22
0.0
 32
0.0
 42
50.0
 43
0.0
 44
0.0
 50
0.0
 71
     0
  0
ENDTAB
  0
TABLE
  2
UCS
 70
     0
  0
ENDTAB
  0
TABLE
  2
APPID
 70
     2
  0
APPID
  2
ACAD
 70
     0
  0
APPID
  2
AUTOCAD_POSTSCRIPT_FIGURE
 70
     0
  0
ENDTAB
  0
TABLE
  2
DIMSTYLE
 70
     1
  0
DIMSTYLE
  2
STANDARD
 70
     0
  3

  4

  5

  6

  7

 40
1.0
 41
0.18
 42
0.0625
 43
0.38
 44
0.18
 45
0.0
 46
0.0
 47
0.0
 48
0.0
140
0.18
141
0.09
142
0.0
143
25.399999999999999
144
1.0
145
0.0
146
1.0
147
0.09
 71
     0
 72
     0
 73
     1
 74
     1
 75
     0
 76
     0
 77
     0
 78
     0
170
     0
171
     2
172
     0
173
     0
174
     0
175
     0
176
     7
177
     7
178
     7
  0
ENDTAB
  0
ENDSEC
  0
SECTION
  2
BLOCKS
  0
BLOCK
  8
0
  2
$MODEL_SPACE
 70
     0
 10
0.0
 20
0.0
 30
0.0
  3
$MODEL_SPACE
  1

  0
ENDBLK
  5
20
  8
0
  0
BLOCK
 67
     1
  8
0
  2
$PAPER_SPACE
 70
     0
 10
0.0
 20
0.0
 30
0.0
  3
$PAPER_SPACE
  1

  0
ENDBLK
  5
1C
 67
     1
  8
0
  0
BLOCK
  8
0
  2
DOT1
 70
     0
 10
0.0
 20
0.0
 30
0.0
  3
DOT1
  1

  0
CIRCLE
  5
36
  8
SIZE
  6
CONTINUOUS
 62
     7
 10
0.0
 20
0.0
 30
0.0
 40
3.0
  0
ENDBLK
  5
37
  8
0
  0
BLOCK
  8
0
  2
_ORIGIN
 70
     0
 10
0.0
 20
0.0
 30
0.0
  3
_ORIGIN
  1

  0
CIRCLE
  5
3A
  8
0
  6
CONTINUOUS
 62
     7
 10
0.0
 20
0.0
 30
0.0
 40
0.5
  0
LINE
  5
3B
  8
0
  6
CONTINUOUS
 62
     7
 10
0.0
 20
0.0
 30
0.0
 11
-1.0
 21
0.0
 31
0.0
  0
ENDBLK
  5
3C
  8
0
  0
ENDSEC
  0
SECTION
  2
ENTITIES
  0
POINT
  5
3E
  8
ARRANGE
  6
CONTINUOUS
 62
     1
 10
0.0
 20
0.0
 30
0.0
 39
50.0
  0
CIRCLE
  5
3F
  8
ARRANGE
  6
CONTINUOUS
 62
     1
 39
50.0
 10
0.0
 20
0.0
 30
0.0
 40
40.0
  0
LINE
  5
40
  8
BASIS
  6
DASHDOT
 62
     6
 39
50.0
 10
0.0
 20
237.49435999999989
 30
0.0
 11
0.0
 21
-202.37680399999991
 31
0.0
  0
LINE
  5
43
  8
DETAIL
  6
CONTINUOUS
 62
     5
 39
50.0
 10
-166.5
 20
-175.0
 30
0.0
 11
166.5
 21
-175.0
 31
0.0
  0
LINE
  5
44
  8
DETAIL
  6
CONTINUOUS
 62
     5
 39
50.0
 10
171.5
 20
-170.0
 30
0.0
 11
171.5
 21
-60.5
 31
0.0
  0
LINE
  5
45
  8
DETAIL
  6
CONTINUOUS
 62
     5
 39
50.0
 10
166.5
 20
175.0
 30
0.0
 11
-166.5
 21
175.0
 31
0.0
  0
LINE
  5
46
  8
DETAIL
  6
CONTINUOUS
 62
     5
 39
50.0
 10
-171.5
 20
170.0
 30
0.0
 11
-171.5
 21
152.5
 31
0.0
  0
LINE
  5
47
  8
DETAIL
  6
CONTINUOUS
 62
     5
 39
50.0
 10
-168.5
 20
153.5
 30
0.0
 11
168.5
 21
153.5
 31
0.0
  0
LINE
  5
48
  8
DETAIL
  6
CONTINUOUS
 62
     5
 39
50.0
 10
173.5
 20
148.5
 30
0.0
 11
173.5
 21
-56.5
 31
0.0
  0
LINE
  5
49
  8
DETAIL
  6
CONTINUOUS
 62
     5
 39
50.0
 10
168.5
 20
-61.5
 30
0.0
 11
-168.5
 21
-61.5
 31
0.0
  0
LINE
  5
4A
  8
DETAIL
  6
CONTINUOUS
 62
     5
 39
50.0
 10
-173.5
 20
-56.5
 30
0.0
 11
-173.5
 21
148.5
 31
0.0
  0
LINE
  5
4B
  8
DETAIL
  6
CONTINUOUS
 62
     5
 39
50.0
 10
173.5
 20
138.5
 30
0.0
 11
-173.5
 21
138.5
 31
0.0
  0
ARC
  5
4C
  8
DETAIL
  6
CONTINUOUS
 62
     5
 39
50.0
 10
168.5
 20
148.5
 30
0.0
 40
5.0
 50
0.0
 51
90.0
  0
ARC
  5
4D
  8
DETAIL
  6
CONTINUOUS
 62
     5
 39
50.0
 10
168.5
 20
-56.5
 30
0.0
 40
5.0
 50
270.0
 51
0.0
  0
ARC
  5
4E
  8
DETAIL
  6
CONTINUOUS
 62
     5
 39
50.0
 10
-168.5
 20
-56.5
 30
0.0
 40
5.0
 50
180.0
 51
270.0
  0
ARC
  5
4F
  8
DETAIL
  6
CONTINUOUS
 62
     5
 39
50.0
 10
-168.5
 20
148.5
 30
0.0
 40
5.0
 50
90.0
 51
180.0
  0
LINE
  5
50
  8
DETAIL
  6
CONTINUOUS
 62
     5
 39
50.0
 10
171.5
 20
-146.5
 30
0.0
 11
-171.5
 21
-146.5
 31
0.0
  0
LINE
  5
51
  8
DETAIL
  6
CONTINUOUS
 62
     5
 39
50.0
 10
-171.5
 20
-60.5
 30
0.0
 11
-171.5
 21
-170.0
 31
0.0
  0
LINE
  5
52
  8
DETAIL
  6
CONTINUOUS
 62
     5
 39
50.0
 10
171.5
 20
170.0
 30
0.0
 11
171.5
 21
152.5
 31
0.0
  0
ARC
  5
53
  8
DETAIL
  6
CONTINUOUS
 62
     5
 39
50.0
 10
-166.5
 20
-170.0
 30
0.0
 40
5.0
 50
180.0
 51
270.0
  0
ARC
  5
54
  8
DETAIL
  6
CONTINUOUS
 62
     5
 39
50.0
 10
166.5
 20
-170.0
 30
0.0
 40
5.0
 50
270.0
 51
0.0
  0
ARC
  5
55
  8
DETAIL
  6
CONTINUOUS
 62
     5
 39
50.0
 10
166.5
 20
170.0
 30
0.0
 40
5.0
 50
0.0
 51
90.0
  0
ARC
  5
56
  8
DETAIL
  6
CONTINUOUS
 62
     5
 39
50.0
 10
-166.5
 20
170.0
 30
0.0
 40
5.0
 50
90.0
 51
180.0
  0
ARC
  5
57
  8
OUTLINE
  6
CONTINUOUS
 62
     3
 39
50.0
 10
-166.5
 20
170.0
 30
0.0
 40
5.0
 50
90.0
 51
180.0
  0
LINE
  5
58
  8
OUTLINE
  6
CONTINUOUS
 62
     3
 39
50.0
 10
-171.5
 20
170.0
 30
0.0
 11
-171.5
 21
152.5
 31
0.0
  0
LINE
  5
59
  8
OUTLINE
  6
CONTINUOUS
 62
     3
 39
50.0
 10
166.5
 20
175.0
 30
0.0
 11
-166.5
 21
175.0
 31
0.0
  0
ARC
  5
5A
  8
OUTLINE
  6
CONTINUOUS
 62
     3
 39
50.0
 10
166.5
 20
170.0
 30
0.0
 40
5.0
 50
0.0
 51
90.0
  0
LINE
  5
5B
  8
OUTLINE
  6
CONTINUOUS
 62
     3
 39
50.0
 10
171.5
 20
170.0
 30
0.0
 11
171.5
 21
152.5
 31
0.0
  0
ARC
  5
5C
  8
OUTLINE
  6
CONTINUOUS
 62
     3
 39
50.0
 10
166.5
 20
-170.0
 30
0.0
 40
5.0
 50
270.0
 51
0.0
  0
LINE
  5
5D
  8
OUTLINE
  6
CONTINUOUS
 62
     3
 39
50.0
 10
-166.5
 20
-175.0
 30
0.0
 11
166.5
 21
-175.0
 31
0.0
  0
LINE
  5
5E
  8
OUTLINE
  6
CONTINUOUS
 62
     3
 39
50.0
 10
171.5
 20
-170.0
 30
0.0
 11
171.5
 21
-60.5
 31
0.0
  0
ARC
  5
5F
  8
OUTLINE
  6
CONTINUOUS
 62
     3
 39
50.0
 10
-166.5
 20
-170.0
 30
0.0
 40
5.0
 50
180.0
 51
270.0
  0
LINE
  5
60
  8
OUTLINE
  6
CONTINUOUS
 62
     3
 39
50.0
 10
-171.5
 20
-60.5
 30
0.0
 11
-171.5
 21
-170.0
 31
0.0
  0
ARC
  5
61
  8
OUTLINE
  6
CONTINUOUS
 62
     3
 39
50.0
 10
168.5
 20
148.5
 30
0.0
 40
5.0
 50
0.0
 51
90.0
  0
LINE
  5
62
  8
OUTLINE
  6
CONTINUOUS
 62
     3
 39
50.0
 10
173.5
 20
148.5
 30
0.0
 11
173.5
 21
-56.5
 31
0.0
  0
ARC
  5
63
  8
OUTLINE
  6
CONTINUOUS
 62
     3
 39
50.0
 10
168.5
 20
-56.5
 30
0.0
 40
5.0
 50
270.0
 51
0.0
  0
LINE
  5
64
  8
OUTLINE
  6
CONTINUOUS
 62
     3
 39
50.0
 10
168.5
 20
-61.5
 30
0.0
 11
-168.5
 21
-61.5
 31
0.0
  0
ARC
  5
65
  8
OUTLINE
  6
CONTINUOUS
 62
     3
 39
50.0
 10
-168.5
 20
-56.5
 30
0.0
 40
5.0
 50
180.0
 51
270.0
  0
LINE
  5
66
  8
OUTLINE
  6
CONTINUOUS
 62
     3
 39
50.0
 10
-173.5
 20
-56.5
 30
0.0
 11
-173.5
 21
148.5
 31
0.0
  0
LINE
  5
67
  8
OUTLINE
  6
CONTINUOUS
 62
     3
 39
50.0
 10
-168.5
 20
153.5
 30
0.0
 11
168.5
 21
153.5
 31
0.0
  0
ARC
  5
68
  8
OUTLINE
  6
CONTINUOUS
 62
     3
 39
50.0
 10
-168.5
 20
148.5
 30
0.0
 40
5.0
 50
90.0
 51
180.0
  0
LINE
  5
69
  8
FIX
  6
CONTINUOUS
 62
    11
 39
50.0
 10
-120.0
 20
168.5
 30
0.0
 11
-120.0
 21
163.49999999999989
 31
0.0
  0
LINE
  5
6A
  8
FIX
  6
CONTINUOUS
 62
    11
 39
50.0
 10
-130.0
 20
168.5
 30
0.0
 11
-130.0
 21
163.49999999999989
 31
0.0
  0
ARC
  5
6B
  8
FIX
  6
CONTINUOUS
 62
    11
 39
50.0
 10
-125.0
 20
163.49999999999989
 30
0.0
 40
5.0
 50
180.0
 51
0.0
  0
ARC
  5
6C
  8
FIX
  6
CONTINUOUS
 62
    11
 39
50.0
 10
-125.0
 20
168.5
 30
0.0
 40
5.0
 50
0.0
 51
180.0
  0
ARC
  5
6D
  8
FIX
  6
CONTINUOUS
 62
    11
 39
50.0
 10
125.0
 20
168.5
 30
0.0
 40
5.0
 50
0.0
 51
180.0
  0
ARC
  5
6E
  8
FIX
  6
CONTINUOUS
 62
    11
 39
50.0
 10
125.0
 20
163.49999999999989
 30
0.0
 40
5.0
 50
180.0
 51
0.0
  0
LINE
  5
6F
  8
FIX
  6
CONTINUOUS
 62
    11
 39
50.0
 10
120.0
 20
168.5
 30
0.0
 11
120.0
 21
163.49999999999989
 31
0.0
  0
LINE
  5
70
  8
FIX
  6
CONTINUOUS
 62
    11
 39
50.0
 10
130.0
 20
168.5
 30
0.0
 11
130.0
 21
163.49999999999989
 31
0.0
  0
ARC
  5
71
  8
FIX
  6
CONTINUOUS
 62
    11
 39
50.0
 10
125.0
 20
-156.49999999999989
 30
0.0
 40
5.0
 50
0.0
 51
180.0
  0
ARC
  5
72
  8
FIX
  6
CONTINUOUS
 62
    11
 39
50.0
 10
125.0
 20
-161.5
 30
0.0
 40
5.0
 50
180.0
 51
0.0
  0
LINE
  5
73
  8
FIX
  6
CONTINUOUS
 62
    11
 39
50.0
 10
120.0
 20
-156.49999999999989
 30
0.0
 11
120.0
 21
-161.5
 31
0.0
  0
LINE
  5
74
  8
FIX
  6
CONTINUOUS
 62
    11
 39
50.0
 10
130.0
 20
-156.49999999999989
 30
0.0
 11
130.0
 21
-161.5
 31
0.0
  0
ARC
  5
75
  8
FIX
  6
CONTINUOUS
 62
    11
 39
50.0
 10
-125.0
 20
-156.49999999999989
 30
0.0
 40
5.0
 50
0.0
 51
180.0
  0
ARC
  5
76
  8
FIX
  6
CONTINUOUS
 62
    11
 39
50.0
 10
-125.0
 20
-161.5
 30
0.0
 40
5.0
 50
180.0
 51
0.0
  0
LINE
  5
77
  8
FIX
  6
CONTINUOUS
 62
    11
 39
50.0
 10
-130.0
 20
-156.49999999999989
 30
0.0
 11
-130.0
 21
-161.5
 31
0.0
  0
LINE
  5
78
  8
FIX
  6
CONTINUOUS
 62
    11
 39
50.0
 10
-120.0
 20
-156.49999999999989
 30
0.0
 11
-120.0
 21
-161.5
 31
0.0
  0
ARC
  5
79
  8
FIX
  6
CONTINUOUS
 62
    11
 39
50.0
 10
160.0
 20
-136.0
 30
0.0
 40
5.0
 50
90.0
 51
270.0
  0
ARC
  5
7A
  8
FIX
  6
CONTINUOUS
 62
    11
 39
50.0
 10
165.0
 20
-136.0
 30
0.0
 40
5.0
 50
270.0
 51
90.0
  0
LINE
  5
7B
  8
FIX
  6
CONTINUOUS
 62
    11
 39
50.0
 10
160.0
 20
-141.0
 30
0.0
 11
165.0
 21
-141.0
 31
0.0
  0
LINE
  5
7C
  8
FIX
  6
CONTINUOUS
 62
    11
 39
50.0
 10
160.0
 20
-131.0
 30
0.0
 11
165.0
 21
-131.0
 31
0.0
  0
ARC
  5
7D
  8
FIX
  6
CONTINUOUS
 62
    11
 39
50.0
 10
-165.0
 20
-133.0
 30
0.0
 40
5.0
 50
90.0
 51
270.0
  0
ARC
  5
7E
  8
FIX
  6
CONTINUOUS
 62
    11
 39
50.0
 10
-160.0
 20
-133.0
 30
0.0
 40
5.0
 50
270.0
 51
90.0
  0
LINE
  5
7F
  8
FIX
  6
CONTINUOUS
 62
    11
 39
50.0
 10
-165.0
 20
-138.0
 30
0.0
 11
-160.0
 21
-138.0
 31
0.0
  0
LINE
  5
80
  8
FIX
  6
CONTINUOUS
 62
    11
 39
50.0
 10
-165.0
 20
-128.0
 30
0.0
 11
-160.0
 21
-128.0
 31
0.0
  0
ARC
  5
81
  8
FIX
  6
CONTINUOUS
 62
    11
 39
50.0
 10
-160.0
 20
-158.0
 30
0.0
 40
2.5
 50
315.0
 51
135.0
  0
ARC
  5
82
  8
FIX
  6
CONTINUOUS
 62
    11
 39
50.0
 10
-162.82842699999989
 20
-160.828427
 30
0.0
 40
2.5
 50
135.0
 51
315.0
  0
LINE
  5
83
  8
FIX
  6
CONTINUOUS
 62
    11
 39
50.0
 10
-158.23223300000001
 20
-159.76776699999991
 30
0.0
 11
-161.06066000000001
 21
-162.596194
 31
0.0
  0
LINE
  5
84
  8
FIX
  6
CONTINUOUS
 62
    11
 39
50.0
 10
-161.76776699999991
 20
-156.23223300000001
 30
0.0
 11
-164.596194
 21
-159.06066000000001
 31
0.0
  0
ARC
  5
85
  8
FIX
  6
CONTINUOUS
 62
    11
 39
50.0
 10
160.171573
 20
163.17157299999991
 30
0.0
 40
2.5
 50
135.0
 51
315.0
  0
ARC
  5
86
  8
FIX
  6
CONTINUOUS
 62
    11
 39
50.0
 10
163.0
 20
166.0
 30
0.0
 40
2.5
 50
315.0
 51
135.0
  0
LINE
  5
87
  8
FIX
  6
CONTINUOUS
 62
    11
 39
50.0
 10
161.23223300000001
 20
167.76776699999999
 30
0.0
 11
158.403806
 21
164.9393399999999
 31
0.0
  0
LINE
  5
88
  8
FIX
  6
CONTINUOUS
 62
    11
 39
50.0
 10
164.76776699999999
 20
164.23223300000001
 30
0.0
 11
161.9393399999999
 21
161.403806
 31
0.0
  0
ARC
  5
89
  8
FIX
  6
CONTINUOUS
 62
    11
 39
50.0
 10
-163.0
 20
166.0
 30
0.0
 40
2.5
 50
45.0
 51
225.0
  0
ARC
  5
8A
  8
FIX
  6
CONTINUOUS
 62
    11
 39
50.0
 10
-160.171573
 20
163.17157299999991
 30
0.0
 40
2.5
 50
225.0
 51
45.0
  0
LINE
  5
8B
  8
FIX
  6
CONTINUOUS
 62
    11
 39
50.0
 10
-158.403806
 20
164.9393399999999
 30
0.0
 11
-161.23223300000001
 21
167.76776699999999
 31
0.0
  0
LINE
  5
8C
  8
FIX
  6
CONTINUOUS
 62
    11
 39
50.0
 10
-161.9393399999999
 20
161.403806
 30
0.0
 11
-164.76776699999999
 21
164.23223300000001
 31
0.0
  0
ARC
  5
8D
  8
FIX
  6
CONTINUOUS
 62
    11
 39
50.0
 10
160.0
 20
-158.0
 30
0.0
 40
2.5
 50
45.0
 51
225.0
  0
ARC
  5
8E
  8
FIX
  6
CONTINUOUS
 62
    11
 39
50.0
 10
162.82842699999989
 20
-160.828427
 30
0.0
 40
2.5
 50
225.0
 51
45.0
  0
LINE
  5
8F
  8
FIX
  6
CONTINUOUS
 62
    11
 39
50.0
 10
164.596194
 20
-159.06066000000001
 30
0.0
 11
161.76776699999991
 21
-156.23223300000001
 31
0.0
  0
LINE
  5
90
  8
FIX
  6
CONTINUOUS
 62
    11
 39
50.0
 10
161.06066000000001
 20
-162.596194
 30
0.0
 11
158.23223300000001
 21
-159.76776699999991
 31
0.0
  0
LINE
  5
91
  8
NOTE
  6
CONTINUOUS
 62
     4
 10
-163.0
 20
146.5
 30
0.0
 11
-163.0
 21
186.5
 31
0.0
  0
LINE
  5
92
  8
NOTE
  6
CONTINUOUS
 62
     4
 10
-183.0
 20
166.5
 30
0.0
 11
-143.0
 21
166.5
 31
0.0
  0
LINE
  5
93
  8
NOTE
  6
CONTINUOUS
 62
     4
 10
-160.0
 20
143.5
 30
0.0
 11
-160.0
 21
183.49999999999989
 31
0.0
  0
LINE
  5
94
  8
NOTE
  6
CONTINUOUS
 62
     4
 10
-180.0
 20
163.49999999999989
 30
0.0
 11
-140.0
 21
163.49999999999989
 31
0.0
  0
LINE
  5
95
  8
NOTE
  6
CONTINUOUS
 62
     4
 10
-125.0
 20
146.0
 30
0.0
 11
-125.0
 21
186.0
 31
0.0
  0
LINE
  5
96
  8
NOTE
  6
CONTINUOUS
 62
     4
 10
-145.0
 20
166.0
 30
0.0
 11
-105.0
 21
166.0
 31
0.0
  0
LINE
  5
97
  8
NOTE
  6
CONTINUOUS
 62
     4
 10
125.0
 20
146.0
 30
0.0
 11
125.0
 21
186.0
 31
0.0
  0
LINE
  5
98
  8
NOTE
  6
CONTINUOUS
 62
     4
 10
105.0
 20
166.0
 30
0.0
 11
145.0
 21
166.0
 31
0.0
  0
LINE
  5
99
  8
NOTE
  6
CONTINUOUS
 62
     4
 10
163.0
 20
146.5
 30
0.0
 11
163.0
 21
186.5
 31
0.0
  0
LINE
  5
9A
  8
NOTE
  6
CONTINUOUS
 62
     4
 10
143.0
 20
166.5
 30
0.0
 11
183.0
 21
166.5
 31
0.0
  0
LINE
  5
9B
  8
NOTE
  6
CONTINUOUS
 62
     4
 10
160.0
 20
143.5
 30
0.0
 11
160.0
 21
183.49999999999989
 31
0.0
  0
LINE
  5
9C
  8
NOTE
  6
CONTINUOUS
 62
     4
 10
140.0
 20
163.49999999999989
 30
0.0
 11
180.0
 21
163.49999999999989
 31
0.0
  0
LINE
  5
9D
  8
NOTE
  6
CONTINUOUS
 62
     4
 10
162.5
 20
-156.0
 30
0.0
 11
162.5
 21
-116.0
 31
0.0
  0
LINE
  5
9E
  8
NOTE
  6
CONTINUOUS
 62
     4
 10
142.5
 20
-136.0
 30
0.0
 11
182.5
 21
-136.0
 31
0.0
  0
LINE
  5
9F
  8
NOTE
  6
CONTINUOUS
 62
     4
 10
163.0
 20
-179.49999999999989
 30
0.0
 11
163.0
 21
-139.5
 31
0.0
  0
LINE
  5
A0
  8
NOTE
  6
CONTINUOUS
 62
     4
 10
143.0
 20
-159.49999999999989
 30
0.0
 11
183.0
 21
-159.49999999999989
 31
0.0
  0
LINE
  5
A1
  8
NOTE
  6
CONTINUOUS
 62
     4
 10
160.0
 20
-176.5
 30
0.0
 11
160.0
 21
-136.49999999999989
 31
0.0
  0
LINE
  5
A2
  8
NOTE
  6
CONTINUOUS
 62
     4
 10
140.0
 20
-156.49999999999989
 30
0.0
 11
180.0
 21
-156.49999999999989
 31
0.0
  0
LINE
  5
A3
  8
NOTE
  6
CONTINUOUS
 62
     4
 10
125.0
 20
-179.0
 30
0.0
 11
125.0
 21
-139.0
 31
0.0
  0
LINE
  5
A4
  8
NOTE
  6
CONTINUOUS
 62
     4
 10
105.0
 20
-159.0
 30
0.0
 11
145.0
 21
-159.0
 31
0.0
  0
LINE
  5
A5
  8
NOTE
  6
CONTINUOUS
 62
     4
 10
-125.0
 20
-179.0
 30
0.0
 11
-125.0
 21
-139.0
 31
0.0
  0
LINE
  5
A6
  8
NOTE
  6
CONTINUOUS
 62
     4
 10
-145.0
 20
-159.0
 30
0.0
 11
-105.0
 21
-159.0
 31
0.0
  0
LINE
  5
A7
  8
NOTE
  6
CONTINUOUS
 62
     4
 10
-160.0
 20
-176.5
 30
0.0
 11
-160.0
 21
-136.49999999999989
 31
0.0
  0
LINE
  5
A8
  8
NOTE
  6
CONTINUOUS
 62
     4
 10
-180.0
 20
-156.49999999999989
 30
0.0
 11
-140.0
 21
-156.49999999999989
 31
0.0
  0
LINE
  5
A9
  8
NOTE
  6
CONTINUOUS
 62
     4
 10
-163.0
 20
-179.49999999999989
 30
0.0
 11
-163.0
 21
-139.5
 31
0.0
  0
LINE
  5
AA
  8
NOTE
  6
CONTINUOUS
 62
     4
 10
-183.0
 20
-159.49999999999989
 30
0.0
 11
-143.0
 21
-159.49999999999989
 31
0.0
  0
LINE
  5
AB
  8
NOTE
  6
CONTINUOUS
 62
     4
 10
-162.5
 20
-153.0
 30
0.0
 11
-162.5
 21
-113.0
 31
0.0
  0
LINE
  5
AC
  8
NOTE
  6
CONTINUOUS
 62
     4
 10
-182.5
 20
-133.0
 30
0.0
 11
-142.5
 21
-133.0
 31
0.0
  0
LINE
  5
AD
  8
DETAIL
  6
CONTINUOUS
 62
     5
 39
50.0
 10
39.340170000000001
 20
89.152642000000014
 30
0.0
 11
134.15983
 21
89.152642000000014
 31
0.0
  0
LINE
  5
AE
  8
DETAIL
  6
CONTINUOUS
 62
     5
 39
50.0
 10
142.25
 20
79.152642
 30
0.0
 11
138.63196600000001
 21
86.388709999999989
 31
0.0
  0
LINE
  5
AF
  8
DETAIL
  6
CONTINUOUS
 62
     5
 39
50.0
 10
31.25
 20
79.152642
 30
0.0
 11
34.868034000000002
 21
86.388709999999989
 31
0.0
  0
LINE
  5
B0
  8
DETAIL
  6
CONTINUOUS
 62
     5
 39
50.0
 10
142.25
 20
79.152642
 30
0.0
 11
31.25
 21
79.152642
 31
0.0
  0
ARC
  5
B1
  8
DETAIL
  6
CONTINUOUS
 62
     5
 39
50.0
 10
39.340170000000001
 20
84.152642000000014
 30
0.0
 40
5.0
 50
90.0
 51
153.4349489999999
  0
ARC
  5
B2
  8
DETAIL
  6
CONTINUOUS
 62
     5
 39
50.0
 10
134.15983
 20
84.152642000000014
 30
0.0
 40
5.0
 50
26.565051
 51
90.0
  0
ARC
  5
B3
  8
DETAIL
  6
CONTINUOUS
 62
     5
 39
50.0
 10
134.15983
 20
74.152642
 30
0.0
 40
5.0
 50
26.565051
 51
90.0
  0
LINE
  5
B4
  8
DETAIL
  6
CONTINUOUS
 62
     5
 39
50.0
 10
142.25
 20
69.152642
 30
0.0
 11
138.63196600000001
 21
76.388710000000003
 31
0.0
  0
LINE
  5
B5
  8
DETAIL
  6
CONTINUOUS
 62
     5
 39
50.0
 10
39.340170000000001
 20
79.152642
 30
0.0
 11
134.15983
 21
79.152642
 31
0.0
  0
ARC
  5
B6
  8
DETAIL
  6
CONTINUOUS
 62
     5
 39
50.0
 10
39.340170000000001
 20
74.152642
 30
0.0
 40
5.0
 50
90.0
 51
153.4349489999999
  0
LINE
  5
B7
  8
DETAIL
  6
CONTINUOUS
 62
     5
 39
50.0
 10
31.25
 20
69.152642
 30
0.0
 11
34.868034000000002
 21
76.388710000000003
 31
0.0
  0
LINE
  5
B8
  8
DETAIL
  6
CONTINUOUS
 62
     5
 39
50.0
 10
142.25
 20
69.152642
 30
0.0
 11
31.25
 21
69.152642
 31
0.0
  0
ARC
  5
B9
  8
DETAIL
  6
CONTINUOUS
 62
     5
 39
50.0
 10
134.15983
 20
64.152642
 30
0.0
 40
5.0
 50
26.565051
 51
90.0
  0
LINE
  5
BA
  8
DETAIL
  6
CONTINUOUS
 62
     5
 39
50.0
 10
142.25
 20
59.152642000000007
 30
0.0
 11
138.63196600000001
 21
66.388710000000003
 31
0.0
  0
LINE
  5
BB
  8
DETAIL
  6
CONTINUOUS
 62
     5
 39
50.0
 10
39.340170000000001
 20
69.152642
 30
0.0
 11
134.15983
 21
69.152642
 31
0.0
  0
ARC
  5
BC
  8
DETAIL
  6
CONTINUOUS
 62
     5
 39
50.0
 10
39.340170000000001
 20
64.152642
 30
0.0
 40
5.0
 50
90.0
 51
153.4349489999999
  0
LINE
  5
BD
  8
DETAIL
  6
CONTINUOUS
 62
     5
 39
50.0
 10
31.25
 20
59.152642000000007
 30
0.0
 11
34.868034000000002
 21
66.388710000000003
 31
0.0
  0
LINE
  5
BE
  8
DETAIL
  6
CONTINUOUS
 62
     5
 39
50.0
 10
142.25
 20
59.152642000000007
 30
0.0
 11
31.25
 21
59.152642000000007
 31
0.0
  0
ARC
  5
BF
  8
DETAIL
  6
CONTINUOUS
 62
     5
 39
50.0
 10
134.15983
 20
54.152642000000007
 30
0.0
 40
5.0
 50
26.565051
 51
90.0
  0
LINE
  5
C0
  8
DETAIL
  6
CONTINUOUS
 62
     5
 39
50.0
 10
142.25
 20
49.152642
 30
0.0
 11
138.63196600000001
 21
56.388709999999989
 31
0.0
  0
LINE
  5
C1
  8
DETAIL
  6
CONTINUOUS
 62
     5
 39
50.0
 10
39.340170000000001
 20
59.152642000000007
 30
0.0
 11
134.15983
 21
59.152642000000007
 31
0.0
  0
ARC
  5
C2
  8
DETAIL
  6
CONTINUOUS
 62
     5
 39
50.0
 10
39.340170000000001
 20
54.152642000000007
 30
0.0
 40
5.0
 50
90.0
 51
153.4349489999999
  0
LINE
  5
C3
  8
DETAIL
  6
CONTINUOUS
 62
     5
 39
50.0
 10
31.25
 20
49.152642
 30
0.0
 11
34.868034000000002
 21
56.388709999999989
 31
0.0
  0
LINE
  5
C4
  8
DETAIL
  6
CONTINUOUS
 62
     5
 39
50.0
 10
142.25
 20
49.152642
 30
0.0
 11
31.25
 21
49.152642
 31
0.0
  0
ARC
  5
C5
  8
DETAIL
  6
CONTINUOUS
 62
     5
 39
50.0
 10
134.15983
 20
44.152642
 30
0.0
 40
5.0
 50
26.565051
 51
90.0
  0
LINE
  5
C6
  8
DETAIL
  6
CONTINUOUS
 62
     5
 39
50.0
 10
142.25
 20
39.152642
 30
0.0
 11
138.63196600000001
 21
46.388709999999989
 31
0.0
  0
LINE
  5
C7
  8
DETAIL
  6
CONTINUOUS
 62
     5
 39
50.0
 10
39.340170000000001
 20
49.152642
 30
0.0
 11
134.15983
 21
49.152642
 31
0.0
  0
ARC
  5
C8
  8
DETAIL
  6
CONTINUOUS
 62
     5
 39
50.0
 10
39.340170000000001
 20
44.152642
 30
0.0
 40
5.0
 50
90.0
 51
153.4349489999999
  0
LINE
  5
C9
  8
DETAIL
  6
CONTINUOUS
 62
     5
 39
50.0
 10
31.25
 20
39.152642
 30
0.0
 11
34.868034000000002
 21
46.388709999999989
 31
0.0
  0
LINE
  5
CA
  8
DETAIL
  6
CONTINUOUS
 62
     5
 39
50.0
 10
142.25
 20
39.152642
 30
0.0
 11
31.25
 21
39.152642
 31
0.0
  0
ARC
  5
CB
  8
DETAIL
  6
CONTINUOUS
 62
     5
 39
50.0
 10
134.15983
 20
34.152642
 30
0.0
 40
5.0
 50
26.565051
 51
90.0
  0
LINE
  5
CC
  8
DETAIL
  6
CONTINUOUS
 62
     5
 39
50.0
 10
142.25
 20
29.15264199999999
 30
0.0
 11
138.63196600000001
 21
36.388709999999989
 31
0.0
  0
LINE
  5
CD
  8
DETAIL
  6
CONTINUOUS
 62
     5
 39
50.0
 10
39.340170000000001
 20
39.152642
 30
0.0
 11
134.15983
 21
39.152642
 31
0.0
  0
ARC
  5
CE
  8
DETAIL
  6
CONTINUOUS
 62
     5
 39
50.0
 10
39.340170000000001
 20
34.152642
 30
0.0
 40
5.0
 50
90.0
 51
153.4349489999999
  0
LINE
  5
CF
  8
DETAIL
  6
CONTINUOUS
 62
     5
 39
50.0
 10
31.25
 20
29.15264199999999
 30
0.0
 11
34.868034000000002
 21
36.388709999999989
 31
0.0
  0
LINE
  5
D0
  8
DETAIL
  6
CONTINUOUS
 62
     5
 39
50.0
 10
142.25
 20
29.15264199999999
 30
0.0
 11
31.25
 21
29.15264199999999
 31
0.0
  0
ARC
  5
D1
  8
DETAIL
  6
CONTINUOUS
 62
     5
 39
50.0
 10
134.15983
 20
24.152642
 30
0.0
 40
5.0
 50
26.565051
 51
90.0
  0
LINE
  5
D2
  8
DETAIL
  6
CONTINUOUS
 62
     5
 39
50.0
 10
142.25
 20
19.152642
 30
0.0
 11
138.63196600000001
 21
26.388709999999989
 31
0.0
  0
LINE
  5
D3
  8
DETAIL
  6
CONTINUOUS
 62
     5
 39
50.0
 10
39.340170000000001
 20
29.15264199999999
 30
0.0
 11
134.15983
 21
29.15264199999999
 31
0.0
  0
ARC
  5
D4
  8
DETAIL
  6
CONTINUOUS
 62
     5
 39
50.0
 10
39.340170000000001
 20
24.152642
 30
0.0
 40
5.0
 50
90.0
 51
153.4349489999999
  0
LINE
  5
D5
  8
DETAIL
  6
CONTINUOUS
 62
     5
 39
50.0
 10
31.25
 20
19.152642
 30
0.0
 11
34.868034000000002
 21
26.388709999999989
 31
0.0
  0
LINE
  5
D6
  8
DETAIL
  6
CONTINUOUS
 62
     5
 39
50.0
 10
142.25
 20
19.152642
 30
0.0
 11
31.25
 21
19.152642
 31
0.0
  0
ARC
  5
D7
  8
DETAIL
  6
CONTINUOUS
 62
     5
 39
50.0
 10
134.15983
 20
14.152642
 30
0.0
 40
5.0
 50
26.565051
 51
90.0
  0
LINE
  5
D8
  8
DETAIL
  6
CONTINUOUS
 62
     5
 39
50.0
 10
142.25
 20
9.1526420000000002
 30
0.0
 11
138.63196600000001
 21
16.388709999999989
 31
0.0
  0
LINE
  5
D9
  8
DETAIL
  6
CONTINUOUS
 62
     5
 39
50.0
 10
39.340170000000001
 20
19.152642
 30
0.0
 11
134.15983
 21
19.152642
 31
0.0
  0
ARC
  5
DA
  8
DETAIL
  6
CONTINUOUS
 62
     5
 39
50.0
 10
39.340170000000001
 20
14.152642
 30
0.0
 40
5.0
 50
90.0
 51
153.4349489999999
  0
LINE
  5
DB
  8
DETAIL
  6
CONTINUOUS
 62
     5
 39
50.0
 10
31.25
 20
9.1526420000000002
 30
0.0
 11
34.868034000000002
 21
16.388709999999989
 31
0.0
  0
LINE
  5
DC
  8
DETAIL
  6
CONTINUOUS
 62
     5
 39
50.0
 10
142.25
 20
9.1526420000000002
 30
0.0
 11
31.25
 21
9.1526420000000002
 31
0.0
  0
ARC
  5
DD
  8
DETAIL
  6
CONTINUOUS
 62
     5
 39
50.0
 10
134.15983
 20
4.1526420000000002
 30
0.0
 40
5.0
 50
26.565051
 51
90.0
  0
LINE
  5
DE
  8
DETAIL
  6
CONTINUOUS
 62
     5
 39
50.0
 10
142.25
 20
-0.8473579999999999
 30
0.0
 11
138.63196600000001
 21
6.3887099999999988
 31
0.0
  0
LINE
  5
DF
  8
DETAIL
  6
CONTINUOUS
 62
     5
 39
50.0
 10
39.340170000000001
 20
9.1526420000000002
 30
0.0
 11
134.15983
 21
9.1526420000000002
 31
0.0
  0
ARC
  5
E0
  8
DETAIL
  6
CONTINUOUS
 62
     5
 39
50.0
 10
39.340170000000001
 20
4.1526420000000002
 30
0.0
 40
5.0
 50
90.0
 51
153.4349489999999
  0
LINE
  5
E1
  8
DETAIL
  6
CONTINUOUS
 62
     5
 39
50.0
 10
31.25
 20
-0.8473579999999999
 30
0.0
 11
34.868034000000002
 21
6.3887099999999988
 31
0.0
  0
LINE
  5
E2
  8
DETAIL
  6
CONTINUOUS
 62
     5
 39
50.0
 10
142.25
 20
-0.8473579999999999
 30
0.0
 11
31.25
 21
-0.8473579999999999
 31
0.0
  0
LINE
  5
E3
  8
DETAIL
  6
CONTINUOUS
 62
     5
 39
50.0
 10
-31.25
 20
-0.8473579999999999
 30
0.0
 11
-142.25
 21
-0.8473579999999999
 31
0.0
  0
LINE
  5
E4
  8
DETAIL
  6
CONTINUOUS
 62
     5
 39
50.0
 10
-142.25
 20
-0.8473579999999999
 30
0.0
 11
-138.63196600000001
 21
6.3887099999999988
 31
0.0
  0
ARC
  5
E5
  8
DETAIL
  6
CONTINUOUS
 62
     5
 39
50.0
 10
-134.15983
 20
4.1526420000000002
 30
0.0
 40
5.0
 50
90.0
 51
153.4349489999999
  0
LINE
  5
E6
  8
DETAIL
  6
CONTINUOUS
 62
     5
 39
50.0
 10
-134.15983
 20
9.1526420000000002
 30
0.0
 11
-39.340170000000001
 21
9.1526420000000002
 31
0.0
  0
LINE
  5
E7
  8
DETAIL
  6
CONTINUOUS
 62
     5
 39
50.0
 10
-31.25
 20
-0.8473579999999999
 30
0.0
 11
-34.868034000000002
 21
6.3887099999999988
 31
0.0
  0
ARC
  5
E8
  8
DETAIL
  6
CONTINUOUS
 62
     5
 39
50.0
 10
-39.340170000000001
 20
4.1526420000000002
 30
0.0
 40
5.0
 50
26.565051
 51
90.0
  0
LINE
  5
E9
  8
DETAIL
  6
CONTINUOUS
 62
     5
 39
50.0
 10
-31.25
 20
9.1526420000000002
 30
0.0
 11
-142.25
 21
9.1526420000000002
 31
0.0
  0
LINE
  5
EA
  8
DETAIL
  6
CONTINUOUS
 62
     5
 39
50.0
 10
-142.25
 20
9.1526420000000002
 30
0.0
 11
-138.63196600000001
 21
16.388709999999989
 31
0.0
  0
ARC
  5
EB
  8
DETAIL
  6
CONTINUOUS
 62
     5
 39
50.0
 10
-134.15983
 20
14.152642
 30
0.0
 40
5.0
 50
90.0
 51
153.4349489999999
  0
LINE
  5
EC
  8
DETAIL
  6
CONTINUOUS
 62
     5
 39
50.0
 10
-134.15983
 20
19.152642
 30
0.0
 11
-39.340170000000001
 21
19.152642
 31
0.0
  0
LINE
  5
ED
  8
DETAIL
  6
CONTINUOUS
 62
     5
 39
50.0
 10
-31.25
 20
9.1526420000000002
 30
0.0
 11
-34.868034000000002
 21
16.388709999999989
 31
0.0
  0
ARC
  5
EE
  8
DETAIL
  6
CONTINUOUS
 62
     5
 39
50.0
 10
-39.340170000000001
 20
14.152642
 30
0.0
 40
5.0
 50
26.565051
 51
90.0
  0
LINE
  5
EF
  8
DETAIL
  6
CONTINUOUS
 62
     5
 39
50.0
 10
-31.25
 20
19.152642
 30
0.0
 11
-142.25
 21
19.152642
 31
0.0
  0
LINE
  5
F0
  8
DETAIL
  6
CONTINUOUS
 62
     5
 39
50.0
 10
-142.25
 20
19.152642
 30
0.0
 11
-138.63196600000001
 21
26.388709999999989
 31
0.0
  0
ARC
  5
F1
  8
DETAIL
  6
CONTINUOUS
 62
     5
 39
50.0
 10
-134.15983
 20
24.152642
 30
0.0
 40
5.0
 50
90.0
 51
153.4349489999999
  0
LINE
  5
F2
  8
DETAIL
  6
CONTINUOUS
 62
     5
 39
50.0
 10
-134.15983
 20
29.15264199999999
 30
0.0
 11
-39.340170000000001
 21
29.15264199999999
 31
0.0
  0
LINE
  5
F3
  8
DETAIL
  6
CONTINUOUS
 62
     5
 39
50.0
 10
-31.25
 20
19.152642
 30
0.0
 11
-34.868034000000002
 21
26.388709999999989
 31
0.0
  0
ARC
  5
F4
  8
DETAIL
  6
CONTINUOUS
 62
     5
 39
50.0
 10
-39.340170000000001
 20
24.152642
 30
0.0
 40
5.0
 50
26.565051
 51
90.0
  0
LINE
  5
F5
  8
DETAIL
  6
CONTINUOUS
 62
     5
 39
50.0
 10
-31.25
 20
29.15264199999999
 30
0.0
 11
-142.25
 21
29.15264199999999
 31
0.0
  0
LINE
  5
F6
  8
DETAIL
  6
CONTINUOUS
 62
     5
 39
50.0
 10
-142.25
 20
29.15264199999999
 30
0.0
 11
-138.63196600000001
 21
36.388709999999989
 31
0.0
  0
ARC
  5
F7
  8
DETAIL
  6
CONTINUOUS
 62
     5
 39
50.0
 10
-134.15983
 20
34.152642
 30
0.0
 40
5.0
 50
90.0
 51
153.4349489999999
  0
LINE
  5
F8
  8
DETAIL
  6
CONTINUOUS
 62
     5
 39
50.0
 10
-134.15983
 20
39.152642
 30
0.0
 11
-39.340170000000001
 21
39.152642
 31
0.0
  0
LINE
  5
F9
  8
DETAIL
  6
CONTINUOUS
 62
     5
 39
50.0
 10
-31.25
 20
29.15264199999999
 30
0.0
 11
-34.868034000000002
 21
36.388709999999989
 31
0.0
  0
ARC
  5
FA
  8
DETAIL
  6
CONTINUOUS
 62
     5
 39
50.0
 10
-39.340170000000001
 20
34.152642
 30
0.0
 40
5.0
 50
26.565051
 51
90.0
  0
LINE
  5
FB
  8
DETAIL
  6
CONTINUOUS
 62
     5
 39
50.0
 10
-31.25
 20
39.152642
 30
0.0
 11
-142.25
 21
39.152642
 31
0.0
  0
LINE
  5
FC
  8
DETAIL
  6
CONTINUOUS
 62
     5
 39
50.0
 10
-142.25
 20
39.152642
 30
0.0
 11
-138.63196600000001
 21
46.388709999999989
 31
0.0
  0
ARC
  5
FD
  8
DETAIL
  6
CONTINUOUS
 62
     5
 39
50.0
 10
-134.15983
 20
44.152642
 30
0.0
 40
5.0
 50
90.0
 51
153.4349489999999
  0
LINE
  5
FE
  8
DETAIL
  6
CONTINUOUS
 62
     5
 39
50.0
 10
-134.15983
 20
49.152642
 30
0.0
 11
-39.340170000000001
 21
49.152642
 31
0.0
  0
LINE
  5
FF
  8
DETAIL
  6
CONTINUOUS
 62
     5
 39
50.0
 10
-31.25
 20
39.152642
 30
0.0
 11
-34.868034000000002
 21
46.388709999999989
 31
0.0
  0
ARC
  5
100
  8
DETAIL
  6
CONTINUOUS
 62
     5
 39
50.0
 10
-39.340170000000001
 20
44.152642
 30
0.0
 40
5.0
 50
26.565051
 51
90.0
  0
LINE
  5
101
  8
DETAIL
  6
CONTINUOUS
 62
     5
 39
50.0
 10
-31.25
 20
49.152642
 30
0.0
 11
-142.25
 21
49.152642
 31
0.0
  0
LINE
  5
102
  8
DETAIL
  6
CONTINUOUS
 62
     5
 39
50.0
 10
-142.25
 20
49.152642
 30
0.0
 11
-138.63196600000001
 21
56.388709999999989
 31
0.0
  0
ARC
  5
103
  8
DETAIL
  6
CONTINUOUS
 62
     5
 39
50.0
 10
-134.15983
 20
54.152642000000007
 30
0.0
 40
5.0
 50
90.0
 51
153.4349489999999
  0
LINE
  5
104
  8
DETAIL
  6
CONTINUOUS
 62
     5
 39
50.0
 10
-134.15983
 20
59.152642000000007
 30
0.0
 11
-39.340170000000001
 21
59.152642000000007
 31
0.0
  0
LINE
  5
105
  8
DETAIL
  6
CONTINUOUS
 62
     5
 39
50.0
 10
-31.25
 20
49.152642
 30
0.0
 11
-34.868034000000002
 21
56.388709999999989
 31
0.0
  0
ARC
  5
106
  8
DETAIL
  6
CONTINUOUS
 62
     5
 39
50.0
 10
-39.340170000000001
 20
54.152642000000007
 30
0.0
 40
5.0
 50
26.565051
 51
90.0
  0
LINE
  5
107
  8
DETAIL
  6
CONTINUOUS
 62
     5
 39
50.0
 10
-31.25
 20
59.152642000000007
 30
0.0
 11
-142.25
 21
59.152642000000007
 31
0.0
  0
LINE
  5
108
  8
DETAIL
  6
CONTINUOUS
 62
     5
 39
50.0
 10
-142.25
 20
59.152642000000007
 30
0.0
 11
-138.63196600000001
 21
66.388710000000003
 31
0.0
  0
ARC
  5
109
  8
DETAIL
  6
CONTINUOUS
 62
     5
 39
50.0
 10
-134.15983
 20
64.152642
 30
0.0
 40
5.0
 50
90.0
 51
153.4349489999999
  0
LINE
  5
10A
  8
DETAIL
  6
CONTINUOUS
 62
     5
 39
50.0
 10
-134.15983
 20
69.152642
 30
0.0
 11
-39.340170000000001
 21
69.152642
 31
0.0
  0
LINE
  5
10B
  8
DETAIL
  6
CONTINUOUS
 62
     5
 39
50.0
 10
-31.25
 20
59.152642000000007
 30
0.0
 11
-34.868034000000002
 21
66.388710000000003
 31
0.0
  0
ARC
  5
10C
  8
DETAIL
  6
CONTINUOUS
 62
     5
 39
50.0
 10
-39.340170000000001
 20
64.152642
 30
0.0
 40
5.0
 50
26.565051
 51
90.0
  0
LINE
  5
10D
  8
DETAIL
  6
CONTINUOUS
 62
     5
 39
50.0
 10
-31.25
 20
69.152642
 30
0.0
 11
-142.25
 21
69.152642
 31
0.0
  0
LINE
  5
10E
  8
DETAIL
  6
CONTINUOUS
 62
     5
 39
50.0
 10
-142.25
 20
69.152642
 30
0.0
 11
-138.63196600000001
 21
76.388710000000003
 31
0.0
  0
ARC
  5
10F
  8
DETAIL
  6
CONTINUOUS
 62
     5
 39
50.0
 10
-134.15983
 20
74.152642
 30
0.0
 40
5.0
 50
90.0
 51
153.4349489999999
  0
LINE
  5
110
  8
DETAIL
  6
CONTINUOUS
 62
     5
 39
50.0
 10
-134.15983
 20
79.152642
 30
0.0
 11
-39.340170000000001
 21
79.152642
 31
0.0
  0
LINE
  5
111
  8
DETAIL
  6
CONTINUOUS
 62
     5
 39
50.0
 10
-31.25
 20
69.152642
 30
0.0
 11
-34.868034000000002
 21
76.388710000000003
 31
0.0
  0
ARC
  5
112
  8
DETAIL
  6
CONTINUOUS
 62
     5
 39
50.0
 10
-39.340170000000001
 20
74.152642
 30
0.0
 40
5.0
 50
26.565051
 51
90.0
  0
ARC
  5
113
  8
DETAIL
  6
CONTINUOUS
 62
     5
 39
50.0
 10
-39.340170000000001
 20
84.152642000000014
 30
0.0
 40
5.0
 50
26.565051
 51
90.0
  0
LINE
  5
114
  8
DETAIL
  6
CONTINUOUS
 62
     5
 39
50.0
 10
-31.25
 20
79.152642
 30
0.0
 11
-34.868034000000002
 21
86.388709999999989
 31
0.0
  0
LINE
  5
115
  8
DETAIL
  6
CONTINUOUS
 62
     5
 39
50.0
 10
-134.15983
 20
89.152642000000014
 30
0.0
 11
-39.340170000000001
 21
89.152642000000014
 31
0.0
  0
ARC
  5
116
  8
DETAIL
  6
CONTINUOUS
 62
     5
 39
50.0
 10
-134.15983
 20
84.152642000000014
 30
0.0
 40
5.0
 50
90.0
 51
153.4349489999999
  0
LINE
  5
117
  8
DETAIL
  6
CONTINUOUS
 62
     5
 39
50.0
 10
-142.25
 20
79.152642
 30
0.0
 11
-138.63196600000001
 21
86.388709999999989
 31
0.0
  0
LINE
  5
118
  8
DETAIL
  6
CONTINUOUS
 62
     5
 39
50.0
 10
-31.25
 20
79.152642
 30
0.0
 11
-142.25
 21
79.152642
 31
0.0
  0
LINE
  5
119
  8
BASIS
  6
DASHDOT
 62
     6
 39
50.0
 10
86.75
 20
113.2089469999999
 30
0.0
 11
86.75
 21
-28.961874999999988
 31
0.0
  0
LINE
  5
11A
  8
BASIS
  6
DASHDOT
 62
     6
 39
50.0
 10
-86.75
 20
115.465626
 30
0.0
 11
-86.75
 21
-26.141027000000001
 31
0.0
  0
LINE
  5
11B
  8
DETAIL
  6
CONTINUOUS
 62
     5
 39
50.0
 10
171.5
 20
-168.0
 30
0.0
 11
-171.5
 21
-168.0
 31
0.0
  0
LINE
  5
11C
  8
DETAIL
  6
CONTINUOUS
 62
     5
 39
50.0
 10
-153.0
 20
-146.5
 30
0.0
 11
-153.0
 21
-165.0
 31
0.0
  0
LINE
  5
11D
  8
DETAIL
  6
CONTINUOUS
 62
     5
 39
50.0
 10
-153.0
 20
-165.0
 30
0.0
 11
-171.5
 21
-165.0
 31
0.0
  0
LINE
  5
11E
  8
DETAIL
  6
CONTINUOUS
 62
     5
 39
50.0
 10
153.0
 20
-146.5
 30
0.0
 11
153.0
 21
-165.0
 31
0.0
  0
LINE
  5
11F
  8
DETAIL
  6
CONTINUOUS
 62
     5
 39
50.0
 10
153.0
 20
-165.0
 30
0.0
 11
171.5
 21
-165.0
 31
0.0
  0
LINE
  5
120
  8
DETAIL
  6
CONTINUOUS
 62
     5
 39
50.0
 10
-152.0
 20
-146.5
 30
0.0
 11
-152.0
 21
-61.5
 31
0.0
  0
LINE
  5
121
  8
DETAIL
  6
CONTINUOUS
 62
     5
 39
50.0
 10
152.0
 20
-146.5
 30
0.0
 11
152.0
 21
-61.5
 31
0.0
  0
LINE
  5
122
  8
SIZE
  6
CONTINUOUS
 62
    30
 10
-125.0
 20
186.0
 30
0.0
 11
-125.0
 21
247.27690200000001
 31
0.0
  0
LINE
  5
123
  8
SIZE
  6
CONTINUOUS
 62
    30
 10
125.0
 20
186.0
 30
0.0
 11
125.0
 21
247.27690200000001
 31
0.0
  0
LINE
  5
124
  8
SIZE
  6
CONTINUOUS
 62
    30
 10
-113.0
 20
227.27690200000001
 30
0.0
 11
113.0
 21
227.27690200000001
 31
0.0
  0
CIRCLE
  5
125
  8
SIZE
  6
CONTINUOUS
 62
    30
 10
-125.0
 20
227.27690200000001
 30
0.0
 40
6.0
  0
LINE
  5
126
  8
SIZE
  6
CONTINUOUS
 62
    30
 10
-125.0
 20
227.27690200000001
 30
0.0
 11
-113.0
 21
227.27690200000001
 31
0.0
  0
CIRCLE
  5
127
  8
SIZE
  6
CONTINUOUS
 62
    30
 10
125.0
 20
227.27690200000001
 30
0.0
 40
6.0
  0
LINE
  5
128
  8
SIZE
  6
CONTINUOUS
 62
    30
 10
125.0
 20
227.27690200000001
 30
0.0
 11
113.0
 21
227.27690200000001
 31
0.0
  0
TEXT
  5
129
  8
SIZE
  6
CONTINUOUS
 62
    30
 10
-74.05714285714285
 20
252.27690200000001
 30
0.0
 40
64.0
  1
250
 41
0.9
 72
     1
 11
0.0
 21
252.27690200000001
 31
0.0
  0
LINE
  5
12D
  8
SIZE
  6
CONTINUOUS
 62
    30
 10
-160.0
 20
183.49999999999989
 30
0.0
 11
-160.0
 21
362.24105400000002
 31
0.0
  0
LINE
  5
12E
  8
SIZE
  6
CONTINUOUS
 62
    30
 10
160.0
 20
183.49999999999989
 30
0.0
 11
160.0
 21
362.24105400000002
 31
0.0
  0
LINE
  5
12F
  8
SIZE
  6
CONTINUOUS
 62
    30
 10
-148.0
 20
342.24105400000002
 30
0.0
 11
148.0
 21
342.24105400000002
 31
0.0
  0
CIRCLE
  5
130
  8
SIZE
  6
CONTINUOUS
 62
    30
 10
-160.0
 20
342.24105400000002
 30
0.0
 40
6.0
  0
LINE
  5
131
  8
SIZE
  6
CONTINUOUS
 62
    30
 10
-160.0
 20
342.24105400000002
 30
0.0
 11
-148.0
 21
342.24105400000002
 31
0.0
  0
CIRCLE
  5
132
  8
SIZE
  6
CONTINUOUS
 62
    30
 10
160.0
 20
342.24105400000002
 30
0.0
 40
6.0
  0
LINE
  5
133
  8
SIZE
  6
CONTINUOUS
 62
    30
 10
160.0
 20
342.24105400000002
 30
0.0
 11
148.0
 21
342.24105400000002
 31
0.0
  0
TEXT
  5
134
  8
SIZE
  6
CONTINUOUS
 62
    30
 10
-74.05714285714285
 20
367.24105400000002
 30
0.0
 40
64.0
  1
320
 41
0.9
 72
     1
 11
0.0
 21
367.24105400000002
 31
0.0
  0
LINE
  5
138
  8
SIZE
  6
CONTINUOUS
 62
    30
 10
-163.0
 20
186.5
 30
0.0
 11
-163.0
 21
478.79142999999988
 31
0.0
  0
LINE
  5
139
  8
SIZE
  6
CONTINUOUS
 62
    30
 10
163.0
 20
186.5
 30
0.0
 11
163.0
 21
478.79142999999988
 31
0.0
  0
LINE
  5
13A
  8
SIZE
  6
CONTINUOUS
 62
    30
 10
-151.0
 20
458.79142999999999
 30
0.0
 11
151.0
 21
458.79142999999999
 31
0.0
  0
CIRCLE
  5
13B
  8
SIZE
  6
CONTINUOUS
 62
    30
 10
-163.0
 20
458.79142999999999
 30
0.0
 40
6.0
  0
LINE
  5
13C
  8
SIZE
  6
CONTINUOUS
 62
    30
 10
-163.0
 20
458.79142999999999
 30
0.0
 11
-151.0
 21
458.79142999999999
 31
0.0
  0
CIRCLE
  5
13D
  8
SIZE
  6
CONTINUOUS
 62
    30
 10
163.0
 20
458.79142999999999
 30
0.0
 40
6.0
  0
LINE
  5
13E
  8
SIZE
  6
CONTINUOUS
 62
    30
 10
163.0
 20
458.79142999999999
 30
0.0
 11
151.0
 21
458.79142999999999
 31
0.0
  0
TEXT
  5
13F
  8
SIZE
  6
CONTINUOUS
 62
    30
 10
-72.685714285714283
 20
483.79142999999999
 30
0.0
 40
64.0
  1
326
 41
0.9
 72
     1
 11
0.0
 21
483.79142999999999
 31
0.0
  0
LINE
  5
143
  8
SIZE
  6
CONTINUOUS
 62
    30
 10
-173.5
 20
168.5
 30
0.0
 11
-173.5
 21
597.18232499999988
 31
0.0
  0
LINE
  5
144
  8
SIZE
  6
CONTINUOUS
 62
    30
 10
173.5
 20
168.5
 30
0.0
 11
173.5
 21
597.18232499999988
 31
0.0
  0
LINE
  5
145
  8
SIZE
  6
CONTINUOUS
 62
    30
 10
-161.5
 20
577.18232499999988
 30
0.0
 11
161.5
 21
577.18232499999988
 31
0.0
  0
CIRCLE
  5
146
  8
SIZE
  6
CONTINUOUS
 62
    30
 10
-173.5
 20
577.18232499999988
 30
0.0
 40
6.0
  0
LINE
  5
147
  8
SIZE
  6
CONTINUOUS
 62
    30
 10
-173.5
 20
577.18232499999988
 30
0.0
 11
-161.5
 21
577.18232499999988
 31
0.0
  0
CIRCLE
  5
148
  8
SIZE
  6
CONTINUOUS
 62
    30
 10
173.5
 20
577.18232499999988
 30
0.0
 40
6.0
  0
LINE
  5
149
  8
SIZE
  6
CONTINUOUS
 62
    30
 10
173.5
 20
577.18232499999988
 30
0.0
 11
161.5
 21
577.18232499999988
 31
0.0
  0
TEXT
  5
14A
  8
SIZE
  6
CONTINUOUS
 62
    30
 10
-74.05714285714285
 20
602.18232499999988
 30
0.0
 40
64.0
  1
347
 41
0.9
 72
     1
 11
0.0
 21
602.18232499999988
 31
0.0
  0
LINE
  5
14E
  8
SIZE
  6
CONTINUOUS
 62
    30
 10
-160.0
 20
-176.5
 30
0.0
 11
-160.0
 21
-323.71319999999992
 31
0.0
  0
LINE
  5
14F
  8
SIZE
  6
CONTINUOUS
 62
    30
 10
160.0
 20
-176.5
 30
0.0
 11
160.0
 21
-323.71319999999992
 31
0.0
  0
LINE
  5
150
  8
SIZE
  6
CONTINUOUS
 62
    30
 10
-148.0
 20
-303.71319999999992
 30
0.0
 11
148.0
 21
-303.71319999999992
 31
0.0
  0
CIRCLE
  5
151
  8
SIZE
  6
CONTINUOUS
 62
    30
 10
-160.0
 20
-303.71319999999992
 30
0.0
 40
6.0
  0
LINE
  5
152
  8
SIZE
  6
CONTINUOUS
 62
    30
 10
-160.0
 20
-303.71319999999992
 30
0.0
 11
-148.0
 21
-303.71319999999992
 31
0.0
  0
CIRCLE
  5
153
  8
SIZE
  6
CONTINUOUS
 62
    30
 10
160.0
 20
-303.71319999999992
 30
0.0
 40
6.0
  0
LINE
  5
154
  8
SIZE
  6
CONTINUOUS
 62
    30
 10
160.0
 20
-303.71319999999992
 30
0.0
 11
148.0
 21
-303.71319999999992
 31
0.0
  0
TEXT
  5
155
  8
SIZE
  6
CONTINUOUS
 62
    30
 10
-74.05714285714285
 20
-278.71319999999992
 30
0.0
 40
64.0
  1
320
 41
0.9
 72
     1
 11
0.0
 21
-278.71319999999992
 31
0.0
  0
LINE
  5
159
  8
SIZE
  6
CONTINUOUS
 62
    30
 10
-162.5
 20
-153.0
 30
0.0
 11
-162.5
 21
-466.68527699999993
 31
0.0
  0
LINE
  5
15A
  8
SIZE
  6
CONTINUOUS
 62
    30
 10
162.5
 20
-153.0
 30
0.0
 11
162.5
 21
-466.68527699999993
 31
0.0
  0
LINE
  5
15B
  8
SIZE
  6
CONTINUOUS
 62
    30
 10
-150.5
 20
-446.68527699999993
 30
0.0
 11
150.5
 21
-446.68527699999993
 31
0.0
  0
CIRCLE
  5
15C
  8
SIZE
  6
CONTINUOUS
 62
    30
 10
-162.5
 20
-446.68527699999993
 30
0.0
 40
6.0
  0
LINE
  5
15D
  8
SIZE
  6
CONTINUOUS
 62
    30
 10
-162.5
 20
-446.68527699999993
 30
0.0
 11
-150.5
 21
-446.68527699999993
 31
0.0
  0
CIRCLE
  5
15E
  8
SIZE
  6
CONTINUOUS
 62
    30
 10
162.5
 20
-446.68527699999993
 30
0.0
 40
6.0
  0
LINE
  5
15F
  8
SIZE
  6
CONTINUOUS
 62
    30
 10
162.5
 20
-446.68527699999993
 30
0.0
 11
150.5
 21
-446.68527699999993
 31
0.0
  0
TEXT
  5
160
  8
SIZE
  6
CONTINUOUS
 62
    30
 10
-74.05714285714285
 20
-421.68527699999993
 30
0.0
 40
64.0
  1
325
 41
0.9
 72
     1
 11
0.0
 21
-421.68527699999993
 31
0.0
  0
LINE
  5
164
  8
SIZE
  6
CONTINUOUS
 62
    30
 10
-163.0
 20
-179.49999999999989
 30
0.0
 11
-163.0
 21
-608.0885219999999
 31
0.0
  0
LINE
  5
165
  8
SIZE
  6
CONTINUOUS
 62
    30
 10
163.0
 20
-179.49999999999989
 30
0.0
 11
163.0
 21
-608.0885219999999
 31
0.0
  0
LINE
  5
166
  8
SIZE
  6
CONTINUOUS
 62
    30
 10
-151.0
 20
-588.08852200000001
 30
0.0
 11
151.0
 21
-588.08852200000001
 31
0.0
  0
CIRCLE
  5
167
  8
SIZE
  6
CONTINUOUS
 62
    30
 10
-163.0
 20
-588.08852200000001
 30
0.0
 40
6.0
  0
LINE
  5
168
  8
SIZE
  6
CONTINUOUS
 62
    30
 10
-163.0
 20
-588.08852200000001
 30
0.0
 11
-151.0
 21
-588.08852200000001
 31
0.0
  0
CIRCLE
  5
169
  8
SIZE
  6
CONTINUOUS
 62
    30
 10
163.0
 20
-588.08852200000001
 30
0.0
 40
6.0
  0
LINE
  5
16A
  8
SIZE
  6
CONTINUOUS
 62
    30
 10
163.0
 20
-588.08852200000001
 30
0.0
 11
151.0
 21
-588.08852200000001
 31
0.0
  0
TEXT
  5
16B
  8
SIZE
  6
CONTINUOUS
 62
    30
 10
-72.685714285714283
 20
-563.08852200000001
 30
0.0
 40
64.0
  1
326
 41
0.9
 72
     1
 11
0.0
 21
-563.08852200000001
 31
0.0
  0
LINE
  5
16F
  8
SIZE
  6
CONTINUOUS
 62
    30
 10
-171.5
 20
-188.0
 30
0.0
 11
-171.5
 21
-743.43140599999992
 31
0.0
  0
LINE
  5
170
  8
SIZE
  6
CONTINUOUS
 62
    30
 10
171.5
 20
-188.0
 30
0.0
 11
171.5
 21
-743.43140599999992
 31
0.0
  0
LINE
  5
171
  8
SIZE
  6
CONTINUOUS
 62
    30
 10
-159.49999999999989
 20
-723.43140599999992
 30
0.0
 11
159.49999999999989
 21
-723.43140599999992
 31
0.0
  0
CIRCLE
  5
172
  8
SIZE
  6
CONTINUOUS
 62
    30
 10
-171.5
 20
-723.43140599999992
 30
0.0
 40
6.0
  0
LINE
  5
173
  8
SIZE
  6
CONTINUOUS
 62
    30
 10
-171.5
 20
-723.43140599999992
 30
0.0
 11
-159.49999999999989
 21
-723.43140599999992
 31
0.0
  0
CIRCLE
  5
174
  8
SIZE
  6
CONTINUOUS
 62
    30
 10
171.5
 20
-723.43140599999992
 30
0.0
 40
6.0
  0
LINE
  5
175
  8
SIZE
  6
CONTINUOUS
 62
    30
 10
171.5
 20
-723.43140599999992
 30
0.0
 11
159.49999999999989
 21
-723.43140599999992
 31
0.0
  0
TEXT
  5
176
  8
SIZE
  6
CONTINUOUS
 62
    30
 10
-74.05714285714285
 20
-698.43140599999992
 30
0.0
 40
64.0
  1
343
 41
0.9
 72
     1
 11
0.0
 21
-698.43140599999992
 31
0.0
  0
LINE
  5
17A
  8
SIZE
  6
CONTINUOUS
 62
    30
 10
-183.0
 20
175.0
 30
0.0
 11
-518.61496699999987
 21
175.0
 31
0.0
  0
LINE
  5
17B
  8
SIZE
  6
CONTINUOUS
 62
    30
 10
-145.0
 20
166.0
 30
0.0
 11
-518.61496699999987
 21
166.0
 31
0.0
  0
LINE
  5
17C
  8
SIZE
  6
CONTINUOUS
 62
    30
 10
-498.61496699999992
 20
154.0
 30
0.0
 11
-498.61496699999992
 21
142.0
 31
0.0
  0
LINE
  5
17D
  8
SIZE
  6
CONTINUOUS
 62
    30
 10
-498.61496699999992
 20
187.0
 30
0.0
 11
-498.61496699999992
 21
284.65714300000002
 31
0.0
  0
LINE
  5
17E
  8
SIZE
  6
CONTINUOUS
 62
    30
 10
-498.61496699999992
 20
166.0
 30
0.0
 11
-498.61496699999992
 21
175.0
 31
0.0
  0
CIRCLE
  5
17F
  8
SIZE
  6
CONTINUOUS
 62
    30
 10
-498.61496699999992
 20
166.0
 30
0.0
 40
6.0
  0
LINE
  5
180
  8
SIZE
  6
CONTINUOUS
 62
    30
 10
-498.61496699999992
 20
166.0
 30
0.0
 11
-498.61496699999992
 21
154.0
 31
0.0
  0
CIRCLE
  5
181
  8
SIZE
  6
CONTINUOUS
 62
    30
 10
-498.61496699999992
 20
175.0
 30
0.0
 40
6.0
  0
LINE
  5
182
  8
SIZE
  6
CONTINUOUS
 62
    30
 10
-498.61496699999992
 20
175.0
 30
0.0
 11
-498.61496699999992
 21
187.0
 31
0.0
  0
TEXT
  5
183
  8
SIZE
  6
CONTINUOUS
 62
    30
 10
-523.61496699999987
 20
223.9999995714285
 30
0.0
 40
64.0
  1
9
 50
90.0
 41
0.9
 72
     1
 11
-523.61496699999987
 21
241.8285709999999
 31
0.0
  0
LINE
  5
187
  8
SIZE
  6
CONTINUOUS
 62
    30
 10
-145.0
 20
166.0
 30
0.0
 11
-518.61496699999987
 21
166.0
 31
0.0
  0
LINE
  5
188
  8
SIZE
  6
CONTINUOUS
 62
    30
 10
-145.0
 20
-159.0
 30
0.0
 11
-518.61496699999987
 21
-159.0
 31
0.0
  0
LINE
  5
189
  8
SIZE
  6
CONTINUOUS
 62
    30
 10
-498.61496699999992
 20
154.0
 30
0.0
 11
-498.61496699999992
 21
-147.0
 31
0.0
  0
CIRCLE
  5
18A
  8
SIZE
  6
CONTINUOUS
 62
    30
 10
-498.61496699999992
 20
166.0
 30
0.0
 40
6.0
  0
LINE
  5
18B
  8
SIZE
  6
CONTINUOUS
 62
    30
 10
-498.61496699999992
 20
166.0
 30
0.0
 11
-498.61496699999992
 21
154.0
 31
0.0
  0
CIRCLE
  5
18C
  8
SIZE
  6
CONTINUOUS
 62
    30
 10
-498.61496699999992
 20
-159.0
 30
0.0
 40
6.0
  0
LINE
  5
18D
  8
SIZE
  6
CONTINUOUS
 62
    30
 10
-498.61496699999992
 20
-159.0
 30
0.0
 11
-498.61496699999992
 21
-147.0
 31
0.0
  0
TEXT
  5
18E
  8
SIZE
  6
CONTINUOUS
 62
    30
 10
-523.61496699999987
 20
-70.55714285714285
 30
0.0
 40
64.0
  1
325
 50
90.0
 41
0.9
 72
     1
 11
-523.61496699999987
 21
3.5
 31
0.0
  0
LINE
  5
192
  8
SIZE
  6
CONTINUOUS
 62
    30
 10
186.5
 20
175.0
 30
0.0
 11
335.87087400000001
 21
175.0
 31
0.0
  0
LINE
  5
193
  8
SIZE
  6
CONTINUOUS
 62
    30
 10
180.0
 20
163.49999999999989
 30
0.0
 11
335.87087400000001
 21
163.49999999999989
 31
0.0
  0
LINE
  5
194
  8
SIZE
  6
CONTINUOUS
 62
    30
 10
315.87087400000001
 20
151.5
 30
0.0
 11
315.87087400000001
 21
139.5
 31
0.0
  0
LINE
  5
195
  8
SIZE
  6
CONTINUOUS
 62
    30
 10
315.87087400000001
 20
187.0
 30
0.0
 11
315.87087400000001
 21
402.60000000000002
 31
0.0
  0
LINE
  5
196
  8
SIZE
  6
CONTINUOUS
 62
    30
 10
315.87087400000001
 20
163.49999999999989
 30
0.0
 11
315.87087400000001
 21
175.0
 31
0.0
  0
CIRCLE
  5
197
  8
SIZE
  6
CONTINUOUS
 62
    30
 10
315.87087400000001
 20
163.49999999999989
 30
0.0
 40
6.0
  0
LINE
  5
198
  8
SIZE
  6
CONTINUOUS
 62
    30
 10
315.87087400000001
 20
163.49999999999989
 30
0.0
 11
315.87087400000001
 21
151.5
 31
0.0
  0
CIRCLE
  5
199
  8
SIZE
  6
CONTINUOUS
 62
    30
 10
315.87087400000001
 20
175.0
 30
0.0
 40
6.0
  0
LINE
  5
19A
  8
SIZE
  6
CONTINUOUS
 62
    30
 10
315.87087400000001
 20
175.0
 30
0.0
 11
315.87087400000001
 21
187.0
 31
0.0
  0
TEXT
  5
19B
  8
SIZE
  6
CONTINUOUS
 62
    30
 10
290.87087400000001
 20
224.0
 30
0.0
 40
64.0
  1
11.5
 50
90.0
 41
0.9
 72
     1
 11
290.87087400000001
 21
300.80000000000001
 31
0.0
  0
LINE
  5
19F
  8
SIZE
  6
CONTINUOUS
 62
    30
 10
182.5
 20
-136.0
 30
0.0
 11
335.87087400000001
 21
-136.0
 31
0.0
  0
LINE
  5
1A0
  8
SIZE
  6
CONTINUOUS
 62
    30
 10
180.0
 20
163.49999999999989
 30
0.0
 11
335.87087400000001
 21
163.49999999999989
 31
0.0
  0
LINE
  5
1A1
  8
SIZE
  6
CONTINUOUS
 62
    30
 10
315.87087400000001
 20
-124.0
 30
0.0
 11
315.87087400000001
 21
151.5
 31
0.0
  0
CIRCLE
  5
1A2
  8
SIZE
  6
CONTINUOUS
 62
    30
 10
315.87087400000001
 20
-136.0
 30
0.0
 40
6.0
  0
LINE
  5
1A3
  8
SIZE
  6
CONTINUOUS
 62
    30
 10
315.87087400000001
 20
-136.0
 30
0.0
 11
315.87087400000001
 21
-124.0
 31
0.0
  0
CIRCLE
  5
1A4
  8
SIZE
  6
CONTINUOUS
 62
    30
 10
315.87087400000001
 20
163.49999999999989
 30
0.0
 40
6.0
  0
LINE
  5
1A5
  8
SIZE
  6
CONTINUOUS
 62
    30
 10
315.87087400000001
 20
163.49999999999989
 30
0.0
 11
315.87087400000001
 21
151.5
 31
0.0
  0
TEXT
  5
1A6
  8
SIZE
  6
CONTINUOUS
 62
    30
 10
290.87087400000001
 20
-101.4499999999999
 30
0.0
 40
64.0
  1
299.5
 50
90.0
 41
0.9
 72
     1
 11
290.87087400000001
 21
13.75
 31
0.0
  0
LINE
  5
1AA
  8
SIZE
  6
CONTINUOUS
 62
    30
 10
180.0
 20
163.49999999999989
 30
0.0
 11
459.91722199999992
 21
163.49999999999989
 31
0.0
  0
LINE
  5
1AB
  8
SIZE
  6
CONTINUOUS
 62
    30
 10
180.0
 20
-156.49999999999989
 30
0.0
 11
459.91722199999992
 21
-156.49999999999989
 31
0.0
  0
LINE
  5
1AC
  8
SIZE
  6
CONTINUOUS
 62
    30
 10
439.91722199999992
 20
151.5
 30
0.0
 11
439.91722199999992
 21
-144.5
 31
0.0
  0
CIRCLE
  5
1AD
  8
SIZE
  6
CONTINUOUS
 62
    30
 10
439.91722199999992
 20
163.49999999999989
 30
0.0
 40
6.0
  0
LINE
  5
1AE
  8
SIZE
  6
CONTINUOUS
 62
    30
 10
439.91722199999992
 20
163.49999999999989
 30
0.0
 11
439.91722199999992
 21
151.5
 31
0.0
  0
CIRCLE
  5
1AF
  8
SIZE
  6
CONTINUOUS
 62
    30
 10
439.91722199999992
 20
-156.49999999999989
 30
0.0
 40
6.0
  0
LINE
  5
1B0
  8
SIZE
  6
CONTINUOUS
 62
    30
 10
439.91722199999992
 20
-156.49999999999989
 30
0.0
 11
439.91722199999992
 21
-144.5
 31
0.0
  0
TEXT
  5
1B1
  8
SIZE
  6
CONTINUOUS
 62
    30
 10
414.91722199999998
 20
-70.55714285714285
 30
0.0
 40
64.0
  1
320
 50
90.0
 41
0.9
 72
     1
 11
414.91722199999998
 21
3.5
 31
0.0
  0
LINE
  5
1B5
  8
SIZE
  6
CONTINUOUS
 62
    30
 10
183.0
 20
166.5
 30
0.0
 11
585.21697099999994
 21
166.5
 31
0.0
  0
LINE
  5
1B6
  8
SIZE
  6
CONTINUOUS
 62
    30
 10
183.0
 20
-159.49999999999989
 30
0.0
 11
585.21697099999994
 21
-159.49999999999989
 31
0.0
  0
LINE
  5
1B7
  8
SIZE
  6
CONTINUOUS
 62
    30
 10
565.21697099999994
 20
154.49999999999989
 30
0.0
 11
565.21697099999994
 21
-147.5
 31
0.0
  0
CIRCLE
  5
1B8
  8
SIZE
  6
CONTINUOUS
 62
    30
 10
565.21697099999994
 20
166.5
 30
0.0
 40
6.0
  0
LINE
  5
1B9
  8
SIZE
  6
CONTINUOUS
 62
    30
 10
565.21697099999994
 20
166.5
 30
0.0
 11
565.21697099999994
 21
154.49999999999989
 31
0.0
  0
CIRCLE
  5
1BA
  8
SIZE
  6
CONTINUOUS
 62
    30
 10
565.21697099999994
 20
-159.49999999999989
 30
0.0
 40
6.0
  0
LINE
  5
1BB
  8
SIZE
  6
CONTINUOUS
 62
    30
 10
565.21697099999994
 20
-159.49999999999989
 30
0.0
 11
565.21697099999994
 21
-147.5
 31
0.0
  0
TEXT
  5
1BC
  8
SIZE
  6
CONTINUOUS
 62
    30
 10
540.21697099999994
 20
-69.185714285714283
 30
0.0
 40
64.0
  1
326
 50
90.0
 41
0.9
 72
     1
 11
540.21697099999994
 21
3.5
 31
0.0
  0
LINE
  5
1C0
  8
SIZE
  6
CONTINUOUS
 62
    30
 10
-188.49999999999989
 20
153.5
 30
0.0
 11
-256.67561899999993
 21
153.5
 31
0.0
  0
LINE
  5
1C1
  8
SIZE
  6
CONTINUOUS
 62
    30
 10
-193.5
 20
138.5
 30
0.0
 11
-256.67561899999993
 21
138.5
 31
0.0
  0
LINE
  5
1C2
  8
SIZE
  6
CONTINUOUS
 62
    30
 10
-236.6756189999999
 20
126.5
 30
0.0
 11
-236.6756189999999
 21
114.5
 31
0.0
  0
LINE
  5
1C3
  8
SIZE
  6
CONTINUOUS
 62
    30
 10
-236.6756189999999
 20
165.5
 30
0.0
 11
-236.6756189999999
 21
315.01012400000002
 31
0.0
  0
LINE
  5
1C4
  8
SIZE
  6
CONTINUOUS
 62
    30
 10
-236.6756189999999
 20
138.5
 30
0.0
 11
-236.6756189999999
 21
153.5
 31
0.0
  0
CIRCLE
  5
1C5
  8
SIZE
  6
CONTINUOUS
 62
    30
 10
-236.6756189999999
 20
138.5
 30
0.0
 40
6.0
  0
LINE
  5
1C6
  8
SIZE
  6
CONTINUOUS
 62
    30
 10
-236.6756189999999
 20
138.5
 30
0.0
 11
-236.6756189999999
 21
126.5
 31
0.0
  0
CIRCLE
  5
1C7
  8
SIZE
  6
CONTINUOUS
 62
    30
 10
-236.6756189999999
 20
153.5
 30
0.0
 40
6.0
  0
LINE
  5
1C8
  8
SIZE
  6
CONTINUOUS
 62
    30
 10
-236.6756189999999
 20
153.5
 30
0.0
 11
-236.6756189999999
 21
165.5
 31
0.0
  0
TEXT
  5
1C9
  8
SIZE
  6
CONTINUOUS
 62
    30
 10
-261.67561899999993
 20
207.7244098571428
 30
0.0
 40
64.0
  1
15
 50
90.0
 41
0.9
 72
     1
 11
-261.67561899999993
 21
248.867267
 31
0.0
  0
LINE
  5
1CD
  8
SIZE
  6
CONTINUOUS
 62
    30
 10
-193.5
 20
138.5
 30
0.0
 11
-256.67561899999993
 21
138.5
 31
0.0
  0
LINE
  5
1CE
  8
SIZE
  6
CONTINUOUS
 62
    30
 10
-188.49999999999989
 20
-61.5
 30
0.0
 11
-256.67561899999993
 21
-61.5
 31
0.0
  0
LINE
  5
1CF
  8
SIZE
  6
CONTINUOUS
 62
    30
 10
-236.6756189999999
 20
126.5
 30
0.0
 11
-236.6756189999999
 21
-49.5
 31
0.0
  0
CIRCLE
  5
1D0
  8
SIZE
  6
CONTINUOUS
 62
    30
 10
-236.6756189999999
 20
138.5
 30
0.0
 40
6.0
  0
LINE
  5
1D1
  8
SIZE
  6
CONTINUOUS
 62
    30
 10
-236.6756189999999
 20
138.5
 30
0.0
 11
-236.6756189999999
 21
126.5
 31
0.0
  0
CIRCLE
  5
1D2
  8
SIZE
  6
CONTINUOUS
 62
    30
 10
-236.6756189999999
 20
-61.5
 30
0.0
 40
6.0
  0
LINE
  5
1D3
  8
SIZE
  6
CONTINUOUS
 62
    30
 10
-236.6756189999999
 20
-61.5
 30
0.0
 11
-236.6756189999999
 21
-49.5
 31
0.0
  0
TEXT
  5
1D4
  8
SIZE
  6
CONTINUOUS
 62
    30
 10
-261.67561899999993
 20
-35.55714285714285
 30
0.0
 40
64.0
  1
200
 50
90.0
 41
0.9
 72
     1
 11
-261.67561899999993
 21
38.5
 31
0.0
  0
LINE
  5
1D8
  8
SIZE
  6
CONTINUOUS
 62
    30
 10
-188.49999999999989
 20
153.5
 30
0.0
 11
-390.88111199999997
 21
153.5
 31
0.0
  0
LINE
  5
1D9
  8
SIZE
  6
CONTINUOUS
 62
    30
 10
-191.5
 20
-146.5
 30
0.0
 11
-390.88111199999997
 21
-146.5
 31
0.0
  0
LINE
  5
1DA
  8
SIZE
  6
CONTINUOUS
 62
    30
 10
-370.88111199999997
 20
141.5
 30
0.0
 11
-370.88111199999997
 21
-134.49999999999989
 31
0.0
  0
CIRCLE
  5
1DB
  8
SIZE
  6
CONTINUOUS
 62
    30
 10
-370.88111199999997
 20
153.5
 30
0.0
 40
6.0
  0
LINE
  5
1DC
  8
SIZE
  6
CONTINUOUS
 62
    30
 10
-370.88111199999997
 20
153.5
 30
0.0
 11
-370.88111199999997
 21
141.5
 31
0.0
  0
CIRCLE
  5
1DD
  8
SIZE
  6
CONTINUOUS
 62
    30
 10
-370.88111199999997
 20
-146.5
 30
0.0
 40
6.0
  0
LINE
  5
1DE
  8
SIZE
  6
CONTINUOUS
 62
    30
 10
-370.88111199999997
 20
-146.5
 30
0.0
 11
-370.88111199999997
 21
-134.49999999999989
 31
0.0
  0
TEXT
  5
1DF
  8
SIZE
  6
CONTINUOUS
 62
    30
 10
-395.88111199999997
 20
-70.55714285714285
 30
0.0
 40
64.0
  1
300
 50
90.0
 41
0.9
 72
     1
 11
-395.88111199999997
 21
3.5
 31
0.0
  0
LINE
  5
1E3
  8
SIZE
  6
CONTINUOUS
 62
    30
 10
-183.0
 20
175.0
 30
0.0
 11
-390.88111199999997
 21
175.0
 31
0.0
  0
LINE
  5
1E4
  8
SIZE
  6
CONTINUOUS
 62
    30
 10
-188.49999999999989
 20
153.5
 30
0.0
 11
-390.88111199999997
 21
153.5
 31
0.0
  0
LINE
  5
1E5
  8
SIZE
  6
CONTINUOUS
 62
    30
 10
-370.88111199999997
 20
141.5
 30
0.0
 11
-370.88111199999997
 21
129.49999999999989
 31
0.0
  0
LINE
  5
1E6
  8
SIZE
  6
CONTINUOUS
 62
    30
 10
-370.88111199999997
 20
187.0
 30
0.0
 11
-370.88111199999997
 21
413.57142900000002
 31
0.0
  0
LINE
  5
1E7
  8
SIZE
  6
CONTINUOUS
 62
    30
 10
-370.88111199999997
 20
153.5
 30
0.0
 11
-370.88111199999997
 21
175.0
 31
0.0
  0
CIRCLE
  5
1E8
  8
SIZE
  6
CONTINUOUS
 62
    30
 10
-370.88111199999997
 20
153.5
 30
0.0
 40
6.0
  0
LINE
  5
1E9
  8
SIZE
  6
CONTINUOUS
 62
    30
 10
-370.88111199999997
 20
153.5
 30
0.0
 11
-370.88111199999997
 21
141.5
 31
0.0
  0
CIRCLE
  5
1EA
  8
SIZE
  6
CONTINUOUS
 62
    30
 10
-370.88111199999997
 20
175.0
 30
0.0
 40
6.0
  0
LINE
  5
1EB
  8
SIZE
  6
CONTINUOUS
 62
    30
 10
-370.88111199999997
 20
175.0
 30
0.0
 11
-370.88111199999997
 21
187.0
 31
0.0
  0
TEXT
  5
1EC
  8
SIZE
  6
CONTINUOUS
 62
    30
 10
-395.88111199999997
 20
223.99999971428571
 30
0.0
 40
64.0
  1
21.5
 50
90.0
 41
0.9
 72
     1
 11
-395.88111199999997
 21
306.28571399999998
 31
0.0
  0
LINE
  5
1F0
  8
NOTE
  6
CONTINUOUS
 62
     4
 10
196.99758700000001
 20
-156.24639500000001
 30
0.0
 11
162.5
 21
-136.0
 31
0.0
  0
LINE
  5
1F1
  8
NOTE
  6
CONTINUOUS
 62
     4
 10
162.5
 20
-136.0
 30
0.0
 11
182.252589
 21
-170.78268600000001
 31
0.0
  0
LINE
  5
1F2
  8
NOTE
  6
CONTINUOUS
 62
     4
 10
192.77345800000001
 20
-189.2121919999999
 30
0.0
 11
163.0
 21
-162.5
 31
0.0
  0
LINE
  5
1F3
  8
NOTE
  6
CONTINUOUS
 62
     4
 10
163.0
 20
-162.5
 30
0.0
 11
175.42847499999999
 21
-200.5201659999999
 31
0.0
  0
TEXT
  5
1F4
  8
NOTE
  6
CONTINUOUS
 62
     4
 10
351.15306600000002
 20
-306.17088899999987
 30
0.0
 40
64.0
  1
6ヶ所×10×15長穴
 41
0.9
  0
TEXT
  5
1F5
  8
NOTE
  6
CONTINUOUS
 62
     4
 10
351.15306600000002
 20
-429.14259599999991
 30
0.0
 40
64.0
  1
4ヶ所×5×9長穴(取付用)
 41
0.9
  0
LINE
  5
1F6
  8
NOTE
  6
CONTINUOUS
 62
     4
 39
50.0
 10
344.19672200000002
 20
-328.54068799999999
 30
0.0
 11
1021.613607
 21
-328.54068799999999
 31
0.0
  0
LINE
  5
1F7
  8
NOTE
  6
CONTINUOUS
 62
     4
 39
50.0
 10
348.64263999999991
 20
-454.75507699999991
 30
0.0
 11
1204.8202630000001
 21
-454.75507699999991
 31
0.0
  0
LINE
  5
1F8
  8
NOTE
  6
CONTINUOUS
 62
     4
 39
50.0
 10
162.5
 20
-136.0
 30
0.0
 11
344.19672200000002
 21
-328.54068799999999
 31
0.0
  0
LINE
  5
1F9
  8
NOTE
  6
CONTINUOUS
 62
     4
 39
50.0
 10
163.0
 20
-162.5
 30
0.0
 11
348.64263999999991
 21
-454.75507699999991
 31
0.0
  0
LINE
  5
1FA
  8
DETAIL
  6
CONTINUOUS
 62
     5
 39
50.0
 10
-102.75
 20
-116.0
 30
0.0
 11
-62.75
 21
-116.0
 31
0.0
  0
LINE
  5
1FB
  8
DETAIL
  6
CONTINUOUS
 62
     5
 39
50.0
 10
-102.75
 20
-112.0
 30
0.0
 11
-62.75
 21
-112.0
 31
0.0
  0
LINE
  5
1FC
  8
DETAIL
  6
CONTINUOUS
 62
     5
 39
50.0
 10
-102.75
 20
-108.0
 30
0.0
 11
-62.75
 21
-108.0
 31
0.0
  0
LINE
  5
1FD
  8
DETAIL
  6
CONTINUOUS
 62
     5
 39
50.0
 10
-102.75
 20
-104.0
 30
0.0
 11
-62.75
 21
-104.0
 31
0.0
  0
LINE
  5
1FE
  8
DETAIL
  6
CONTINUOUS
 62
     5
 39
50.0
 10
-102.75
 20
-100.0
 30
0.0
 11
-62.75
 21
-100.0
 31
0.0
  0
LINE
  5
1FF
  8
DETAIL
  6
CONTINUOUS
 62
     5
 39
50.0
 10
-102.75
 20
-96.0
 30
0.0
 11
-62.75
 21
-96.0
 31
0.0
  0
LINE
  5
200
  8
DETAIL
  6
CONTINUOUS
 62
     5
 39
50.0
 10
-102.75
 20
-92.0
 30
0.0
 11
-62.75
 21
-92.0
 31
0.0
  0
LINE
  5
201
  8
DETAIL
  6
CONTINUOUS
 62
     5
 39
50.0
 10
-94.749999999999986
 20
-84.0
 30
0.0
 11
-94.749999999999986
 21
-124.0
 31
0.0
  0
LINE
  5
202
  8
DETAIL
  6
CONTINUOUS
 62
     5
 39
50.0
 10
-90.750000000000014
 20
-84.0
 30
0.0
 11
-90.750000000000014
 21
-124.0
 31
0.0
  0
LINE
  5
203
  8
DETAIL
  6
CONTINUOUS
 62
     5
 39
50.0
 10
-86.75
 20
-84.0
 30
0.0
 11
-86.75
 21
-124.0
 31
0.0
  0
LINE
  5
204
  8
DETAIL
  6
CONTINUOUS
 62
     5
 39
50.0
 10
-82.75
 20
-84.0
 30
0.0
 11
-82.75
 21
-124.0
 31
0.0
  0
LINE
  5
205
  8
DETAIL
  6
CONTINUOUS
 62
     5
 39
50.0
 10
-78.75
 20
-84.0
 30
0.0
 11
-78.75
 21
-124.0
 31
0.0
  0
LINE
  5
206
  8
DETAIL
  6
CONTINUOUS
 62
     5
 39
50.0
 10
-74.75
 20
-84.0
 30
0.0
 11
-74.75
 21
-124.0
 31
0.0
  0
LINE
  5
207
  8
DETAIL
  6
CONTINUOUS
 62
     5
 39
50.0
 10
-70.75
 20
-84.0
 30
0.0
 11
-70.75
 21
-124.0
 31
0.0
  0
LINE
  5
208
  8
DETAIL
  6
CONTINUOUS
 62
     5
 39
50.0
 10
94.749999999999986
 20
-81.575806999999998
 30
0.0
 11
94.749999999999986
 21
-121.575807
 31
0.0
  0
LINE
  5
209
  8
DETAIL
  6
CONTINUOUS
 62
     5
 39
50.0
 10
90.750000000000014
 20
-81.575806999999998
 30
0.0
 11
90.750000000000014
 21
-121.575807
 31
0.0
  0
LINE
  5
20A
  8
DETAIL
  6
CONTINUOUS
 62
     5
 39
50.0
 10
86.75
 20
-81.575806999999998
 30
0.0
 11
86.75
 21
-121.575807
 31
0.0
  0
LINE
  5
20B
  8
DETAIL
  6
CONTINUOUS
 62
     5
 39
50.0
 10
82.75
 20
-81.575806999999998
 30
0.0
 11
82.75
 21
-121.575807
 31
0.0
  0
LINE
  5
20C
  8
DETAIL
  6
CONTINUOUS
 62
     5
 39
50.0
 10
78.75
 20
-81.575806999999998
 30
0.0
 11
78.75
 21
-121.575807
 31
0.0
  0
LINE
  5
20D
  8
DETAIL
  6
CONTINUOUS
 62
     5
 39
50.0
 10
74.75
 20
-81.575806999999998
 30
0.0
 11
74.75
 21
-121.575807
 31
0.0
  0
LINE
  5
20E
  8
DETAIL
  6
CONTINUOUS
 62
     5
 39
50.0
 10
70.75
 20
-81.575806999999998
 30
0.0
 11
70.75
 21
-121.575807
 31
0.0
  0
LINE
  5
20F
  8
DETAIL
  6
CONTINUOUS
 62
     5
 39
50.0
 10
62.75
 20
-89.575806999999983
 30
0.0
 11
102.75
 21
-89.575806999999983
 31
0.0
  0
LINE
  5
210
  8
DETAIL
  6
CONTINUOUS
 62
     5
 39
50.0
 10
62.75
 20
-93.575806999999983
 30
0.0
 11
102.75
 21
-93.575806999999983
 31
0.0
  0
LINE
  5
211
  8
DETAIL
  6
CONTINUOUS
 62
     5
 39
50.0
 10
62.75
 20
-97.575806999999998
 30
0.0
 11
102.75
 21
-97.575806999999998
 31
0.0
  0
LINE
  5
212
  8
DETAIL
  6
CONTINUOUS
 62
     5
 39
50.0
 10
62.75
 20
-101.5758069999999
 30
0.0
 11
102.75
 21
-101.5758069999999
 31
0.0
  0
LINE
  5
213
  8
DETAIL
  6
CONTINUOUS
 62
     5
 39
50.0
 10
62.75
 20
-105.575807
 30
0.0
 11
102.75
 21
-105.575807
 31
0.0
  0
LINE
  5
214
  8
DETAIL
  6
CONTINUOUS
 62
     5
 39
50.0
 10
62.75
 20
-109.575807
 30
0.0
 11
102.75
 21
-109.575807
 31
0.0
  0
LINE
  5
215
  8
DETAIL
  6
CONTINUOUS
 62
     5
 39
50.0
 10
62.75
 20
-113.575807
 30
0.0
 11
102.75
 21
-113.575807
 31
0.0
  0
TEXT
  5
221
  8
ETC
  6
CONTINUOUS
 62
    61
 10
656.19074720416472
 20
264.34176608585989
 30
0.0
 40
40.0
  1
P-200KCVS2
 41
0.9
  0
TEXT
  5
222
  8
ETC
  6
CONTINUOUS
 62
    61
 10
654.61865321211269
 20
325.61423777980599
 30
0.0
 40
40.0
  1
P-200KCV2
 41
0.9
  0
TEXT
  5
223
  8
ETC
  6
CONTINUOUS
 62
    61
 10
653.04656306338882
 20
388.45779689863679
 30
0.0
 40
40.0
  1
P-200KCVSQ2
 41
0.9
  0
TEXT
  5
224
  8
ETC
  6
CONTINUOUS
 62
    61
 10
648.33028493056088
 20
452.87244804408778
 30
0.0
 40
40.0
  1
P-200KCVQ2
 41
0.9
  0
TEXT
  5
225
  8
ETC
  6
CONTINUOUS
 62
    61
 10
531.35599273224852
 20
513.47757257436569
 30
0.0
 40
40.0
  1
システム部材
 41
0.9
  0
TEXT
  5
226
  8
ETC
  6
CONTINUOUS
 62
    61
 10
535.76885473224854
 20
587.27879731520488
 30
0.0
 40
40.0
  1
P-200KCVQ2_2
 41
0.9
  0
ENDSEC
  0
EOF
