  0
SECTION
  2
HEADER
  9
$ACADVER
  1
AC1009
  9
$INSBASE
 10
0.0
 20
0.0
 30
0.0
  9
$EXTMIN
 10
-980.724198
 20
-493.49383599999999
 30
0.0
  9
$EXTMAX
 10
1109.788880605571
 20
549.29976800000009
 30
50.0
  9
$LIMMIN
 10
-2970.0
 20
-2100.0
  9
$LIMMAX
 10
2970.0
 20
2100.0
  9
$ORTHOMODE
 70
     1
  9
$REGENMODE
 70
     1
  9
$FILLMODE
 70
     1
  9
$QTEXTMODE
 70
     0
  9
$MIRRTEXT
 70
     0
  9
$DRAGMODE
 70
     2
  9
$LTSCALE
 40
20.0
  9
$OSMODE
 70
   167
  9
$ATTMODE
 70
     1
  9
$TEXTSIZE
 40
64.0
  9
$TRACEWID
 40
0.05
  9
$TEXTSTYLE
  7
STANDARD
  9
$CLAYER
  8
SIZE
  9
$CELTYPE
  6
CONTINUOUS
  9
$CECOLOR
 62
     7
  9
$DIMSCALE
 40
1.0
  9
$DIMASZ
 40
12.0
  9
$DIMEXO
 40
20.0
  9
$DIMDLI
 40
200.0
  9
$DIMRND
 40
0.0
  9
$DIMDLE
 40
0.0
  9
$DIMEXE
 40
20.0
  9
$DIMTP
 40
0.0
  9
$DIMTM
 40
0.0
  9
$DIMTXT
 40
64.0
  9
$DIMCEN
 40
0.09
  9
$DIMTSZ
 40
0.0
  9
$DIMTOL
 70
     0
  9
$DIMLIM
 70
     0
  9
$DIMTIH
 70
     0
  9
$DIMTOH
 70
     0
  9
$DIMSE1
 70
     0
  9
$DIMSE2
 70
     0
  9
$DIMTAD
 70
     1
  9
$DIMZIN
 70
     8
  9
$DIMBLK
  1
DOT1
  9
$DIMASO
 70
     1
  9
$DIMSHO
 70
     0
  9
$DIMPOST
  1

  9
$DIMAPOST
  1

  9
$DIMALT
 70
     0
  9
$DIMALTD
 70
     2
  9
$DIMALTF
 40
25.399999999999999
  9
$DIMLFAC
 40
1.0
  9
$DIMTOFL
 70
     1
  9
$DIMTVP
 40
0.0
  9
$DIMTIX
 70
     1
  9
$DIMSOXD
 70
     0
  9
$DIMSAH
 70
     1
  9
$DIMBLK1
  1
ORIGIN
  9
$DIMBLK2
  1
ORIGIN
  9
$DIMSTYLE
  2
STANDARD
  9
$DIMCLRD
 70
     7
  9
$DIMCLRE
 70
     7
  9
$DIMCLRT
 70
     7
  9
$DIMTFAC
 40
1.0
  9
$DIMGAP
 40
25.0
  9
$LUNITS
 70
     2
  9
$LUPREC
 70
     4
  9
$SKETCHINC
 40
0.1
  9
$FILLETRAD
 40
20.0
  9
$AUNITS
 70
     1
  9
$AUPREC
 70
     3
  9
$MENU
  1
ACAD
  9
$ELEVATION
 40
0.0
  9
$PELEVATION
 40
0.0
  9
$THICKNESS
 40
50.0
  9
$LIMCHECK
 70
     0
  9
$BLIPMODE
 70
     0
  9
$CHAMFERA
 40
0.0
  9
$CHAMFERB
 40
0.0
  9
$SKPOLY
 70
     0
  9
$TDCREATE
 40
2453019.6230103699
  9
$TDUPDATE
 40
2454576.7440820248
  9
$TDINDWG
 40
0.3572595023
  9
$TDUSRTIMER
 40
0.3572593287
  9
$USRTIMER
 70
     1
  9
$ANGBASE
 50
0.0
  9
$ANGDIR
 70
     0
  9
$PDMODE
 70
     3
  9
$PDSIZE
 40
-2.0
  9
$PLINEWID
 40
0.0
  9
$COORDS
 70
     2
  9
$SPLFRAME
 70
     0
  9
$SPLINETYPE
 70
     6
  9
$SPLINESEGS
 70
     8
  9
$ATTDIA
 70
     0
  9
$ATTREQ
 70
     1
  9
$HANDLING
 70
 22529
  9
$HANDSEED
  5
296
  9
$SURFTAB1
 70
     6
  9
$SURFTAB2
 70
     6
  9
$SURFTYPE
 70
     6
  9
$SURFU
 70
     6
  9
$SURFV
 70
     6
  9
$UCSNAME
  2

  9
$UCSORG
 10
0.0
 20
0.0
 30
0.0
  9
$UCSXDIR
 10
1.0
 20
0.0
 30
0.0
  9
$UCSYDIR
 10
0.0
 20
1.0
 30
0.0
  9
$PUCSNAME
  2

  9
$PUCSORG
 10
0.0
 20
0.0
 30
0.0
  9
$PUCSXDIR
 10
1.0
 20
0.0
 30
0.0
  9
$PUCSYDIR
 10
0.0
 20
1.0
 30
0.0
  9
$USERI1
 70
     0
  9
$USERI2
 70
     0
  9
$USERI3
 70
     0
  9
$USERI4
 70
     0
  9
$USERI5
 70
     0
  9
$USERR1
 40
20.0
  9
$USERR2
 40
0.0
  9
$USERR3
 40
0.0
  9
$USERR4
 40
0.0
  9
$USERR5
 40
0.0
  9
$WORLDVIEW
 70
     1
  9
$SHADEDGE
 70
     3
  9
$SHADEDIF
 70
    70
  9
$TILEMODE
 70
     1
  9
$MAXACTVP
 70
    48
  9
$PLIMCHECK
 70
     0
  9
$PEXTMIN
 10
-1.0000000000000000E+020
 20
-1.0000000000000000E+020
 30
-1.0000000000000000E+020
  9
$PEXTMAX
 10
1.0000000000000000E+020
 20
1.0000000000000000E+020
 30
1.0000000000000000E+020
  9
$PLIMMIN
 10
0.0
 20
0.0
  9
$PLIMMAX
 10
12.0
 20
9.0
  9
$UNITMODE
 70
     0
  9
$VISRETAIN
 70
     0
  9
$PLINEGEN
 70
     0
  9
$PSLTSCALE
 70
     0
  0
ENDSEC
  0
SECTION
  2
TABLES
  0
TABLE
  2
VPORT
 70
     3
  0
VPORT
  2
*ACTIVE
 70
     0
 10
0.0
 20
0.0
 11
1.0
 21
1.0
 12
64.289801578005836
 22
33.668866246537618
 13
0.0
 23
0.0
 14
1.0
 24
1.0
 15
0.0
 25
0.0
 16
0.0
 26
0.0
 36
1.0
 17
0.0
 27
0.0
 37
0.0
 40
1273.9741664233391
 41
1.670382165605095
 42
50.0
 43
0.0
 44
0.0
 50
0.0
 51
0.0
 71
     0
 72
  1000
 73
     1
 74
     0
 75
     0
 76
     0
 77
     0
 78
     0
  0
ENDTAB
  0
TABLE
  2
LTYPE
 70
     3
  0
LTYPE
  2
CONTINUOUS
 70
     0
  3
実線
 72
    65
 73
     0
 40
0.0
  0
LTYPE
  2
DASHDOT
 70
     0
  3
____ _ ____ _ ____ _ ____ _ ____ _ ____ _ ____
 72
    65
 73
     4
 40
5.5
 49
4.0
 49
-0.6
 49
0.3
 49
-0.6
  0
LTYPE
  2
DASHED
 70
     0
  3
-- -- -- -- -- -- -- -- -- -- -- -- -- -- --
 72
    65
 73
     2
 40
0.75
 49
0.5
 49
-0.25
  0
ENDTAB
  0
TABLE
  2
LAYER
 70
    12
  0
LAYER
  2
0
 70
     0
 62
     7
  6
CONTINUOUS
  0
LAYER
  2
SIZE
 70
     0
 62
    30
  6
CONTINUOUS
  0
LAYER
  2
BASIS
 70
     0
 62
     6
  6
DASHDOT
  0
LAYER
  2
OUTLINE
 70
     0
 62
     3
  6
CONTINUOUS
  0
LAYER
  2
DETAIL
 70
     0
 62
     5
  6
CONTINUOUS
  0
LAYER
  2
ARRANGE
 70
     0
 62
     1
  6
CONTINUOUS
  0
LAYER
  2
DEFPOINTS
 70
     0
 62
     7
  6
CONTINUOUS
  0
LAYER
  2
ETC
 70
     0
 62
    61
  6
CONTINUOUS
  0
LAYER
  2
FIX
 70
     0
 62
    11
  6
CONTINUOUS
  0
LAYER
  2
NOTE
 70
     0
 62
     4
  6
CONTINUOUS
  0
LAYER
  2
SERVICESPACE
 70
     0
 62
     2
  6
DASHDOT
  0
LAYER
  2
SYMBOLLINE
 70
     0
 62
    15
  6
CONTINUOUS
  0
ENDTAB
  0
TABLE
  2
STYLE
 70
     1
  0
STYLE
  2
STANDARD
 70
     0
 40
64.0
 41
0.9
 50
0.0
 71
     0
 42
64.0
  3
SIMPLEX.shx
  4
BIGFONT.shx
  0
ENDTAB
  0
TABLE
  2
VIEW
 70
     1
  0
VIEW
  2
ALL
 70
     0
 40
4282.6198079999976
 10
0.0
 20
41.309903999999989
 41
5940.0
 11
0.0
 21
0.0
 31
1.0
 12
0.0
 22
0.0
 32
0.0
 42
50.0
 43
0.0
 44
0.0
 50
0.0
 71
     0
  0
ENDTAB
  0
TABLE
  2
UCS
 70
     0
  0
ENDTAB
  0
TABLE
  2
APPID
 70
     2
  0
APPID
  2
ACAD
 70
     0
  0
APPID
  2
AUTOCAD_POSTSCRIPT_FIGURE
 70
     0
  0
ENDTAB
  0
TABLE
  2
DIMSTYLE
 70
     1
  0
DIMSTYLE
  2
STANDARD
 70
     0
  3

  4

  5

  6

  7

 40
1.0
 41
0.18
 42
0.0625
 43
0.38
 44
0.18
 45
0.0
 46
0.0
 47
0.0
 48
0.0
140
0.18
141
0.09
142
0.0
143
25.399999999999999
144
1.0
145
0.0
146
1.0
147
0.09
 71
     0
 72
     0
 73
     1
 74
     1
 75
     0
 76
     0
 77
     0
 78
     0
170
     0
171
     2
172
     0
173
     0
174
     0
175
     0
176
     7
177
     7
178
     7
  0
ENDTAB
  0
ENDSEC
  0
SECTION
  2
BLOCKS
  0
BLOCK
  8
0
  2
$MODEL_SPACE
 70
     0
 10
0.0
 20
0.0
 30
0.0
  3
$MODEL_SPACE
  1

  0
ENDBLK
  5
180
  8
0
  0
BLOCK
 67
     1
  8
0
  2
$PAPER_SPACE
 70
     0
 10
0.0
 20
0.0
 30
0.0
  3
$PAPER_SPACE
  1

  0
ENDBLK
  5
17C
 67
     1
  8
0
  0
BLOCK
  8
0
  2
DOT1
 70
     0
 10
0.0
 20
0.0
 30
0.0
  3
DOT1
  1

  0
CIRCLE
  5
19D
  8
SIZE
  6
CONTINUOUS
 62
     7
 10
0.0
 20
0.0
 30
0.0
 40
3.0
  0
ENDBLK
  5
19E
  8
0
  0
BLOCK
  8
0
  2
_ORIGIN
 70
     0
 10
0.0
 20
0.0
 30
0.0
  3
_ORIGIN
  1

  0
CIRCLE
  5
1A1
  8
0
  6
CONTINUOUS
 62
     7
 10
0.0
 20
0.0
 30
0.0
 40
0.5
  0
LINE
  5
1A2
  8
0
  6
CONTINUOUS
 62
     7
 10
0.0
 20
0.0
 30
0.0
 11
-1.0
 21
0.0
 31
0.0
  0
ENDBLK
  5
1A3
  8
0
  0
ENDSEC
  0
SECTION
  2
ENTITIES
  0
POINT
  5
1A4
  8
ARRANGE
  6
CONTINUOUS
 62
     1
 10
0.0
 20
0.0
 30
0.0
 39
50.0
  0
CIRCLE
  5
1A5
  8
ARRANGE
  6
CONTINUOUS
 62
     1
 39
50.0
 10
0.0
 20
0.0
 30
0.0
 40
40.0
  0
LINE
  5
1A6
  8
BASIS
  6
DASHDOT
 62
     6
 39
50.0
 10
-281.80509599999982
 20
0.0
 30
0.0
 11
95.278175000000005
 21
0.0
 31
0.0
  0
LINE
  5
1A7
  8
DETAIL
  6
CONTINUOUS
 62
     5
 39
50.0
 10
0.0
 20
171.5
 30
0.0
 11
0.0
 21
-171.5
 31
0.0
  0
LINE
  5
1A8
  8
DETAIL
  6
CONTINUOUS
 62
     5
 39
50.0
 10
-10.0
 20
-178.5
 30
0.0
 11
0.0
 21
-171.5
 31
0.0
  0
LINE
  5
1A9
  8
DETAIL
  6
CONTINUOUS
 62
     5
 39
50.0
 10
-20.0
 20
-150.0
 30
0.0
 11
-200.0
 21
-65.0
 31
0.0
  0
LINE
  5
1AA
  8
DETAIL
  6
CONTINUOUS
 62
     5
 39
50.0
 10
0.0
 20
-150.0
 30
0.0
 11
-20.0
 21
-150.0
 31
0.0
  0
LINE
  5
1AB
  8
OUTLINE
  6
CONTINUOUS
 62
     3
 39
50.0
 10
0.0
 20
171.5
 30
0.0
 11
0.0
 21
-171.5
 31
0.0
  0
LINE
  5
1AC
  8
OUTLINE
  6
CONTINUOUS
 62
     3
 39
50.0
 10
-10.0
 20
-178.5
 30
0.0
 11
0.0
 21
-171.5
 31
0.0
  0
ARC
  5
1AD
  8
FIX
  6
CONTINUOUS
 62
    11
 39
50.0
 10
-2.5
 20
-139.5
 30
0.0
 40
5.0
 50
90.0
 51
270.0
  0
ARC
  5
1AE
  8
FIX
  6
CONTINUOUS
 62
    11
 39
50.0
 10
2.5
 20
-139.5
 30
0.0
 40
5.0
 50
270.0
 51
90.0
  0
LINE
  5
1AF
  8
FIX
  6
CONTINUOUS
 62
    11
 39
50.0
 10
-2.5
 20
-134.4999999999998
 30
0.0
 11
2.5
 21
-134.4999999999998
 31
0.0
  0
LINE
  5
1B0
  8
FIX
  6
CONTINUOUS
 62
    11
 39
50.0
 10
-2.5
 20
-144.5
 30
0.0
 11
2.5
 21
-144.5
 31
0.0
  0
LINE
  5
1B1
  8
NOTE
  6
CONTINUOUS
 62
     4
 10
20.0
 20
-139.5
 30
0.0
 11
-20.0
 21
-139.5
 31
0.0
  0
LINE
  5
1B2
  8
NOTE
  6
CONTINUOUS
 62
     4
 10
0.0
 20
-159.4999999999998
 30
0.0
 11
0.0
 21
-119.5
 31
0.0
  0
LINE
  5
1B3
  8
FIX
  6
CONTINUOUS
 62
    11
 39
50.0
 10
-5.0
 20
-163.4999999999998
 30
0.0
 11
-5.0
 21
-168.5
 31
0.0
  0
LINE
  5
1B4
  8
FIX
  6
CONTINUOUS
 62
    11
 39
50.0
 10
5.0
 20
-163.4999999999998
 30
0.0
 11
5.0
 21
-168.5
 31
0.0
  0
ARC
  5
1B5
  8
FIX
  6
CONTINUOUS
 62
    11
 39
50.0
 10
0.0
 20
-168.5
 30
0.0
 40
5.0
 50
180.0
 51
0.0
  0
ARC
  5
1B6
  8
FIX
  6
CONTINUOUS
 62
    11
 39
50.0
 10
0.0
 20
-163.4999999999998
 30
0.0
 40
5.0
 50
0.0
 51
180.0
  0
LINE
  5
1B7
  8
NOTE
  6
CONTINUOUS
 62
     4
 10
0.0
 20
-183.4999999999998
 30
0.0
 11
0.0
 21
-143.5
 31
0.0
  0
LINE
  5
1B8
  8
NOTE
  6
CONTINUOUS
 62
     4
 10
-20.0
 20
-163.4999999999998
 30
0.0
 11
20.0
 21
-163.4999999999998
 31
0.0
  0
LINE
  5
1B9
  8
FIX
  6
CONTINUOUS
 62
    11
 39
50.0
 10
-5.0
 20
165.0
 30
0.0
 11
-5.0
 21
160.0
 31
0.0
  0
LINE
  5
1BA
  8
FIX
  6
CONTINUOUS
 62
    11
 39
50.0
 10
5.0
 20
165.0
 30
0.0
 11
5.0
 21
160.0
 31
0.0
  0
ARC
  5
1BB
  8
FIX
  6
CONTINUOUS
 62
    11
 39
50.0
 10
0.0
 20
160.0
 30
0.0
 40
5.0
 50
180.0
 51
0.0
  0
ARC
  5
1BC
  8
FIX
  6
CONTINUOUS
 62
    11
 39
50.0
 10
0.0
 20
165.0
 30
0.0
 40
5.0
 50
0.0
 51
180.0
  0
LINE
  5
1BD
  8
NOTE
  6
CONTINUOUS
 62
     4
 10
0.0
 20
142.5
 30
0.0
 11
0.0
 21
182.5
 31
0.0
  0
LINE
  5
1BE
  8
NOTE
  6
CONTINUOUS
 62
     4
 10
-20.0
 20
162.5
 30
0.0
 11
20.0
 21
162.5
 31
0.0
  0
ARC
  5
1BF
  8
FIX
  6
CONTINUOUS
 62
    11
 39
50.0
 10
-1.414213999999999
 20
158.58578600000001
 30
0.0
 40
2.5
 50
135.0
 51
315.0
  0
ARC
  5
1C0
  8
FIX
  6
CONTINUOUS
 62
    11
 39
50.0
 10
1.414213999999999
 20
161.41421399999999
 30
0.0
 40
2.5
 50
315.0
 51
135.0
  0
LINE
  5
1C1
  8
FIX
  6
CONTINUOUS
 62
    11
 39
50.0
 10
-0.353553
 20
163.18198100000001
 30
0.0
 11
-3.1819809999999991
 21
160.35355300000001
 31
0.0
  0
LINE
  5
1C2
  8
FIX
  6
CONTINUOUS
 62
    11
 39
50.0
 10
0.353553
 20
156.81801899999991
 30
0.0
 11
3.1819809999999991
 21
159.64644699999991
 31
0.0
  0
LINE
  5
1C3
  8
FIX
  6
CONTINUOUS
 62
    11
 39
50.0
 10
-2.7397529999999981
 20
-163.30868599999991
 30
0.0
 11
0.088674
 21
-166.137113
 31
0.0
  0
LINE
  5
1C4
  8
FIX
  6
CONTINUOUS
 62
    11
 39
50.0
 10
3.624207999999999
 20
-162.6015789999999
 30
0.0
 11
0.7957810000000001
 21
-159.77315200000001
 31
0.0
  0
ARC
  5
1C5
  8
FIX
  6
CONTINUOUS
 62
    11
 39
50.0
 10
1.856441
 20
-164.36934600000001
 30
0.0
 40
2.5
 50
225.0
 51
45.0
  0
ARC
  5
1C6
  8
FIX
  6
CONTINUOUS
 62
    11
 39
50.0
 10
-0.971986
 20
-161.540919
 30
0.0
 40
2.5
 50
45.0
 51
225.0
  0
LINE
  5
1C7
  8
NOTE
  6
CONTINUOUS
 62
     4
 10
0.0
 20
140.0
 30
0.0
 11
0.0
 21
180.0
 31
0.0
  0
LINE
  5
1C8
  8
NOTE
  6
CONTINUOUS
 62
     4
 10
-20.0
 20
160.0
 30
0.0
 11
20.0
 21
160.0
 31
0.0
  0
LINE
  5
1C9
  8
NOTE
  6
CONTINUOUS
 62
     4
 10
0.0
 20
140.0
 30
0.0
 11
0.0
 21
180.0
 31
0.0
  0
LINE
  5
1CA
  8
NOTE
  6
CONTINUOUS
 62
     4
 10
-20.0
 20
160.0
 30
0.0
 11
20.0
 21
160.0
 31
0.0
  0
LINE
  5
1CB
  8
NOTE
  6
CONTINUOUS
 62
     4
 10
0.0
 20
-180.0
 30
0.0
 11
0.0
 21
-140.0
 31
0.0
  0
LINE
  5
1CC
  8
NOTE
  6
CONTINUOUS
 62
     4
 10
-20.0
 20
-160.0
 30
0.0
 11
20.0
 21
-160.0
 31
0.0
  0
LINE
  5
1CD
  8
DETAIL
  6
CONTINUOUS
 62
     5
 39
50.0
 10
0.0
 20
150.0
 30
0.0
 11
-152.0
 21
150.0
 31
0.0
  0
LINE
  5
1CE
  8
OUTLINE
  6
CONTINUOUS
 62
     3
 39
50.0
 10
0.0
 20
150.0
 30
0.0
 11
-152.0
 21
150.0
 31
0.0
  0
LINE
  5
1CF
  8
SIZE
  6
CONTINUOUS
 62
    30
 10
0.0
 20
191.5
 30
0.0
 11
0.0
 21
231.51539399999999
 31
0.0
  0
LINE
  5
1D0
  8
SIZE
  6
CONTINUOUS
 62
    30
 10
-152.0
 20
170.0
 30
0.0
 11
-152.0
 21
231.51539399999999
 31
0.0
  0
LINE
  5
1D1
  8
SIZE
  6
CONTINUOUS
 62
    30
 10
12.0
 20
211.5153939999999
 30
0.0
 11
24.0
 21
211.5153939999999
 31
0.0
  0
LINE
  5
1D2
  8
SIZE
  6
CONTINUOUS
 62
    30
 10
-164.0
 20
211.5153939999999
 30
0.0
 11
-176.0
 21
211.5153939999999
 31
0.0
  0
LINE
  5
1D3
  8
SIZE
  6
CONTINUOUS
 62
    30
 10
0.0
 20
211.5153939999999
 30
0.0
 11
-152.0
 21
211.5153939999999
 31
0.0
  0
CIRCLE
  5
1D4
  8
SIZE
  6
CONTINUOUS
 62
    30
 10
0.0
 20
211.5153939999999
 30
0.0
 40
6.0
  0
LINE
  5
1D5
  8
SIZE
  6
CONTINUOUS
 62
    30
 10
0.0
 20
211.5153939999999
 30
0.0
 11
12.0
 21
211.5153939999999
 31
0.0
  0
CIRCLE
  5
1D6
  8
SIZE
  6
CONTINUOUS
 62
    30
 10
-152.0
 20
211.5153939999999
 30
0.0
 40
6.0
  0
LINE
  5
1D7
  8
SIZE
  6
CONTINUOUS
 62
    30
 10
-152.0
 20
211.5153939999999
 30
0.0
 11
-164.0
 21
211.5153939999999
 31
0.0
  0
TEXT
  5
1D8
  8
SIZE
  6
CONTINUOUS
 62
    30
 10
-144.5714285714285
 20
236.5153939999999
 30
0.0
 40
64.0
  1
152
 41
0.9
 72
     1
 11
-76.0
 21
236.5153939999999
 31
0.0
  0
LINE
  5
1D9
  8
DETAIL
  6
CONTINUOUS
 62
     5
 39
50.0
 10
-210.0
 20
135.0
 30
0.0
 11
-152.0
 21
150.0
 31
0.0
  0
LINE
  5
1DA
  8
DETAIL
  6
CONTINUOUS
 62
     5
 39
50.0
 10
-210.0
 20
135.0
 30
0.0
 11
-210.0
 21
-65.0
 31
0.0
  0
LINE
  5
1DB
  8
DETAIL
  6
CONTINUOUS
 62
     5
 39
50.0
 10
-210.0
 20
-65.0
 30
0.0
 11
-200.0
 21
-65.0
 31
0.0
  0
LINE
  5
1DC
  8
OUTLINE
  6
CONTINUOUS
 62
     3
 39
50.0
 10
-210.0
 20
135.0
 30
0.0
 11
-210.0
 21
-65.0
 31
0.0
  0
LINE
  5
1DD
  8
OUTLINE
  6
CONTINUOUS
 62
     3
 39
50.0
 10
-210.0
 20
135.0
 30
0.0
 11
-152.0
 21
150.0
 31
0.0
  0
LINE
  5
1DE
  8
SIZE
  6
CONTINUOUS
 62
    30
 10
-210.0
 20
155.0
 30
0.0
 11
-210.0
 21
358.67692399999987
 31
0.0
  0
LINE
  5
1DF
  8
SIZE
  6
CONTINUOUS
 62
    30
 10
0.0
 20
191.5
 30
0.0
 11
0.0
 21
358.67692399999987
 31
0.0
  0
LINE
  5
1E0
  8
SIZE
  6
CONTINUOUS
 62
    30
 10
-198.0
 20
338.67692399999999
 30
0.0
 11
-12.0
 21
338.67692399999999
 31
0.0
  0
CIRCLE
  5
1E1
  8
SIZE
  6
CONTINUOUS
 62
    30
 10
-210.0
 20
338.67692399999999
 30
0.0
 40
6.0
  0
LINE
  5
1E2
  8
SIZE
  6
CONTINUOUS
 62
    30
 10
-210.0
 20
338.67692399999999
 30
0.0
 11
-198.0
 21
338.67692399999999
 31
0.0
  0
CIRCLE
  5
1E3
  8
SIZE
  6
CONTINUOUS
 62
    30
 10
0.0
 20
338.67692399999999
 30
0.0
 40
6.0
  0
LINE
  5
1E4
  8
SIZE
  6
CONTINUOUS
 62
    30
 10
0.0
 20
338.67692399999999
 30
0.0
 11
-12.0
 21
338.67692399999999
 31
0.0
  0
TEXT
  5
1E5
  8
SIZE
  6
CONTINUOUS
 62
    30
 10
-173.5714285714285
 20
363.67692399999999
 30
0.0
 40
64.0
  1
210
 41
0.9
 72
     1
 11
-105.0
 21
363.67692399999999
 31
0.0
  0
LINE
  5
1E6
  8
SIZE
  6
CONTINUOUS
 62
    30
 10
-20.0
 20
171.5
 30
0.0
 11
-492.41884399999992
 21
171.5
 31
0.0
  0
LINE
  5
1E7
  8
SIZE
  6
CONTINUOUS
 62
    30
 10
-172.0
 20
150.0
 30
0.0
 11
-492.41884399999992
 21
150.0
 31
0.0
  0
LINE
  5
1E8
  8
SIZE
  6
CONTINUOUS
 62
    30
 10
-472.41884399999992
 20
138.0
 30
0.0
 11
-472.41884399999992
 21
126.0
 31
0.0
  0
LINE
  5
1E9
  8
SIZE
  6
CONTINUOUS
 62
    30
 10
-472.41884399999992
 20
183.4999999999998
 30
0.0
 11
-472.41884399999992
 21
410.07142899999991
 31
0.0
  0
LINE
  5
1EA
  8
SIZE
  6
CONTINUOUS
 62
    30
 10
-472.41884399999992
 20
150.0
 30
0.0
 11
-472.41884399999992
 21
171.5
 31
0.0
  0
CIRCLE
  5
1EB
  8
SIZE
  6
CONTINUOUS
 62
    30
 10
-472.41884399999992
 20
150.0
 30
0.0
 40
6.0
  0
LINE
  5
1EC
  8
SIZE
  6
CONTINUOUS
 62
    30
 10
-472.41884399999992
 20
150.0
 30
0.0
 11
-472.41884399999992
 21
138.0
 31
0.0
  0
CIRCLE
  5
1ED
  8
SIZE
  6
CONTINUOUS
 62
    30
 10
-472.41884399999992
 20
171.5
 30
0.0
 40
6.0
  0
LINE
  5
1EE
  8
SIZE
  6
CONTINUOUS
 62
    30
 10
-472.41884399999992
 20
171.5
 30
0.0
 11
-472.41884399999992
 21
183.4999999999998
 31
0.0
  0
TEXT
  5
1EF
  8
SIZE
  6
CONTINUOUS
 62
    30
 10
-497.41884399999992
 20
220.49999971428571
 30
0.0
 40
64.0
  1
21.5
 50
90.0
 41
0.9
 72
     1
 11
-497.41884399999992
 21
302.78571399999998
 31
0.0
  0
LINE
  5
1F0
  8
SIZE
  6
CONTINUOUS
 62
    30
 10
-172.0
 20
150.0
 30
0.0
 11
-344.58376600000003
 21
150.0
 31
0.0
  0
LINE
  5
1F1
  8
SIZE
  6
CONTINUOUS
 62
    30
 10
-230.0
 20
135.0
 30
0.0
 11
-344.58376600000003
 21
135.0
 31
0.0
  0
LINE
  5
1F2
  8
SIZE
  6
CONTINUOUS
 62
    30
 10
-324.58376600000003
 20
123.0
 30
0.0
 11
-324.58376600000003
 21
111.0
 31
0.0
  0
LINE
  5
1F3
  8
SIZE
  6
CONTINUOUS
 62
    30
 10
-324.58376600000003
 20
162.0
 30
0.0
 11
-324.58376600000003
 21
306.28571399999993
 31
0.0
  0
LINE
  5
1F4
  8
SIZE
  6
CONTINUOUS
 62
    30
 10
-324.58376600000003
 20
135.0
 30
0.0
 11
-324.58376600000003
 21
150.0
 31
0.0
  0
CIRCLE
  5
1F5
  8
SIZE
  6
CONTINUOUS
 62
    30
 10
-324.58376600000003
 20
135.0
 30
0.0
 40
6.0
  0
LINE
  5
1F6
  8
SIZE
  6
CONTINUOUS
 62
    30
 10
-324.58376600000003
 20
135.0
 30
0.0
 11
-324.58376600000003
 21
123.0
 31
0.0
  0
CIRCLE
  5
1F7
  8
SIZE
  6
CONTINUOUS
 62
    30
 10
-324.58376600000003
 20
150.0
 30
0.0
 40
6.0
  0
LINE
  5
1F8
  8
SIZE
  6
CONTINUOUS
 62
    30
 10
-324.58376600000003
 20
150.0
 30
0.0
 11
-324.58376600000003
 21
162.0
 31
0.0
  0
TEXT
  5
1F9
  8
SIZE
  6
CONTINUOUS
 62
    30
 10
-349.58376600000003
 20
198.9999998571428
 30
0.0
 40
64.0
  1
15
 50
90.0
 41
0.9
 72
     1
 11
-349.58376600000003
 21
240.14285699999991
 31
0.0
  0
LINE
  5
1FA
  8
SIZE
  6
CONTINUOUS
 62
    30
 10
-230.0
 20
135.0
 30
0.0
 11
-344.58376600000003
 21
135.0
 31
0.0
  0
LINE
  5
1FB
  8
SIZE
  6
CONTINUOUS
 62
    30
 10
-230.0
 20
-65.0
 30
0.0
 11
-344.58376600000003
 21
-65.0
 31
0.0
  0
LINE
  5
1FC
  8
SIZE
  6
CONTINUOUS
 62
    30
 10
-324.58376600000003
 20
123.0
 30
0.0
 11
-324.58376600000003
 21
-53.0
 31
0.0
  0
CIRCLE
  5
1FD
  8
SIZE
  6
CONTINUOUS
 62
    30
 10
-324.58376600000003
 20
135.0
 30
0.0
 40
6.0
  0
LINE
  5
1FE
  8
SIZE
  6
CONTINUOUS
 62
    30
 10
-324.58376600000003
 20
135.0
 30
0.0
 11
-324.58376600000003
 21
123.0
 31
0.0
  0
CIRCLE
  5
1FF
  8
SIZE
  6
CONTINUOUS
 62
    30
 10
-324.58376600000003
 20
-65.0
 30
0.0
 40
6.0
  0
LINE
  5
200
  8
SIZE
  6
CONTINUOUS
 62
    30
 10
-324.58376600000003
 20
-65.0
 30
0.0
 11
-324.58376600000003
 21
-53.0
 31
0.0
  0
TEXT
  5
201
  8
SIZE
  6
CONTINUOUS
 62
    30
 10
-349.58376600000003
 20
-39.05714285714285
 30
0.0
 40
64.0
  1
200
 50
90.0
 41
0.9
 72
     1
 11
-349.58376600000003
 21
35.0
 31
0.0
  0
LINE
  5
202
  8
SIZE
  6
CONTINUOUS
 62
    30
 10
-173.1486975485121
 20
150.0
 30
0.0
 11
-492.41884399999992
 21
150.0
 31
0.0
  0
LINE
  5
203
  8
SIZE
  6
CONTINUOUS
 62
    30
 10
-205.56202015049709
 20
-150.0
 30
0.0
 11
-492.41884399999992
 21
-150.0
 31
0.0
  0
LINE
  5
204
  8
SIZE
  6
CONTINUOUS
 62
    30
 10
-472.41884399999992
 20
138.0
 30
0.0
 11
-472.41884399999992
 21
-138.0
 31
0.0
  0
CIRCLE
  5
205
  8
SIZE
  6
CONTINUOUS
 62
    30
 10
-472.41884399999992
 20
150.0
 30
0.0
 40
6.0
  0
LINE
  5
206
  8
SIZE
  6
CONTINUOUS
 62
    30
 10
-472.41884399999992
 20
150.0
 30
0.0
 11
-472.41884399999992
 21
138.0
 31
0.0
  0
CIRCLE
  5
207
  8
SIZE
  6
CONTINUOUS
 62
    30
 10
-472.41884399999992
 20
-150.0
 30
0.0
 40
6.0
  0
LINE
  5
208
  8
SIZE
  6
CONTINUOUS
 62
    30
 10
-472.41884399999992
 20
-150.0
 30
0.0
 11
-472.41884399999992
 21
-138.0
 31
0.0
  0
TEXT
  5
209
  8
SIZE
  6
CONTINUOUS
 62
    30
 10
-497.41884399999992
 20
-74.05714285714285
 30
0.0
 40
64.0
  1
300
 50
90.0
 41
0.9
 72
     1
 11
-497.41884399999992
 21
0.0
 31
0.0
  0
LINE
  5
20A
  8
SIZE
  6
CONTINUOUS
 62
    30
 10
-20.0
 20
171.5
 30
0.0
 11
-631.27110099999982
 21
171.5
 31
0.0
  0
LINE
  5
20B
  8
SIZE
  6
CONTINUOUS
 62
    30
 10
-30.0
 20
-178.5
 30
0.0
 11
-631.27110099999982
 21
-178.5
 31
0.0
  0
LINE
  5
20C
  8
SIZE
  6
CONTINUOUS
 62
    30
 10
-611.27110099999982
 20
159.4999999999998
 30
0.0
 11
-611.27110099999982
 21
-166.5
 31
0.0
  0
CIRCLE
  5
20D
  8
SIZE
  6
CONTINUOUS
 62
    30
 10
-611.27110099999982
 20
171.5
 30
0.0
 40
6.0
  0
LINE
  5
20E
  8
SIZE
  6
CONTINUOUS
 62
    30
 10
-611.27110099999982
 20
171.5
 30
0.0
 11
-611.27110099999982
 21
159.4999999999998
 31
0.0
  0
CIRCLE
  5
20F
  8
SIZE
  6
CONTINUOUS
 62
    30
 10
-611.27110099999982
 20
-178.5
 30
0.0
 40
6.0
  0
LINE
  5
210
  8
SIZE
  6
CONTINUOUS
 62
    30
 10
-611.27110099999982
 20
-178.5
 30
0.0
 11
-611.27110099999982
 21
-166.5
 31
0.0
  0
TEXT
  5
211
  8
SIZE
  6
CONTINUOUS
 62
    30
 10
-636.27110099999982
 20
-77.55714285714285
 30
0.0
 40
64.0
  1
350
 50
90.0
 41
0.9
 72
     1
 11
-636.27110099999982
 21
-3.5
 31
0.0
  0
LINE
  5
212
  8
SIZE
  6
CONTINUOUS
 62
    30
 10
20.0
 20
160.0
 30
0.0
 11
270.5804109999998
 21
160.0
 31
0.0
  0
LINE
  5
213
  8
SIZE
  6
CONTINUOUS
 62
    30
 10
20.0
 20
-139.5
 30
0.0
 11
270.5804109999998
 21
-139.5
 31
0.0
  0
LINE
  5
214
  8
SIZE
  6
CONTINUOUS
 62
    30
 10
250.580411
 20
148.0
 30
0.0
 11
250.580411
 21
-127.5
 31
0.0
  0
CIRCLE
  5
215
  8
SIZE
  6
CONTINUOUS
 62
    30
 10
250.580411
 20
160.0
 30
0.0
 40
6.0
  0
LINE
  5
216
  8
SIZE
  6
CONTINUOUS
 62
    30
 10
250.580411
 20
160.0
 30
0.0
 11
250.580411
 21
148.0
 31
0.0
  0
CIRCLE
  5
217
  8
SIZE
  6
CONTINUOUS
 62
    30
 10
250.580411
 20
-139.5
 30
0.0
 40
6.0
  0
LINE
  5
218
  8
SIZE
  6
CONTINUOUS
 62
    30
 10
250.580411
 20
-139.5
 30
0.0
 11
250.580411
 21
-127.5
 31
0.0
  0
TEXT
  5
219
  8
SIZE
  6
CONTINUOUS
 62
    30
 10
225.580411
 20
-104.9499999999999
 30
0.0
 40
64.0
  1
299.5
 50
90.0
 41
0.9
 72
     1
 11
225.580411
 21
10.25
 31
0.0
  0
LINE
  5
21A
  8
SIZE
  6
CONTINUOUS
 62
    30
 10
20.0
 20
160.0
 30
0.0
 11
415.12119999999999
 21
160.0
 31
0.0
  0
LINE
  5
21B
  8
SIZE
  6
CONTINUOUS
 62
    30
 10
20.0
 20
-160.0
 30
0.0
 11
415.12119999999999
 21
-160.0
 31
0.0
  0
LINE
  5
21C
  8
SIZE
  6
CONTINUOUS
 62
    30
 10
395.12119999999987
 20
148.0
 30
0.0
 11
395.12119999999987
 21
-148.0
 31
0.0
  0
CIRCLE
  5
21D
  8
SIZE
  6
CONTINUOUS
 62
    30
 10
395.12119999999987
 20
160.0
 30
0.0
 40
6.0
  0
LINE
  5
21E
  8
SIZE
  6
CONTINUOUS
 62
    30
 10
395.12119999999987
 20
160.0
 30
0.0
 11
395.12119999999987
 21
148.0
 31
0.0
  0
CIRCLE
  5
21F
  8
SIZE
  6
CONTINUOUS
 62
    30
 10
395.12119999999987
 20
-160.0
 30
0.0
 40
6.0
  0
LINE
  5
220
  8
SIZE
  6
CONTINUOUS
 62
    30
 10
395.12119999999987
 20
-160.0
 30
0.0
 11
395.12119999999987
 21
-148.0
 31
0.0
  0
TEXT
  5
221
  8
SIZE
  6
CONTINUOUS
 62
    30
 10
370.12119999999987
 20
-74.05714285714285
 30
0.0
 40
64.0
  1
320
 50
90.0
 41
0.9
 72
     1
 11
370.12119999999987
 21
0.0
 31
0.0
  0
LINE
  5
222
  8
SIZE
  6
CONTINUOUS
 62
    30
 10
20.0
 20
-163.4999999999998
 30
0.0
 11
542.97081099999991
 21
-163.4999999999998
 31
0.0
  0
LINE
  5
223
  8
SIZE
  6
CONTINUOUS
 62
    30
 10
20.0
 20
162.5
 30
0.0
 11
542.97081099999991
 21
162.5
 31
0.0
  0
LINE
  5
224
  8
SIZE
  6
CONTINUOUS
 62
    30
 10
522.97081100000003
 20
-151.5
 30
0.0
 11
522.97081100000003
 21
150.5
 31
0.0
  0
CIRCLE
  5
225
  8
SIZE
  6
CONTINUOUS
 62
    30
 10
522.97081100000003
 20
-163.4999999999998
 30
0.0
 40
6.0
  0
LINE
  5
226
  8
SIZE
  6
CONTINUOUS
 62
    30
 10
522.97081100000003
 20
-163.4999999999998
 30
0.0
 11
522.97081100000003
 21
-151.5
 31
0.0
  0
CIRCLE
  5
227
  8
SIZE
  6
CONTINUOUS
 62
    30
 10
522.97081100000003
 20
162.5
 30
0.0
 40
6.0
  0
LINE
  5
228
  8
SIZE
  6
CONTINUOUS
 62
    30
 10
522.97081100000003
 20
162.5
 30
0.0
 11
522.97081100000003
 21
150.5
 31
0.0
  0
TEXT
  5
229
  8
SIZE
  6
CONTINUOUS
 62
    30
 10
497.97081100000003
 20
-73.185714285714283
 30
0.0
 40
64.0
  1
326
 50
90.0
 41
0.9
 72
     1
 11
497.97081100000003
 21
-0.5
 31
0.0
  0
LINE
  5
22A
  8
SIZE
  6
CONTINUOUS
 62
    30
 10
20.0
 20
171.5
 30
0.0
 11
270.5804109999998
 21
171.5
 31
0.0
  0
LINE
  5
22B
  8
SIZE
  6
CONTINUOUS
 62
    30
 10
20.0
 20
160.0
 30
0.0
 11
270.5804109999998
 21
160.0
 31
0.0
  0
LINE
  5
22C
  8
SIZE
  6
CONTINUOUS
 62
    30
 10
250.580411
 20
148.0
 30
0.0
 11
250.580411
 21
136.0
 31
0.0
  0
LINE
  5
22D
  8
SIZE
  6
CONTINUOUS
 62
    30
 10
250.580411
 20
183.4999999999998
 30
0.0
 11
250.580411
 21
399.10000000000002
 31
0.0
  0
LINE
  5
22E
  8
SIZE
  6
CONTINUOUS
 62
    30
 10
250.580411
 20
160.0
 30
0.0
 11
250.580411
 21
171.5
 31
0.0
  0
CIRCLE
  5
22F
  8
SIZE
  6
CONTINUOUS
 62
    30
 10
250.580411
 20
160.0
 30
0.0
 40
6.0
  0
LINE
  5
230
  8
SIZE
  6
CONTINUOUS
 62
    30
 10
250.580411
 20
160.0
 30
0.0
 11
250.580411
 21
148.0
 31
0.0
  0
CIRCLE
  5
231
  8
SIZE
  6
CONTINUOUS
 62
    30
 10
250.580411
 20
171.5
 30
0.0
 40
6.0
  0
LINE
  5
232
  8
SIZE
  6
CONTINUOUS
 62
    30
 10
250.580411
 20
171.5
 30
0.0
 11
250.580411
 21
183.4999999999998
 31
0.0
  0
TEXT
  5
233
  8
SIZE
  6
CONTINUOUS
 62
    30
 10
225.580411
 20
220.5
 30
0.0
 40
64.0
  1
11.5
 50
90.0
 41
0.9
 72
     1
 11
225.580411
 21
297.30000000000001
 31
0.0
  0
TEXT
  5
234
  8
NOTE
  6
CONTINUOUS
 62
     4
 10
-970.8978229999999
 20
-461.24551600000001
 30
0.0
 40
64.0
  1
4ヶ所×5×9長穴(取付用)
 41
0.9
  0
TEXT
  5
235
  8
NOTE
  6
CONTINUOUS
 62
     4
 10
-780.72870699999999
 20
-272.67303900000002
 30
0.0
 40
64.0
  1
6ヶ所×10×15長穴
 41
0.9
  0
LINE
  5
236
  8
NOTE
  6
CONTINUOUS
 62
     4
 10
-17.499389000000001
 20
-175.46903399999991
 30
0.0
 11
0.0
 21
-139.5
 31
0.0
  0
LINE
  5
237
  8
NOTE
  6
CONTINUOUS
 62
     4
 10
0.0
 20
-139.5
 30
0.0
 11
-33.139432999999997
 21
-161.90040200000001
 31
0.0
  0
LINE
  5
238
  8
NOTE
  6
CONTINUOUS
 62
     4
 10
0.6214180000000003
 20
-203.818364
 30
0.0
 11
4.6246159999999987
 21
-164.0191879999999
 31
0.0
  0
LINE
  5
239
  8
NOTE
  6
CONTINUOUS
 62
     4
 10
4.6246159999999987
 20
-164.0191879999999
 30
0.0
 11
-18.741844
 21
-196.48468600000001
 31
0.0
  0
LINE
  5
23A
  8
NOTE
  6
CONTINUOUS
 62
     4
 39
50.0
 10
-788.82617199999981
 20
-294.14133399999997
 30
0.0
 11
-118.0092429999999
 21
-294.14133399999997
 31
0.0
  0
LINE
  5
23B
  8
NOTE
  6
CONTINUOUS
 62
     4
 39
50.0
 10
-980.724198
 20
-493.49383599999999
 30
0.0
 11
-114.540485
 21
-493.49383599999999
 31
0.0
  0
LINE
  5
23C
  8
NOTE
  6
CONTINUOUS
 62
     4
 39
50.0
 10
0.0
 20
-139.5
 30
0.0
 11
-118.0092429999999
 21
-294.14133399999997
 31
0.0
  0
LINE
  5
23D
  8
NOTE
  6
CONTINUOUS
 62
     4
 39
50.0
 10
4.3182900000000002
 20
-163.93426099999991
 30
0.0
 11
-114.540485
 21
-493.49383599999999
 31
0.0
  0
LINE
  5
23E
  8
SERVICESPACE
  6
DASHED
 62
     2
 39
50.0
 10
100.0
 20
-212.38956899999991
 30
0.0
 11
100.0
 21
307.83601399999998
 31
0.0
  0
LINE
  5
23F
  8
DETAIL
  6
CONTINUOUS
 62
     5
 39
50.0
 10
-210.0
 20
-65.0
 30
0.0
 11
-210.0
 21
-130.0
 31
0.0
  0
LINE
  5
240
  8
DETAIL
  6
CONTINUOUS
 62
     5
 39
50.0
 10
-190.0
 20
-150.0
 30
0.0
 11
0.0
 21
-150.0
 31
0.0
  0
LINE
  5
241
  8
OUTLINE
  6
CONTINUOUS
 62
     3
 39
50.0
 10
-210.0
 20
-65.0
 30
0.0
 11
-210.0
 21
-130.0
 31
0.0
  0
LINE
  5
242
  8
OUTLINE
  6
CONTINUOUS
 62
     3
 39
50.0
 10
-190.0
 20
-150.0
 30
0.0
 11
0.0
 21
-150.0
 31
0.0
  0
ARC
  5
243
  8
DETAIL
  6
CONTINUOUS
 62
     5
 39
50.0
 10
-190.0
 20
-130.0
 30
0.0
 40
20.0
 50
180.0
 51
270.0
  0
ARC
  5
244
  8
OUTLINE
  6
CONTINUOUS
 62
     3
 39
50.0
 10
-190.0
 20
-130.0
 30
0.0
 40
20.0
 50
180.0
 51
270.0
  0
LINE
  5
245
  8
SIZE
  6
CONTINUOUS
 62
    30
 10
100.0
 20
327.83601399999992
 30
0.0
 11
100.0
 21
480.2997679999998
 31
0.0
  0
LINE
  5
246
  8
SIZE
  6
CONTINUOUS
 62
    30
 10
0.0
 20
231.51539399999999
 30
0.0
 11
0.0
 21
480.2997679999998
 31
0.0
  0
LINE
  5
247
  8
SIZE
  6
CONTINUOUS
 62
    30
 10
12.0
 20
460.29976799999991
 30
0.0
 11
88.0
 21
460.29976799999991
 31
0.0
  0
LINE
  5
248
  8
SIZE
  6
CONTINUOUS
 62
    30
 10
100.0
 20
460.29976799999991
 30
0.0
 11
592.08000000000004
 21
460.29976799999991
 31
0.0
  0
CIRCLE
  5
249
  8
SIZE
  6
CONTINUOUS
 62
    30
 10
0.0
 20
460.29976799999991
 30
0.0
 40
6.0
  0
LINE
  5
24A
  8
SIZE
  6
CONTINUOUS
 62
    30
 10
0.0
 20
460.29976799999991
 30
0.0
 11
12.0
 21
460.29976799999991
 31
0.0
  0
CIRCLE
  5
24B
  8
SIZE
  6
CONTINUOUS
 62
    30
 10
100.0
 20
460.29976799999991
 30
0.0
 40
6.0
  0
LINE
  5
24C
  8
SIZE
  6
CONTINUOUS
 62
    30
 10
100.0
 20
460.29976799999991
 30
0.0
 11
88.0
 21
460.29976799999991
 31
0.0
  0
TEXT
  5
24D
  8
SIZE
  6
CONTINUOUS
 62
    30
 10
144.68000000000001
 20
485.29976799999991
 30
0.0
 40
64.0
  1
壁厚100以上
 41
0.9
 72
     1
 11
352.04000000000002
 21
485.29976799999991
 31
0.0
  0
TEXT
  5
24E
  8
ETC
  6
CONTINUOUS
 62
    61
 10
656.28465529281561
 20
33.668866734313717
 30
0.0
 40
40.0
  1
P-200KCVS2
 41
0.9
  0
TEXT
  5
24F
  8
ETC
  6
CONTINUOUS
 62
    61
 10
654.71256130076358
 20
94.941338428259769
 30
0.0
 40
40.0
  1
P-200KCV2
 41
0.9
  0
TEXT
  5
250
  8
ETC
  6
CONTINUOUS
 62
    61
 10
653.14047115203982
 20
157.78489754709059
 30
0.0
 40
40.0
  1
P-200KCVSQ2
 41
0.9
  0
TEXT
  5
251
  8
ETC
  6
CONTINUOUS
 62
    61
 10
648.42419301921177
 20
222.1995486925415
 30
0.0
 40
40.0
  1
P-200KCVQ2
 41
0.9
  0
TEXT
  5
252
  8
ETC
  6
CONTINUOUS
 62
    61
 10
531.44990082089953
 20
282.80467322281942
 30
0.0
 40
40.0
  1
システム部材
 41
0.9
  0
TEXT
  5
253
  8
ETC
  6
CONTINUOUS
 62
    61
 10
535.86276282089955
 20
356.60589796365861
 30
0.0
 40
40.0
  1
P-200KCVQ2_4
 41
0.9
  0
ENDSEC
  0
EOF
