  0
SECTION
  2
HEADER
  9
$ACADVER
  1
AC1009
  9
$DWGCODEPAGE
  3
ansi_932
  9
$INSBASE
 10
0.0
 20
0.0
 30
0.0
  9
$EXTMIN
 10
-387.4816429983148
 20
-537.693791
 30
0.0
  9
$EXTMAX
 10
1048.003171523446
 20
498.7130807847084
 30
50.0
  9
$LIMMIN
 10
-2970.0
 20
-2100.0
  9
$LIMMAX
 10
2970.0
 20
2100.0
  9
$ORTHOMODE
 70
     1
  9
$REGENMODE
 70
     0
  9
$FILLMODE
 70
     1
  9
$QTEXTMODE
 70
     0
  9
$MIRRTEXT
 70
     0
  9
$DRAGMODE
 70
     2
  9
$LTSCALE
 40
20.0
  9
$OSMODE
 70
    37
  9
$ATTMODE
 70
     1
  9
$TEXTSIZE
 40
64.0
  9
$TRACEWID
 40
0.05
  9
$TEXTSTYLE
  7
STANDARD
  9
$CLAYER
  8
OUTLINE
  9
$CELTYPE
  6
CONTINUOUS
  9
$CECOLOR
 62
     3
  9
$DIMSCALE
 40
1.0
  9
$DIMASZ
 40
12.0
  9
$DIMEXO
 40
20.0
  9
$DIMDLI
 40
200.0
  9
$DIMRND
 40
0.0
  9
$DIMDLE
 40
0.0
  9
$DIMEXE
 40
20.0
  9
$DIMTP
 40
0.0
  9
$DIMTM
 40
0.0
  9
$DIMTXT
 40
64.0
  9
$DIMCEN
 40
0.09
  9
$DIMTSZ
 40
0.0
  9
$DIMTOL
 70
     0
  9
$DIMLIM
 70
     0
  9
$DIMTIH
 70
     0
  9
$DIMTOH
 70
     0
  9
$DIMSE1
 70
     0
  9
$DIMSE2
 70
     0
  9
$DIMTAD
 70
     1
  9
$DIMZIN
 70
     8
  9
$DIMBLK
  1
DOT1
  9
$DIMASO
 70
     1
  9
$DIMSHO
 70
     0
  9
$DIMPOST
  1

  9
$DIMAPOST
  1

  9
$DIMALT
 70
     0
  9
$DIMALTD
 70
     2
  9
$DIMALTF
 40
25.4
  9
$DIMLFAC
 40
1.0
  9
$DIMTOFL
 70
     1
  9
$DIMTVP
 40
0.0
  9
$DIMTIX
 70
     1
  9
$DIMSOXD
 70
     0
  9
$DIMSAH
 70
     1
  9
$DIMBLK1
  1
ORIGIN
  9
$DIMBLK2
  1
ORIGIN
  9
$DIMSTYLE
  2
STANDARD
  9
$DIMCLRD
 70
     7
  9
$DIMCLRE
 70
     7
  9
$DIMCLRT
 70
     7
  9
$DIMTFAC
 40
1.0
  9
$DIMGAP
 40
25.0
  9
$LUNITS
 70
     2
  9
$LUPREC
 70
     4
  9
$SKETCHINC
 40
0.1
  9
$FILLETRAD
 40
3.0
  9
$AUNITS
 70
     1
  9
$AUPREC
 70
     3
  9
$MENU
  1
ACAD
  9
$ELEVATION
 40
0.0
  9
$PELEVATION
 40
0.0
  9
$THICKNESS
 40
50.0
  9
$LIMCHECK
 70
     0
  9
$CHAMFERA
 40
0.0
  9
$CHAMFERB
 40
0.0
  9
$SKPOLY
 70
     0
  9
$TDCREATE
 40
2453073.548568102
  9
$TDUPDATE
 40
2457485.571451898
  9
$TDINDWG
 40
0.1863994444
  9
$TDUSRTIMER
 40
0.186398912
  9
$USRTIMER
 70
     1
  9
$ANGBASE
 50
0.0
  9
$ANGDIR
 70
     0
  9
$PDMODE
 70
     3
  9
$PDSIZE
 40
-2.0
  9
$PLINEWID
 40
0.0
  9
$COORDS
 70
     1
  9
$SPLFRAME
 70
     0
  9
$SPLINETYPE
 70
     6
  9
$SPLINESEGS
 70
     8
  9
$ATTDIA
 70
     0
  9
$ATTREQ
 70
     1
  9
$HANDLING
 70
     1
  9
$HANDSEED
  5
41D
  9
$SURFTAB1
 70
     6
  9
$SURFTAB2
 70
     6
  9
$SURFTYPE
 70
     6
  9
$SURFU
 70
     6
  9
$SURFV
 70
     6
  9
$UCSNAME
  2

  9
$UCSORG
 10
0.0
 20
0.0
 30
0.0
  9
$UCSXDIR
 10
1.0
 20
0.0
 30
0.0
  9
$UCSYDIR
 10
0.0
 20
1.0
 30
0.0
  9
$PUCSNAME
  2

  9
$PUCSORG
 10
0.0
 20
0.0
 30
0.0
  9
$PUCSXDIR
 10
1.0
 20
0.0
 30
0.0
  9
$PUCSYDIR
 10
0.0
 20
1.0
 30
0.0
  9
$USERI1
 70
     0
  9
$USERI2
 70
     0
  9
$USERI3
 70
     0
  9
$USERI4
 70
     0
  9
$USERI5
 70
     0
  9
$USERR1
 40
20.0
  9
$USERR2
 40
0.0
  9
$USERR3
 40
0.0
  9
$USERR4
 40
0.0
  9
$USERR5
 40
0.0
  9
$WORLDVIEW
 70
     1
  9
$SHADEDGE
 70
     3
  9
$SHADEDIF
 70
    70
  9
$TILEMODE
 70
     1
  9
$MAXACTVP
 70
    48
  9
$PLIMCHECK
 70
     0
  9
$PEXTMIN
 10
-1.000000000000000E+20
 20
-1.000000000000000E+20
 30
-1.000000000000000E+20
  9
$PEXTMAX
 10
1.000000000000000E+20
 20
1.000000000000000E+20
 30
1.000000000000000E+20
  9
$PLIMMIN
 10
0.0
 20
0.0
  9
$PLIMMAX
 10
12.0
 20
9.0
  9
$UNITMODE
 70
     0
  9
$VISRETAIN
 70
     0
  9
$PLINEGEN
 70
     0
  9
$PSLTSCALE
 70
     0
  0
ENDSEC
  0
SECTION
  2
TABLES
  0
TABLE
  2
VPORT
 70
     1
  0
VPORT
  2
*ACTIVE
 70
     0
 10
0.0
 20
0.0
 11
1.0
 21
1.0
 12
330.2560712860594
 22
-19.48845465963609
 13
0.0
 23
0.0
 14
1.0
 24
1.0
 15
0.0
 25
0.0
 16
0.0
 26
0.0
 36
1.0
 17
0.0
 27
0.0
 37
0.0
 40
1178.906381243321
 41
1.493654822335025
 42
50.0
 43
0.0
 44
0.0
 50
0.0
 51
0.0
 71
     0
 72
  1000
 73
     1
 74
     0
 75
     0
 76
     0
 77
     0
 78
     0
  0
ENDTAB
  0
TABLE
  2
LTYPE
 70
     2
  0
LTYPE
  2
CONTINUOUS
 70
     0
  3
実線
 72
    65
 73
     0
 40
0.0
  0
LTYPE
  2
DASHDOT
 70
     0
  3
____ _ ____ _ ____ _ ____ _ ____ _ ____ _ ____
 72
    65
 73
     4
 40
5.5
 49
4.0
 49
-0.6
 49
0.3
 49
-0.6
  0
ENDTAB
  0
TABLE
  2
LAYER
 70
    12
  0
LAYER
  2
0
 70
     0
 62
     7
  6
CONTINUOUS
  0
LAYER
  2
OUTLINE
 70
     0
 62
     3
  6
CONTINUOUS
  0
LAYER
  2
SIZE
 70
     0
 62
    30
  6
CONTINUOUS
  0
LAYER
  2
BASIS
 70
     0
 62
     6
  6
DASHDOT
  0
LAYER
  2
DETAIL
 70
     0
 62
     5
  6
CONTINUOUS
  0
LAYER
  2
ARRANGE
 70
     0
 62
     1
  6
CONTINUOUS
  0
LAYER
  2
DEFPOINTS
 70
     0
 62
     7
  6
CONTINUOUS
  0
LAYER
  2
ETC
 70
     0
 62
    61
  6
CONTINUOUS
  0
LAYER
  2
FIX
 70
     0
 62
    11
  6
CONTINUOUS
  0
LAYER
  2
NOTE
 70
     0
 62
     4
  6
CONTINUOUS
  0
LAYER
  2
SERVICESPACE
 70
     0
 62
     2
  6
DASHDOT
  0
LAYER
  2
SYMBOLLINE
 70
     0
 62
    15
  6
CONTINUOUS
  0
ENDTAB
  0
TABLE
  2
STYLE
 70
     1
  0
STYLE
  2
STANDARD
 70
     0
 40
64.0
 41
0.9
 50
0.0
 71
     0
 42
64.0
  3
SIMPLEX.shx
  4
BIGFONT.shx
  0
ENDTAB
  0
TABLE
  2
VIEW
 70
     1
  0
VIEW
  2
ALL
 70
     0
 40
4282.619807999997
 10
0.0
 20
41.30990399999999
 41
5940.0
 11
0.0
 21
0.0
 31
1.0
 12
0.0
 22
0.0
 32
0.0
 42
50.0
 43
0.0
 44
0.0
 50
0.0
 71
     0
  0
ENDTAB
  0
TABLE
  2
UCS
 70
     0
  0
ENDTAB
  0
TABLE
  2
APPID
 70
     2
  0
APPID
  2
ACAD
 70
     0
  0
APPID
  2
AUTOCAD_POSTSCRIPT_FIGURE
 70
     0
  0
ENDTAB
  0
TABLE
  2
DIMSTYLE
 70
     1
  0
DIMSTYLE
  2
STANDARD
 70
     0
  3

  4

  5

  6

  7

 40
1.0
 41
0.18
 42
0.0625
 43
0.38
 44
0.18
 45
0.0
 46
0.0
 47
0.0
 48
0.0
140
0.18
141
0.09
142
0.0
143
25.4
144
1.0
145
0.0
146
1.0
147
0.09
 71
     0
 72
     0
 73
     1
 74
     1
 75
     0
 76
     0
 77
     0
 78
     0
170
     0
171
     2
172
     0
173
     0
174
     0
175
     0
176
     7
177
     7
178
     7
  0
ENDTAB
  0
ENDSEC
  0
SECTION
  2
BLOCKS
  0
BLOCK
  8
0
  2
$MODEL_SPACE
 70
     0
 10
0.0
 20
0.0
 30
0.0
  3
$MODEL_SPACE
  1

  0
ENDBLK
  5
294
  8
0
  0
BLOCK
 67
     1
  8
0
  2
$PAPER_SPACE
 70
     0
 10
0.0
 20
0.0
 30
0.0
  3
$PAPER_SPACE
  1

  0
ENDBLK
  5
290
 67
     1
  8
0
  0
BLOCK
  8
0
  2
DOT1
 70
     0
 10
0.0
 20
0.0
 30
0.0
  3
DOT1
  1

  0
CIRCLE
  5
2B0
  8
SIZE
  6
CONTINUOUS
 62
     7
 10
0.0
 20
0.0
 30
0.0
 40
3.0
  0
ENDBLK
  5
2B1
  8
0
  0
BLOCK
  8
0
  2
_ORIGIN
 70
     0
 10
0.0
 20
0.0
 30
0.0
  3
_ORIGIN
  1

  0
CIRCLE
  5
2B4
  8
0
  6
CONTINUOUS
 62
     7
 10
0.0
 20
0.0
 30
0.0
 40
0.5
  0
LINE
  5
2B5
  8
0
  6
CONTINUOUS
 62
     7
 10
0.0
 20
0.0
 30
0.0
 11
-1.0
 21
0.0
 31
0.0
  0
ENDBLK
  5
2B6
  8
0
  0
ENDSEC
  0
SECTION
  2
ENTITIES
  0
LINE
  5
2B7
  8
BASIS
  6
DASHDOT
 62
     6
 39
50.0
 10
0.0
 20
30.30710900000001
 30
0.0
 11
0.0
 21
-240.432497
 31
0.0
  0
LINE
  5
2B8
  8
DETAIL
  6
CONTINUOUS
 62
     5
 10
1.5
 20
0.3694889999999873
 30
0.0
 11
-1.5
 21
0.3694889999999873
 31
0.0
  0
LINE
  5
2B9
  8
DETAIL
  6
CONTINUOUS
 62
     5
 10
-1.0
 20
0.3694889999999873
 30
0.0
 11
-1.0
 21
0.0
 31
0.0
  0
LINE
  5
2BA
  8
DETAIL
  6
CONTINUOUS
 62
     5
 10
-1.5
 20
0.3694889999999873
 30
0.0
 11
-1.5
 21
0.0
 31
0.0
  0
LINE
  5
2BB
  8
DETAIL
  6
CONTINUOUS
 62
     5
 10
1.0
 20
0.3694889999999873
 30
0.0
 11
1.0
 21
0.0
 31
0.0
  0
LINE
  5
2BC
  8
DETAIL
  6
CONTINUOUS
 62
     5
 10
1.5
 20
0.3694889999999873
 30
0.0
 11
1.5
 21
0.0
 31
0.0
  0
LINE
  5
2BD
  8
DETAIL
  6
CONTINUOUS
 62
     5
 10
122.4999999999999
 20
-213.3
 30
0.0
 11
122.4999999999999
 21
-213.8
 31
0.0
  0
LINE
  5
2BE
  8
DETAIL
  6
CONTINUOUS
 62
     5
 10
122.4999999999999
 20
-213.3
 30
0.0
 11
122.4999999999999
 21
-212.8
 31
0.0
  0
LINE
  5
2BF
  8
DETAIL
  6
CONTINUOUS
 62
     5
 10
101.9999999999999
 20
-214.0
 30
0.0
 11
-102.0
 21
-214.0
 31
0.0
  0
LINE
  5
2C0
  8
DETAIL
  6
CONTINUOUS
 62
     5
 10
101.9999999999999
 20
-181.0
 30
0.0
 11
-102.0
 21
-181.0
 31
0.0
  0
LINE
  5
2C1
  8
DETAIL
  6
CONTINUOUS
 62
     5
 10
122.4999999999999
 20
-213.3
 30
0.0
 11
101.9999999999999
 21
-213.3
 31
0.0
  0
LINE
  5
2C2
  8
DETAIL
  6
CONTINUOUS
 62
     5
 10
122.4999999999999
 20
-212.8
 30
0.0
 11
101.9999999999999
 21
-212.8
 31
0.0
  0
LINE
  5
2C3
  8
DETAIL
  6
CONTINUOUS
 62
     5
 10
101.9999999999999
 20
-213.5
 30
0.0
 11
-102.0
 21
-213.5
 31
0.0
  0
LINE
  5
2C4
  8
DETAIL
  6
CONTINUOUS
 62
     5
 10
-122.5
 20
-214.0
 30
0.0
 11
-122.5
 21
-212.8
 31
0.0
  0
LINE
  5
2C5
  8
DETAIL
  6
CONTINUOUS
 62
     5
 10
-122.5
 20
-213.3
 30
0.0
 11
-102.0
 21
-213.3
 31
0.0
  0
LINE
  5
2C6
  8
DETAIL
  6
CONTINUOUS
 62
     5
 10
-122.5
 20
-212.8
 30
0.0
 11
-102.0
 21
-212.8
 31
0.0
  0
LINE
  5
2C7
  8
DETAIL
  6
CONTINUOUS
 62
     5
 10
-102.0
 20
-214.0
 30
0.0
 11
-122.5
 21
-214.0
 31
0.0
  0
LINE
  5
2C8
  8
DETAIL
  6
CONTINUOUS
 62
     5
 10
-122.5
 20
-213.3
 30
0.0
 11
-122.5
 21
-213.8
 31
0.0
  0
LINE
  5
2C9
  8
DETAIL
  6
CONTINUOUS
 62
     5
 10
101.9999999999999
 20
-214.0
 30
0.0
 11
122.4999999999999
 21
-214.0
 31
0.0
  0
LINE
  5
2CA
  8
DETAIL
  6
CONTINUOUS
 62
     5
 10
122.4999999999999
 20
-213.3
 30
0.0
 11
122.4999999999999
 21
-214.0
 31
0.0
  0
LINE
  5
2CB
  8
DETAIL
  6
CONTINUOUS
 62
     5
 10
-87.49999999999999
 20
-6.0
 30
0.0
 11
-87.49999999999999
 21
-7.0
 31
0.0
  0
LINE
  5
2CC
  8
DETAIL
  6
CONTINUOUS
 62
     5
 10
74.9999999999998
 20
-7.0
 30
0.0
 11
-87.49999999999999
 21
-7.0
 31
0.0
  0
LINE
  5
2CD
  8
DETAIL
  6
CONTINUOUS
 62
     5
 10
100.9999999999999
 20
-6.0
 30
0.0
 11
-87.49999999999999
 21
-6.0
 31
0.0
  0
CIRCLE
  5
2CE
  8
FIX
  6
CONTINUOUS
 62
    11
 39
50.0
 10
0.0
 20
-5.0
 30
0.0
 40
7.5
  0
LINE
  5
2CF
  8
NOTE
  6
CONTINUOUS
 62
     4
 10
-20.0
 20
-5.0
 30
0.0
 11
20.00000000000001
 21
-5.0
 31
0.0
  0
LINE
  5
2D0
  8
NOTE
  6
CONTINUOUS
 62
     4
 10
0.0
 20
-25.0
 30
0.0
 11
0.0
 21
15.0
 31
0.0
  0
LINE
  5
2D1
  8
SIZE
  6
CONTINUOUS
 62
    30
 10
74.9999999999998
 20
-255.0
 30
0.0
 11
74.9999999999998
 21
-403.8336519999999
 31
0.0
  0
LINE
  5
2D2
  8
SIZE
  6
CONTINUOUS
 62
    30
 10
-75.0
 20
-255.0
 30
0.0
 11
-75.0
 21
-403.8336519999999
 31
0.0
  0
LINE
  5
2D3
  8
SIZE
  6
CONTINUOUS
 62
    30
 10
62.9999999999998
 20
-383.833652
 30
0.0
 11
-63.00000000000001
 21
-383.833652
 31
0.0
  0
LINE
  5
2D4
  8
SIZE
  6
CONTINUOUS
 62
    30
 10
325.0138979999999
 20
-383.833652
 30
0.0
 11
74.9999999999998
 21
-383.833652
 31
0.0
  0
TEXT
  5
2D5
  8
SIZE
  6
CONTINUOUS
 62
    30
 10
145.04247
 20
-358.8336519999999
 30
0.0
 40
64.0
  1
150
 41
0.9
 72
     1
 11
231.44247
 21
-358.8336519999999
 31
0.0
  0
CIRCLE
  5
2D6
  8
SIZE
  6
CONTINUOUS
 62
    30
 10
74.9999999999998
 20
-383.833652
 30
0.0
 40
6.0
  0
LINE
  5
2D7
  8
SIZE
  6
CONTINUOUS
 62
    30
 10
74.9999999999998
 20
-383.833652
 30
0.0
 11
62.9999999999998
 21
-383.833652
 31
0.0
  0
CIRCLE
  5
2D8
  8
SIZE
  6
CONTINUOUS
 62
    30
 10
-75.0
 20
-383.833652
 30
0.0
 40
6.0
  0
LINE
  5
2D9
  8
SIZE
  6
CONTINUOUS
 62
    30
 10
-75.0
 20
-383.833652
 30
0.0
 11
-63.00000000000001
 21
-383.833652
 31
0.0
  0
LINE
  5
2DA
  8
SIZE
  6
CONTINUOUS
 62
    30
 10
122.4999999999999
 20
-234.8
 30
0.0
 11
122.4999999999999
 21
-537.693791
 31
0.0
  0
LINE
  5
2DB
  8
SIZE
  6
CONTINUOUS
 62
    30
 10
-122.5
 20
-234.8
 30
0.0
 11
-122.5
 21
-537.693791
 31
0.0
  0
LINE
  5
2DC
  8
SIZE
  6
CONTINUOUS
 62
    30
 10
122.4999999999999
 20
-517.693791
 30
0.0
 11
-122.5
 21
-517.693791
 31
0.0
  0
CIRCLE
  5
2DD
  8
SIZE
  6
CONTINUOUS
 62
    30
 10
122.4999999999999
 20
-517.693791
 30
0.0
 40
6.0
  0
CIRCLE
  5
2DE
  8
SIZE
  6
CONTINUOUS
 62
    30
 10
-122.5
 20
-517.693791
 30
0.0
 40
6.0
  0
TEXT
  5
2DF
  8
SIZE
  6
CONTINUOUS
 62
    30
 10
-106.9714285714286
 20
-492.6937909999999
 30
0.0
 40
64.0
  1
□220
 41
0.9
 72
     1
 11
0.0
 21
-492.6937909999999
 31
0.0
  0
LINE
  5
2E0
  8
SIZE
  6
CONTINUOUS
 62
    30
 10
-122.25
 20
-5.0
 30
0.0
 11
-391.7270459999999
 21
-5.0
 31
0.0
  0
LINE
  5
2E1
  8
SIZE
  6
CONTINUOUS
 62
    30
 10
-142.5
 20
-214.0
 30
0.0
 11
-391.7270459999999
 21
-214.0
 31
0.0
  0
LINE
  5
2E2
  8
SIZE
  6
CONTINUOUS
 62
    30
 10
-371.7270459999999
 20
-17.0
 30
0.0
 11
-371.7270459999999
 21
-203.0
 31
0.0
  0
CIRCLE
  5
2E3
  8
SIZE
  6
CONTINUOUS
 62
    30
 10
-371.7270459999999
 20
-5.0
 30
0.0
 40
6.0
  0
LINE
  5
2E4
  8
SIZE
  6
CONTINUOUS
 62
    30
 10
-371.7270459999999
 20
-5.0
 30
0.0
 11
-371.7270459999999
 21
-17.0
 31
0.0
  0
CIRCLE
  5
2E5
  8
SIZE
  6
CONTINUOUS
 62
    30
 10
-371.7270459999999
 20
-215.0
 30
0.0
 40
6.0
  0
LINE
  5
2E6
  8
SIZE
  6
CONTINUOUS
 62
    30
 10
-371.7270459999999
 20
-215.0
 30
0.0
 11
-371.7270459999999
 21
-203.0
 31
0.0
  0
TEXT
  5
2E7
  8
SIZE
  6
CONTINUOUS
 62
    30
 10
-396.727046
 20
-190.9142857142857
 30
0.0
 40
64.0
  1
209
 50
90.0
 41
0.9
 72
     1
 11
-396.727046
 21
-110.0
 31
0.0
  0
LINE
  5
2E8
  8
SIZE
  6
CONTINUOUS
 62
    30
 10
-122.0
 20
-181.0
 30
0.0
 11
-270.505202
 21
-181.0
 31
0.0
  0
LINE
  5
2E9
  8
SIZE
  6
CONTINUOUS
 62
    30
 10
-250.505202
 20
-170.0
 30
0.0
 11
-250.505202
 21
-158.0
 31
0.0
  0
LINE
  5
2EA
  8
SIZE
  6
CONTINUOUS
 62
    30
 10
-250.505202
 20
-226.3
 30
0.0
 11
-250.505202
 21
-238.3
 31
0.0
  0
LINE
  5
2EB
  8
SIZE
  6
CONTINUOUS
 62
    30
 10
-250.505202
 20
-383.158429
 30
0.0
 11
-250.505202
 21
-213.3
 31
0.0
  0
TEXT
  5
2EC
  8
SIZE
  6
CONTINUOUS
 62
    30
 10
-275.505202
 20
-366.3869998571429
 30
0.0
 40
64.0
  1
33
 50
90.0
 41
0.9
 72
     1
 11
-275.505202
 21
-311.529857
 31
0.0
  0
LINE
  5
2ED
  8
SIZE
  6
CONTINUOUS
 62
    30
 10
-250.505202
 20
-181.3
 30
0.0
 11
-250.505202
 21
-214.3
 31
0.0
  0
LINE
  5
2EE
  8
SIZE
  6
CONTINUOUS
 62
    30
 10
-250.505202
 20
-181.3
 30
0.0
 11
-250.505202
 21
-214.3
 31
0.0
  0
CIRCLE
  5
2EF
  8
SIZE
  6
CONTINUOUS
 62
    30
 10
-250.505202
 20
-182.0
 30
0.0
 40
6.0
  0
LINE
  5
2F0
  8
SIZE
  6
CONTINUOUS
 62
    30
 10
-250.505202
 20
-182.0
 30
0.0
 11
-250.505202
 21
-170.0
 31
0.0
  0
CIRCLE
  5
2F1
  8
SIZE
  6
CONTINUOUS
 62
    30
 10
-250.505202
 20
-214.3
 30
0.0
 40
6.0
  0
LINE
  5
2F2
  8
SIZE
  6
CONTINUOUS
 62
    30
 10
-250.505202
 20
-214.3
 30
0.0
 11
-250.505202
 21
-226.3
 31
0.0
  0
LINE
  5
2F3
  8
SIZE
  6
CONTINUOUS
 62
    30
 10
-122.25
 20
-5.0
 30
0.0
 11
-391.7270459999999
 21
-5.0
 31
0.0
  0
LINE
  5
2F4
  8
SIZE
  6
CONTINUOUS
 62
    30
 10
-88.0
 20
0.0
 30
0.0
 11
-391.7270459999999
 21
0.0
 31
0.0
  0
LINE
  5
2F5
  8
SIZE
  6
CONTINUOUS
 62
    30
 10
-371.7270459999999
 20
-17.0
 30
0.0
 11
-371.7270459999999
 21
-29.0
 31
0.0
  0
LINE
  5
2F6
  8
SIZE
  6
CONTINUOUS
 62
    30
 10
-371.7270459999999
 20
12.0
 30
0.0
 11
-371.7270459999999
 21
24.0
 31
0.0
  0
LINE
  5
2F7
  8
SIZE
  6
CONTINUOUS
 62
    30
 10
-371.7270459999999
 20
121.9239999999997
 30
0.0
 11
-371.7270459999999
 21
0.0
 31
0.0
  0
TEXT
  5
2F8
  8
SIZE
  6
CONTINUOUS
 62
    30
 10
-396.727046
 20
50.29542857142854
 30
0.0
 40
64.0
  1
5
 50
90.0
 41
0.9
 72
     1
 11
-396.727046
 21
77.72399999999998
 31
0.0
  0
LINE
  5
2F9
  8
SIZE
  6
CONTINUOUS
 62
    30
 10
-371.7270459999999
 20
-5.0
 30
0.0
 11
-371.7270459999999
 21
0.0
 31
0.0
  0
LINE
  5
2FA
  8
SIZE
  6
CONTINUOUS
 62
    30
 10
-371.7270459999999
 20
-5.0
 30
0.0
 11
-371.7270459999999
 21
0.0
 31
0.0
  0
CIRCLE
  5
2FB
  8
SIZE
  6
CONTINUOUS
 62
    30
 10
-371.7270459999999
 20
-5.0
 30
0.0
 40
6.0
  0
LINE
  5
2FC
  8
SIZE
  6
CONTINUOUS
 62
    30
 10
-371.7270459999999
 20
-5.0
 30
0.0
 11
-371.7270459999999
 21
-17.0
 31
0.0
  0
CIRCLE
  5
2FD
  8
SIZE
  6
CONTINUOUS
 62
    30
 10
-371.7270459999999
 20
0.0
 30
0.0
 40
6.0
  0
LINE
  5
2FE
  8
SIZE
  6
CONTINUOUS
 62
    30
 10
-371.7270459999999
 20
0.0
 30
0.0
 11
-371.7270459999999
 21
12.0
 31
0.0
  0
LINE
  5
2FF
  8
DETAIL
  6
CONTINUOUS
 62
     5
 10
101.9999999999999
 20
-180.3
 30
0.0
 11
101.9999999999999
 21
-214.0
 31
0.0
  0
LINE
  5
300
  8
DETAIL
  6
CONTINUOUS
 62
     5
 10
-102.0
 20
-180.3
 30
0.0
 11
-102.0
 21
-214.0
 31
0.0
  0
TEXT
  5
301
  8
NOTE
  6
CONTINUOUS
 62
     4
 10
178.4523389999997
 20
124.25215
 30
0.0
 40
64.0
  1
AH 2-φ15×22
 41
0.9
  0
LINE
  5
302
  8
NOTE
  6
CONTINUOUS
 62
     4
 10
130.0723399999999
 20
106.297006
 30
0.0
 11
813.2470079999998
 21
106.297006
 31
0.0
  0
LINE
  5
303
  8
NOTE
  6
CONTINUOUS
 62
     4
 10
130.0723399999999
 20
106.297006
 30
0.0
 11
0.0
 21
-5.0
 31
0.0
  0
LINE
  5
304
  8
NOTE
  6
CONTINUOUS
 62
     4
 10
21.38347600000002
 20
28.80454000000003
 30
0.0
 11
0.0
 21
-5.0
 31
0.0
  0
LINE
  5
305
  8
NOTE
  6
CONTINUOUS
 62
     4
 10
0.0
 20
-5.0
 30
0.0
 11
35.42090400000001
 21
13.58385199999998
 31
0.0
  0
TEXT
  5
306
  8
NOTE
  6
CONTINUOUS
 62
     4
 10
231.0101819999999
 20
7.415572999999993
 30
0.0
 40
64.0
  1
2-φ6
 41
0.9
  0
LINE
  5
307
  8
NOTE
  6
CONTINUOUS
 62
     4
 10
469.7398079999999
 20
-8.234380999999985
 30
0.0
 11
213.0844979999998
 21
-8.234380999999985
 31
0.0
  0
LINE
  5
308
  8
NOTE
  6
CONTINUOUS
 62
     4
 10
213.0844979999998
 20
-7.234380999999982
 30
0.0
 11
0.0
 21
-214.0
 31
0.0
  0
LINE
  5
309
  8
NOTE
  6
CONTINUOUS
 62
     4
 10
20.235974
 20
-179.4962989999999
 30
0.0
 11
0.0
 21
-214.0
 31
0.0
  0
LINE
  5
30A
  8
NOTE
  6
CONTINUOUS
 62
     4
 10
0.0
 20
-214.0
 30
0.0
 11
34.7767179999998
 21
-194.236906
 31
0.0
  0
TEXT
  5
30B
  8
NOTE
  6
CONTINUOUS
 62
     4
 10
218.902799
 20
-106.3846389999997
 30
0.0
 40
64.0
  1
8-φ7×12
 41
0.9
  0
LINE
  5
30C
  8
NOTE
  6
CONTINUOUS
 62
     4
 10
199.844448
 20
-132.401297
 30
0.0
 11
627.848886
 21
-132.401297
 31
0.0
  0
LINE
  5
30D
  8
NOTE
  6
CONTINUOUS
 62
     4
 39
50.0
 10
111.7499999999999
 20
-214.0
 30
0.0
 11
199.844448
 21
-131.401297
 31
0.0
  0
LINE
  5
30E
  8
NOTE
  6
CONTINUOUS
 62
     4
 10
132.1850229999999
 20
-179.6138129999999
 30
0.0
 11
111.7499999999999
 21
-214.0
 31
0.0
  0
LINE
  5
30F
  8
NOTE
  6
CONTINUOUS
 62
     4
 10
111.7499999999999
 20
-214.0
 30
0.0
 11
146.640343
 21
-194.4382
 31
0.0
  0
CIRCLE
  5
310
  8
FIX
  6
CONTINUOUS
 62
    11
 39
50.0
 10
-111.75
 20
-214.0
 30
0.0
 40
3.5
  0
LINE
  5
311
  8
NOTE
  6
CONTINUOUS
 62
     4
 10
-131.75
 20
-214.0
 30
0.0
 11
-91.74999999999997
 21
-214.0
 31
0.0
  0
LINE
  5
312
  8
NOTE
  6
CONTINUOUS
 62
     4
 10
-111.75
 20
-234.0
 30
0.0
 11
-111.75
 21
-194.0
 31
0.0
  0
CIRCLE
  5
313
  8
FIX
  6
CONTINUOUS
 62
    11
 39
50.0
 10
0.0
 20
-214.0
 30
0.0
 40
3.0
  0
LINE
  5
314
  8
NOTE
  6
CONTINUOUS
 62
     4
 10
0.0
 20
-234.0
 30
0.0
 11
0.0
 21
-194.0
 31
0.0
  0
LINE
  5
315
  8
NOTE
  6
CONTINUOUS
 62
     4
 10
-20.0
 20
-214.0
 30
0.0
 11
20.00000000000001
 21
-214.0
 31
0.0
  0
LINE
  5
316
  8
DETAIL
  6
CONTINUOUS
 62
     5
 10
101.9999999999999
 20
-181.3
 30
0.0
 11
101.9999999999999
 21
-5.0
 31
0.0
  0
LINE
  5
317
  8
DETAIL
  6
CONTINUOUS
 62
     5
 10
100.9999999999999
 20
-181.0
 30
0.0
 11
100.9999999999999
 21
-6.0
 31
0.0
  0
LINE
  5
318
  8
DETAIL
  6
CONTINUOUS
 62
     5
 10
67.9999999999998
 20
0.0
 30
0.0
 11
67.9999999999998
 21
-5.0
 31
0.0
  0
LINE
  5
319
  8
DETAIL
  6
CONTINUOUS
 62
     5
 10
-101.0
 20
-181.0
 30
0.0
 11
-101.0
 21
-6.0
 31
0.0
  0
LINE
  5
31A
  8
DETAIL
  6
CONTINUOUS
 62
     5
 10
-102.0
 20
-181.3
 30
0.0
 11
-102.0
 21
-5.0
 31
0.0
  0
LINE
  5
31B
  8
DETAIL
  6
CONTINUOUS
 62
     5
 10
101.9999999999999
 20
-5.0
 30
0.0
 11
-102.25
 21
-5.0
 31
0.0
  0
LINE
  5
31C
  8
DETAIL
  6
CONTINUOUS
 62
     5
 10
-87.49999999999999
 20
-6.0
 30
0.0
 11
-101.25
 21
-6.0
 31
0.0
  0
LINE
  5
31D
  8
DETAIL
  6
CONTINUOUS
 62
     5
 10
-68.0
 20
0.0
 30
0.0
 11
-68.0
 21
-5.0
 31
0.0
  0
LINE
  5
31E
  8
DETAIL
  6
CONTINUOUS
 62
     5
 10
67.9999999999998
 20
0.0
 30
0.0
 11
-68.0
 21
0.0
 31
0.0
  0
LINE
  5
31F
  8
DETAIL
  6
CONTINUOUS
 62
     5
 10
74.9999999999998
 20
-6.0
 30
0.0
 11
74.9999999999998
 21
-7.0
 31
0.0
  0
LINE
  5
320
  8
OUTLINE
  6
CONTINUOUS
 62
     3
 10
74.9999999999998
 20
-7.0
 30
0.0
 11
-87.49999999999999
 21
-7.0
 31
0.0
  0
LINE
  5
321
  8
OUTLINE
  6
CONTINUOUS
 62
     3
 10
100.9999999999999
 20
-6.0
 30
0.0
 11
-87.49999999999999
 21
-6.0
 31
0.0
  0
LINE
  5
322
  8
OUTLINE
  6
CONTINUOUS
 62
     3
 10
101.9999999999999
 20
-5.0
 30
0.0
 11
-102.0
 21
-5.0
 31
0.0
  0
LINE
  5
323
  8
OUTLINE
  6
CONTINUOUS
 62
     3
 10
67.9999999999998
 20
0.0
 30
0.0
 11
-68.0
 21
0.0
 31
0.0
  0
LINE
  5
324
  8
OUTLINE
  6
CONTINUOUS
 62
     3
 10
101.9999999999999
 20
-181.0
 30
0.0
 11
-102.0
 21
-181.0
 31
0.0
  0
LINE
  5
325
  8
OUTLINE
  6
CONTINUOUS
 62
     3
 10
1.5
 20
0.3694889999999873
 30
0.0
 11
-1.5
 21
0.3694889999999873
 31
0.0
  0
LINE
  5
326
  8
OUTLINE
  6
CONTINUOUS
 62
     3
 10
-1.5
 20
0.3694889999999873
 30
0.0
 11
-1.5
 21
0.0
 31
0.0
  0
LINE
  5
327
  8
OUTLINE
  6
CONTINUOUS
 62
     3
 10
-1.0
 20
0.3694889999999873
 30
0.0
 11
-1.0
 21
0.0
 31
0.0
  0
LINE
  5
328
  8
OUTLINE
  6
CONTINUOUS
 62
     3
 10
-102.0
 20
-181.3
 30
0.0
 11
-102.0
 21
-5.0
 31
0.0
  0
LINE
  5
329
  8
OUTLINE
  6
CONTINUOUS
 62
     3
 10
-101.0
 20
-181.0
 30
0.0
 11
-101.0
 21
-6.0
 31
0.0
  0
LINE
  5
32A
  8
OUTLINE
  6
CONTINUOUS
 62
     3
 10
-122.5
 20
-214.0
 30
0.0
 11
-122.5
 21
-212.8
 31
0.0
  0
LINE
  5
32C
  8
OUTLINE
  6
CONTINUOUS
 62
     3
 10
-122.5
 20
-212.8
 30
0.0
 11
-102.0
 21
-212.8
 31
0.0
  0
LINE
  5
32D
  8
OUTLINE
  6
CONTINUOUS
 62
     3
 10
-102.0
 20
-214.0
 30
0.0
 11
-122.5
 21
-214.0
 31
0.0
  0
LINE
  5
32E
  8
OUTLINE
  6
CONTINUOUS
 62
     3
 10
-122.5
 20
-213.3
 30
0.0
 11
-122.5
 21
-213.8
 31
0.0
  0
LINE
  5
32F
  8
OUTLINE
  6
CONTINUOUS
 62
     3
 10
-102.0
 20
-180.3
 30
0.0
 11
-102.0
 21
-214.0
 31
0.0
  0
LINE
  5
330
  8
OUTLINE
  6
CONTINUOUS
 62
     3
 10
-87.49999999999999
 20
-6.0
 30
0.0
 11
-87.49999999999999
 21
-7.0
 31
0.0
  0
LINE
  5
331
  8
OUTLINE
  6
CONTINUOUS
 62
     3
 10
-68.0
 20
0.0
 30
0.0
 11
-68.0
 21
-5.0
 31
0.0
  0
LINE
  5
332
  8
OUTLINE
  6
CONTINUOUS
 62
     3
 10
-87.49999999999999
 20
-6.0
 30
0.0
 11
-101.0
 21
-6.0
 31
0.0
  0
LINE
  5
333
  8
OUTLINE
  6
CONTINUOUS
 62
     3
 10
1.5
 20
0.3694889999999873
 30
0.0
 11
1.5
 21
0.0
 31
0.0
  0
LINE
  5
334
  8
OUTLINE
  6
CONTINUOUS
 62
     3
 10
1.0
 20
0.3694889999999873
 30
0.0
 11
1.0
 21
0.0
 31
0.0
  0
LINE
  5
335
  8
OUTLINE
  6
CONTINUOUS
 62
     3
 10
100.9999999999999
 20
-181.0
 30
0.0
 11
100.9999999999999
 21
-6.0
 31
0.0
  0
LINE
  5
336
  8
OUTLINE
  6
CONTINUOUS
 62
     3
 10
101.9999999999999
 20
-181.3
 30
0.0
 11
101.9999999999999
 21
-5.0
 31
0.0
  0
LINE
  5
337
  8
OUTLINE
  6
CONTINUOUS
 62
     3
 10
122.4999999999999
 20
-213.3
 30
0.0
 11
122.4999999999999
 21
-213.8
 31
0.0
  0
LINE
  5
338
  8
OUTLINE
  6
CONTINUOUS
 62
     3
 10
122.4999999999999
 20
-213.3
 30
0.0
 11
122.4999999999999
 21
-212.8
 31
0.0
  0
LINE
  5
33A
  8
OUTLINE
  6
CONTINUOUS
 62
     3
 10
122.4999999999999
 20
-212.8
 30
0.0
 11
101.9999999999999
 21
-212.8
 31
0.0
  0
LINE
  5
33B
  8
OUTLINE
  6
CONTINUOUS
 62
     3
 10
101.9999999999999
 20
-214.0
 30
0.0
 11
122.4999999999999
 21
-214.0
 31
0.0
  0
LINE
  5
33C
  8
OUTLINE
  6
CONTINUOUS
 62
     3
 10
122.4999999999999
 20
-213.3
 30
0.0
 11
122.4999999999999
 21
-214.0
 31
0.0
  0
LINE
  5
33D
  8
OUTLINE
  6
CONTINUOUS
 62
     3
 10
101.9999999999999
 20
-180.3
 30
0.0
 11
101.9999999999999
 21
-214.0
 31
0.0
  0
LINE
  5
33E
  8
OUTLINE
  6
CONTINUOUS
 62
     3
 10
74.9999999999998
 20
-6.0
 30
0.0
 11
74.9999999999998
 21
-7.0
 31
0.0
  0
LINE
  5
33F
  8
OUTLINE
  6
CONTINUOUS
 62
     3
 10
67.9999999999998
 20
0.0
 30
0.0
 11
67.9999999999998
 21
-5.0
 31
0.0
  0
CIRCLE
  5
340
  8
ARRANGE
  6
CONTINUOUS
 62
     1
 39
50.0
 10
0.0
 20
0.0
 30
0.0
 40
40.0
  0
POINT
  5
341
  8
ARRANGE
  6
CONTINUOUS
 62
     1
 39
50.0
 10
0.0
 20
0.0
 30
0.0
  0
LINE
  5
342
  8
SIZE
  6
CONTINUOUS
 62
    30
 10
101.9999999999999
 20
15.0
 30
0.0
 11
101.9999999999999
 21
148.0168609999997
 31
0.0
  0
LINE
  5
343
  8
SIZE
  6
CONTINUOUS
 62
    30
 10
-102.0
 20
15.0
 30
0.0
 11
-102.0
 21
148.0168609999997
 31
0.0
  0
LINE
  5
344
  8
SIZE
  6
CONTINUOUS
 62
    30
 10
102.2499999999999
 20
128.016861
 30
0.0
 11
-102.25
 21
128.016861
 31
0.0
  0
CIRCLE
  5
345
  8
SIZE
  6
CONTINUOUS
 62
    30
 10
101.9999999999999
 20
128.016861
 30
0.0
 40
6.0
  0
CIRCLE
  5
346
  8
SIZE
  6
CONTINUOUS
 62
    30
 10
-102.0
 20
128.016861
 30
0.0
 40
6.0
  0
TEXT
  5
347
  8
SIZE
  6
CONTINUOUS
 62
    30
 10
-108.3428571428571
 20
153.016861
 30
0.0
 40
64.0
  1
□204
 41
0.9
 72
     1
 11
0.0
 21
153.016861
 31
0.0
  0
CIRCLE
  5
348
  8
FIX
  6
CONTINUOUS
 62
    11
 39
50.0
 10
-75.0
 20
-214.0
 30
0.0
 40
3.5
  0
LINE
  5
349
  8
NOTE
  6
CONTINUOUS
 62
     4
 10
-95.0
 20
-214.0
 30
0.0
 11
-55.0
 21
-214.0
 31
0.0
  0
LINE
  5
34A
  8
NOTE
  6
CONTINUOUS
 62
     4
 10
-75.0
 20
-234.0
 30
0.0
 11
-75.0
 21
-194.0
 31
0.0
  0
CIRCLE
  5
34B
  8
FIX
  6
CONTINUOUS
 62
    11
 39
50.0
 10
74.9999999999998
 20
-214.0
 30
0.0
 40
3.5
  0
LINE
  5
34C
  8
NOTE
  6
CONTINUOUS
 62
     4
 10
95.0
 20
-214.0
 30
0.0
 11
54.9999999999998
 21
-214.0
 31
0.0
  0
LINE
  5
34D
  8
NOTE
  6
CONTINUOUS
 62
     4
 10
74.9999999999998
 20
-234.0
 30
0.0
 11
74.9999999999998
 21
-194.0
 31
0.0
  0
LINE
  5
34E
  8
OUTLINE
  6
CONTINUOUS
 62
     3
 10
49.49999999999982
 20
-213.5
 30
0.0
 11
69.74269099999992
 21
-213.5
 31
0.0
  0
LINE
  5
34F
  8
DETAIL
  6
CONTINUOUS
 62
     5
 10
49.49999999999982
 20
-213.5
 30
0.0
 11
69.74269099999992
 21
-213.5
 31
0.0
  0
LINE
  5
350
  8
NOTE
  6
CONTINUOUS
 62
     4
 10
131.7499999999999
 20
-214.0
 30
0.0
 11
91.75
 21
-214.0
 31
0.0
  0
LINE
  5
351
  8
NOTE
  6
CONTINUOUS
 62
     4
 10
111.7499999999999
 20
-234.0
 30
0.0
 11
111.7499999999999
 21
-194.0
 31
0.0
  0
CIRCLE
  5
352
  8
FIX
  6
CONTINUOUS
 62
    11
 39
50.0
 10
111.7499999999999
 20
-214.0
 30
0.0
 40
3.5
  0
TEXT
  5
353
  8
ETC
  6
CONTINUOUS
 62
    61
 10
579.5737355519633
 20
272.0508700593839
 30
0.0
 40
50.0
  1
P-207TD
 41
0.9
  0
TEXT
  5
354
  8
ETC
  6
CONTINUOUS
 62
    61
 10
455.179978548248
 20
348.9639335588266
 30
0.0
 40
64.0
  1
システム部材
 41
0.9
  0
TEXT
  5
355
  8
ETC
  6
CONTINUOUS
 62
    61
 10
470.0720542360469
 20
434.7130807847083
 30
0.0
 40
64.0
  1
P-207TD_3
 41
0.9
  0
LINE
  5
356
  8
OUTLINE
  6
CONTINUOUS
 62
     3
 39
50.0
 10
-102.0
 20
-214.0
 30
0.0
 11
101.9999999999999
 21
-214.0
 31
0.0
  0
ENDSEC
  0
EOF
