  0
SECTION
  2
HEADER
  9
$ACADVER
  1
AC1009
  9
$INSBASE
 10
0.0
 20
0.0
 30
0.0
  9
$EXTMIN
 10
-753.64096700000005
 20
-385.2962799710657
 30
0.0
  9
$EXTMAX
 10
962.01051940927596
 20
685.97064600066585
 30
50.0
  9
$LIMMIN
 10
-2970.0
 20
-2100.0
  9
$LIMMAX
 10
2970.0
 20
2100.0
  9
$ORTHOMODE
 70
     1
  9
$REGENMODE
 70
     0
  9
$FILLMODE
 70
     1
  9
$QTEXTMODE
 70
     0
  9
$MIRRTEXT
 70
     0
  9
$DRAGMODE
 70
     2
  9
$LTSCALE
 40
20.0
  9
$OSMODE
 70
   167
  9
$ATTMODE
 70
     1
  9
$TEXTSIZE
 40
64.0
  9
$TRACEWID
 40
0.05
  9
$TEXTSTYLE
  7
STANDARD
  9
$CLAYER
  8
OUTLINE
  9
$CELTYPE
  6
CONTINUOUS
  9
$CECOLOR
 62
     3
  9
$DIMSCALE
 40
1.0
  9
$DIMASZ
 40
12.0
  9
$DIMEXO
 40
20.0
  9
$DIMDLI
 40
200.0
  9
$DIMRND
 40
0.0
  9
$DIMDLE
 40
0.0
  9
$DIMEXE
 40
20.0
  9
$DIMTP
 40
0.0
  9
$DIMTM
 40
0.0
  9
$DIMTXT
 40
64.0
  9
$DIMCEN
 40
0.09
  9
$DIMTSZ
 40
0.0
  9
$DIMTOL
 70
     0
  9
$DIMLIM
 70
     0
  9
$DIMTIH
 70
     0
  9
$DIMTOH
 70
     0
  9
$DIMSE1
 70
     0
  9
$DIMSE2
 70
     0
  9
$DIMTAD
 70
     1
  9
$DIMZIN
 70
     8
  9
$DIMBLK
  1
DOT1
  9
$DIMASO
 70
     1
  9
$DIMSHO
 70
     0
  9
$DIMPOST
  1

  9
$DIMAPOST
  1

  9
$DIMALT
 70
     0
  9
$DIMALTD
 70
     2
  9
$DIMALTF
 40
25.399999999999999
  9
$DIMLFAC
 40
1.0
  9
$DIMTOFL
 70
     1
  9
$DIMTVP
 40
0.0
  9
$DIMTIX
 70
     1
  9
$DIMSOXD
 70
     0
  9
$DIMSAH
 70
     1
  9
$DIMBLK1
  1
ORIGIN
  9
$DIMBLK2
  1
ORIGIN
  9
$DIMSTYLE
  2
STANDARD
  9
$DIMCLRD
 70
     7
  9
$DIMCLRE
 70
     7
  9
$DIMCLRT
 70
     7
  9
$DIMTFAC
 40
1.0
  9
$DIMGAP
 40
25.0
  9
$LUNITS
 70
     2
  9
$LUPREC
 70
     4
  9
$SKETCHINC
 40
0.1
  9
$FILLETRAD
 40
3.0
  9
$AUNITS
 70
     1
  9
$AUPREC
 70
     3
  9
$MENU
  1
ACAD
  9
$ELEVATION
 40
0.0
  9
$PELEVATION
 40
0.0
  9
$THICKNESS
 40
50.0
  9
$LIMCHECK
 70
     0
  9
$BLIPMODE
 70
     0
  9
$CHAMFERA
 40
0.0
  9
$CHAMFERB
 40
0.0
  9
$SKPOLY
 70
     0
  9
$TDCREATE
 40
2453073.5485681128
  9
$TDUPDATE
 40
2454953.860120439
  9
$TDINDWG
 40
0.2306823958
  9
$TDUSRTIMER
 40
0.2306820255
  9
$USRTIMER
 70
     1
  9
$ANGBASE
 50
0.0
  9
$ANGDIR
 70
     0
  9
$PDMODE
 70
     3
  9
$PDSIZE
 40
-2.0
  9
$PLINEWID
 40
0.0
  9
$COORDS
 70
     2
  9
$SPLFRAME
 70
     0
  9
$SPLINETYPE
 70
     6
  9
$SPLINESEGS
 70
     8
  9
$ATTDIA
 70
     0
  9
$ATTREQ
 70
     1
  9
$HANDLING
 70
 22529
  9
$HANDSEED
  5
386
  9
$SURFTAB1
 70
     6
  9
$SURFTAB2
 70
     6
  9
$SURFTYPE
 70
     6
  9
$SURFU
 70
     6
  9
$SURFV
 70
     6
  9
$UCSNAME
  2

  9
$UCSORG
 10
0.0
 20
0.0
 30
0.0
  9
$UCSXDIR
 10
1.0
 20
0.0
 30
0.0
  9
$UCSYDIR
 10
0.0
 20
1.0
 30
0.0
  9
$PUCSNAME
  2

  9
$PUCSORG
 10
0.0
 20
0.0
 30
0.0
  9
$PUCSXDIR
 10
1.0
 20
0.0
 30
0.0
  9
$PUCSYDIR
 10
0.0
 20
1.0
 30
0.0
  9
$USERI1
 70
     0
  9
$USERI2
 70
     0
  9
$USERI3
 70
     0
  9
$USERI4
 70
     0
  9
$USERI5
 70
     0
  9
$USERR1
 40
20.0
  9
$USERR2
 40
0.0
  9
$USERR3
 40
0.0
  9
$USERR4
 40
0.0
  9
$USERR5
 40
0.0
  9
$WORLDVIEW
 70
     1
  9
$SHADEDGE
 70
     3
  9
$SHADEDIF
 70
    70
  9
$TILEMODE
 70
     1
  9
$MAXACTVP
 70
    48
  9
$PLIMCHECK
 70
     0
  9
$PEXTMIN
 10
-1.0000000000000000E+020
 20
-1.0000000000000000E+020
 30
-1.0000000000000000E+020
  9
$PEXTMAX
 10
1.0000000000000000E+020
 20
1.0000000000000000E+020
 30
1.0000000000000000E+020
  9
$PLIMMIN
 10
0.0
 20
0.0
  9
$PLIMMAX
 10
12.0
 20
9.0
  9
$UNITMODE
 70
     0
  9
$VISRETAIN
 70
     0
  9
$PLINEGEN
 70
     0
  9
$PSLTSCALE
 70
     0
  0
ENDSEC
  0
SECTION
  2
TABLES
  0
TABLE
  2
VPORT
 70
     3
  0
VPORT
  2
*ACTIVE
 70
     0
 10
0.0
 20
0.0
 11
1.0
 21
1.0
 12
101.57760948713479
 22
149.78614322429891
 13
0.0
 23
0.0
 14
1.0
 24
1.0
 15
0.0
 25
0.0
 16
0.0
 26
0.0
 36
1.0
 17
0.0
 27
0.0
 37
0.0
 40
1294.983772138432
 41
1.493654822335025
 42
50.0
 43
0.0
 44
0.0
 50
0.0
 51
0.0
 71
     0
 72
  1000
 73
     1
 74
     0
 75
     0
 76
     0
 77
     0
 78
     0
  0
ENDTAB
  0
TABLE
  2
LTYPE
 70
     2
  0
LTYPE
  2
CONTINUOUS
 70
     0
  3
実線
 72
    65
 73
     0
 40
0.0
  0
LTYPE
  2
DASHDOT
 70
     0
  3
____ _ ____ _ ____ _ ____ _ ____ _ ____ _ ____
 72
    65
 73
     4
 40
5.5
 49
4.0
 49
-0.6
 49
0.3
 49
-0.6
  0
ENDTAB
  0
TABLE
  2
LAYER
 70
    12
  0
LAYER
  2
0
 70
     0
 62
     7
  6
CONTINUOUS
  0
LAYER
  2
OUTLINE
 70
     0
 62
     3
  6
CONTINUOUS
  0
LAYER
  2
SIZE
 70
     0
 62
    30
  6
CONTINUOUS
  0
LAYER
  2
BASIS
 70
     0
 62
     6
  6
DASHDOT
  0
LAYER
  2
DETAIL
 70
     0
 62
     5
  6
CONTINUOUS
  0
LAYER
  2
ARRANGE
 70
     0
 62
     1
  6
CONTINUOUS
  0
LAYER
  2
DEFPOINTS
 70
     0
 62
     7
  6
CONTINUOUS
  0
LAYER
  2
ETC
 70
     0
 62
    61
  6
CONTINUOUS
  0
LAYER
  2
FIX
 70
     0
 62
    11
  6
CONTINUOUS
  0
LAYER
  2
NOTE
 70
     0
 62
     4
  6
CONTINUOUS
  0
LAYER
  2
SERVICESPACE
 70
     0
 62
     2
  6
DASHDOT
  0
LAYER
  2
SYMBOLLINE
 70
     0
 62
    15
  6
CONTINUOUS
  0
ENDTAB
  0
TABLE
  2
STYLE
 70
     1
  0
STYLE
  2
STANDARD
 70
     0
 40
64.0
 41
0.9
 50
0.0
 71
     0
 42
64.0
  3
SIMPLEX.shx
  4
BIGFONT.shx
  0
ENDTAB
  0
TABLE
  2
VIEW
 70
     1
  0
VIEW
  2
ALL
 70
     0
 40
4282.6198079999976
 10
0.0
 20
41.309903999999989
 41
5940.0
 11
0.0
 21
0.0
 31
1.0
 12
0.0
 22
0.0
 32
0.0
 42
50.0
 43
0.0
 44
0.0
 50
0.0
 71
     0
  0
ENDTAB
  0
TABLE
  2
UCS
 70
     0
  0
ENDTAB
  0
TABLE
  2
APPID
 70
     2
  0
APPID
  2
ACAD
 70
     0
  0
APPID
  2
AUTOCAD_POSTSCRIPT_FIGURE
 70
     0
  0
ENDTAB
  0
TABLE
  2
DIMSTYLE
 70
     1
  0
DIMSTYLE
  2
STANDARD
 70
     0
  3

  4

  5

  6

  7

 40
1.0
 41
0.18
 42
0.0625
 43
0.38
 44
0.18
 45
0.0
 46
0.0
 47
0.0
 48
0.0
140
0.18
141
0.09
142
0.0
143
25.399999999999999
144
1.0
145
0.0
146
1.0
147
0.09
 71
     0
 72
     0
 73
     1
 74
     1
 75
     0
 76
     0
 77
     0
 78
     0
170
     0
171
     2
172
     0
173
     0
174
     0
175
     0
176
     7
177
     7
178
     7
  0
ENDTAB
  0
ENDSEC
  0
SECTION
  2
BLOCKS
  0
BLOCK
  8
0
  2
$MODEL_SPACE
 70
     0
 10
0.0
 20
0.0
 30
0.0
  3
$MODEL_SPACE
  1

  0
ENDBLK
  5
21C
  8
0
  0
BLOCK
 67
     1
  8
0
  2
$PAPER_SPACE
 70
     0
 10
0.0
 20
0.0
 30
0.0
  3
$PAPER_SPACE
  1

  0
ENDBLK
  5
218
 67
     1
  8
0
  0
BLOCK
  8
0
  2
DOT1
 70
     0
 10
0.0
 20
0.0
 30
0.0
  3
DOT1
  1

  0
CIRCLE
  5
238
  8
SIZE
  6
CONTINUOUS
 62
     7
 10
0.0
 20
0.0
 30
0.0
 40
3.0
  0
ENDBLK
  5
239
  8
0
  0
BLOCK
  8
0
  2
_ORIGIN
 70
     0
 10
0.0
 20
0.0
 30
0.0
  3
_ORIGIN
  1

  0
CIRCLE
  5
23C
  8
0
  6
CONTINUOUS
 62
     7
 10
0.0
 20
0.0
 30
0.0
 40
0.5
  0
LINE
  5
23D
  8
0
  6
CONTINUOUS
 62
     7
 10
0.0
 20
0.0
 30
0.0
 11
-1.0
 21
0.0
 31
0.0
  0
ENDBLK
  5
23E
  8
0
  0
ENDSEC
  0
SECTION
  2
ENTITIES
  0
LINE
  5
23F
  8
BASIS
  6
DASHDOT
 62
     6
 39
50.0
 10
-31.307109000000001
 20
0.0
 30
0.0
 11
240.43249700000001
 21
0.0
 31
0.0
  0
LINE
  5
240
  8
DETAIL
  6
CONTINUOUS
 62
     5
 10
-0.369489
 20
1.5
 30
0.0
 11
-0.369489
 21
-1.5
 31
0.0
  0
LINE
  5
241
  8
DETAIL
  6
CONTINUOUS
 62
     5
 10
-0.369489
 20
-1.0
 30
0.0
 11
3.0
 21
-1.0
 31
0.0
  0
LINE
  5
242
  8
DETAIL
  6
CONTINUOUS
 62
     5
 10
-0.369489
 20
-1.5
 30
0.0
 11
3.0
 21
-1.5
 31
0.0
  0
LINE
  5
243
  8
DETAIL
  6
CONTINUOUS
 62
     5
 10
3.0
 20
1.5
 30
0.0
 11
3.0
 21
-1.5
 31
0.0
  0
LINE
  5
244
  8
DETAIL
  6
CONTINUOUS
 62
     5
 10
3.0
 20
-1.5
 30
0.0
 11
4.0
 21
-2.0
 31
0.0
  0
LINE
  5
245
  8
DETAIL
  6
CONTINUOUS
 62
     5
 10
3.0
 20
1.5
 30
0.0
 11
4.0
 21
2.0
 31
0.0
  0
LINE
  5
246
  8
DETAIL
  6
CONTINUOUS
 62
     5
 10
-0.369489
 20
1.0
 30
0.0
 11
3.0
 21
1.0
 31
0.0
  0
LINE
  5
247
  8
DETAIL
  6
CONTINUOUS
 62
     5
 10
-0.369489
 20
1.5
 30
0.0
 11
3.0
 21
1.5
 31
0.0
  0
LINE
  5
248
  8
DETAIL
  6
CONTINUOUS
 62
     5
 10
213.30000000000001
 20
122.5
 30
0.0
 11
213.80000000000001
 21
122.5
 31
0.0
  0
LINE
  5
249
  8
DETAIL
  6
CONTINUOUS
 62
     5
 10
213.30000000000001
 20
122.5
 30
0.0
 11
212.80000000000001
 21
122.5
 31
0.0
  0
LINE
  5
24A
  8
DETAIL
  6
CONTINUOUS
 62
     5
 10
214.0
 20
102.0
 30
0.0
 11
214.0
 21
-102.0
 31
0.0
  0
LINE
  5
24B
  8
DETAIL
  6
CONTINUOUS
 62
     5
 10
181.0
 20
102.0
 30
0.0
 11
181.0
 21
-102.0
 31
0.0
  0
CIRCLE
  5
24C
  8
DETAIL
  6
CONTINUOUS
 62
     5
 10
208.0
 20
0.0
 30
0.0
 40
2.5
  0
CIRCLE
  5
24D
  8
DETAIL
  6
CONTINUOUS
 62
     5
 10
195.6999999999999
 20
0.0
 30
0.0
 40
2.5
  0
LINE
  5
24E
  8
DETAIL
  6
CONTINUOUS
 62
     5
 10
213.30000000000001
 20
122.5
 30
0.0
 11
213.30000000000001
 21
102.0
 31
0.0
  0
LINE
  5
24F
  8
DETAIL
  6
CONTINUOUS
 62
     5
 10
212.80000000000001
 20
122.5
 30
0.0
 11
212.80000000000001
 21
102.0
 31
0.0
  0
LINE
  5
250
  8
DETAIL
  6
CONTINUOUS
 62
     5
 10
213.5
 20
99.500000000000014
 30
0.0
 11
213.5
 21
-82.0
 31
0.0
  0
LINE
  5
251
  8
DETAIL
  6
CONTINUOUS
 62
     5
 10
213.5
 20
-82.0
 30
0.0
 11
213.5
 21
-102.0
 31
0.0
  0
LINE
  5
252
  8
DETAIL
  6
CONTINUOUS
 62
     5
 10
213.30000000000001
 20
-122.5
 30
0.0
 11
213.30000000000001
 21
-102.0
 31
0.0
  0
LINE
  5
253
  8
DETAIL
  6
CONTINUOUS
 62
     5
 10
212.80000000000001
 20
-122.5
 30
0.0
 11
212.80000000000001
 21
-102.0
 31
0.0
  0
LINE
  5
254
  8
DETAIL
  6
CONTINUOUS
 62
     5
 10
213.5
 20
82.0
 30
0.0
 11
213.5
 21
102.0
 31
0.0
  0
LINE
  5
255
  8
DETAIL
  6
CONTINUOUS
 62
     5
 10
214.0
 20
-102.0
 30
0.0
 11
214.0
 21
-122.5
 31
0.0
  0
LINE
  5
256
  8
DETAIL
  6
CONTINUOUS
 62
     5
 10
214.0
 20
102.0
 30
0.0
 11
214.0
 21
122.5
 31
0.0
  0
LINE
  5
257
  8
DETAIL
  6
CONTINUOUS
 62
     5
 10
213.30000000000001
 20
122.5
 30
0.0
 11
214.0
 21
122.5
 31
0.0
  0
LINE
  5
258
  8
DETAIL
  6
CONTINUOUS
 62
     5
 10
6.0
 20
-7.2999999999999989
 30
0.0
 11
6.0
 21
-29.905246000000002
 31
0.0
  0
LINE
  5
259
  8
DETAIL
  6
CONTINUOUS
 62
     5
 10
5.4000000000000004
 20
0.0
 30
0.0
 11
5.4000000000000004
 21
4.7000000000000002
 31
0.0
  0
LINE
  5
25A
  8
DETAIL
  6
CONTINUOUS
 62
     5
 10
7.0
 20
-7.0999999999999979
 30
0.0
 11
7.0
 21
-29.905246000000002
 31
0.0
  0
LINE
  5
25B
  8
DETAIL
  6
CONTINUOUS
 62
     5
 10
6.0
 20
-29.905246000000002
 30
0.0
 11
7.0
 21
-29.905246000000002
 31
0.0
  0
ARC
  5
25C
  8
DETAIL
  6
CONTINUOUS
 62
     5
 10
6.4000000000000004
 20
-4.7000000000000002
 30
0.0
 40
1.0
 50
180.0
 51
247.38013499999991
  0
ARC
  5
25D
  8
DETAIL
  6
CONTINUOUS
 62
     5
 10
5.0
 20
-7.2999999999999989
 30
0.0
 40
1.0
 50
0.0
 51
67.380134999999996
  0
ARC
  5
25E
  8
DETAIL
  6
CONTINUOUS
 62
     5
 10
5.4000000000000004
 20
-7.0999999999999979
 30
0.0
 40
1.6000000000000001
 50
0.0
 51
67.380134999999996
  0
ARC
  5
25F
  8
DETAIL
  6
CONTINUOUS
 62
     5
 10
6.0
 20
-4.9000000000000004
 30
0.0
 40
1.6000000000000001
 50
180.0
 51
247.38013499999991
  0
ARC
  5
260
  8
DETAIL
  6
CONTINUOUS
 62
     5
 10
5.0
 20
7.2999999999999989
 30
0.0
 40
1.0
 50
292.61986499999989
 51
0.0
  0
ARC
  5
261
  8
DETAIL
  6
CONTINUOUS
 62
     5
 10
6.4000000000000004
 20
4.7000000000000002
 30
0.0
 40
1.0
 50
112.61986499999981
 51
180.0
  0
ARC
  5
262
  8
DETAIL
  6
CONTINUOUS
 62
     5
 10
5.4000000000000004
 20
7.0999999999999979
 30
0.0
 40
1.6000000000000001
 50
292.61986499999989
 51
0.0
  0
ARC
  5
263
  8
DETAIL
  6
CONTINUOUS
 62
     5
 10
6.0
 20
4.9000000000000004
 30
0.0
 40
1.6000000000000001
 50
112.61986499999981
 51
180.0
  0
LINE
  5
264
  8
DETAIL
  6
CONTINUOUS
 62
     5
 10
4.4000000000000004
 20
-2.5
 30
0.0
 11
5.4000000000000004
 21
-2.5
 31
0.0
  0
LINE
  5
265
  8
DETAIL
  6
CONTINUOUS
 62
     5
 10
5.4000000000000004
 20
-4.7000000000000002
 30
0.0
 11
5.4000000000000004
 21
0.0
 31
0.0
  0
LINE
  5
266
  8
DETAIL
  6
CONTINUOUS
 62
     5
 10
7.0
 20
7.0999999999999979
 30
0.0
 11
7.0
 21
29.905246000000002
 31
0.0
  0
LINE
  5
267
  8
DETAIL
  6
CONTINUOUS
 62
     5
 10
6.0
 20
7.2999999999999989
 30
0.0
 11
6.0
 21
29.905246000000002
 31
0.0
  0
LINE
  5
268
  8
DETAIL
  6
CONTINUOUS
 62
     5
 10
6.0
 20
29.905246000000002
 30
0.0
 11
7.0
 21
29.905246000000002
 31
0.0
  0
LINE
  5
269
  8
DETAIL
  6
CONTINUOUS
 62
     5
 10
4.4000000000000004
 20
-4.9000000000000004
 30
0.0
 11
4.4000000000000004
 21
4.9000000000000004
 31
0.0
  0
LINE
  5
26A
  8
DETAIL
  6
CONTINUOUS
 62
     5
 10
4.4000000000000004
 20
2.5
 30
0.0
 11
5.4000000000000004
 21
2.5
 31
0.0
  0
LINE
  5
26B
  8
DETAIL
  6
CONTINUOUS
 62
     5
 10
24.5
 20
-20.5
 30
0.0
 11
181.0
 21
-20.5
 31
0.0
  0
LINE
  5
26C
  8
DETAIL
  6
CONTINUOUS
 62
     5
 10
7.0
 20
-10.0
 30
0.0
 11
153.5
 21
-10.0
 31
0.0
  0
LINE
  5
26D
  8
DETAIL
  6
CONTINUOUS
 62
     5
 10
7.0
 20
10.0
 30
0.0
 11
153.5
 21
10.0
 31
0.0
  0
LINE
  5
26E
  8
DETAIL
  6
CONTINUOUS
 62
     5
 10
24.5
 20
20.5
 30
0.0
 11
181.0
 21
20.5
 31
0.0
  0
LINE
  5
26F
  8
DETAIL
  6
CONTINUOUS
 62
     5
 10
0.0
 20
18.5
 30
0.0
 11
0.0
 21
17.5
 31
0.0
  0
LINE
  5
270
  8
DETAIL
  6
CONTINUOUS
 62
     5
 10
0.0
 20
17.5
 30
0.0
 11
3.0
 21
17.5
 31
0.0
  0
ARC
  5
271
  8
DETAIL
  6
CONTINUOUS
 62
     5
 10
3.0
 20
16.5
 30
0.0
 40
1.0
 50
0.0
 51
90.0
  0
LINE
  5
272
  8
DETAIL
  6
CONTINUOUS
 62
     5
 10
0.0
 20
18.5
 30
0.0
 11
3.0
 21
18.5
 31
0.0
  0
ARC
  5
273
  8
DETAIL
  6
CONTINUOUS
 62
     5
 10
3.0
 20
16.5
 30
0.0
 40
2.0
 50
0.0
 51
90.0
  0
LINE
  5
274
  8
DETAIL
  6
CONTINUOUS
 62
     5
 10
4.0
 20
16.5
 30
0.0
 11
4.0
 21
10.0
 31
0.0
  0
ARC
  5
275
  8
DETAIL
  6
CONTINUOUS
 62
     5
 10
24.5
 20
18.5
 30
0.0
 40
2.0
 50
90.0
 51
180.0
  0
LINE
  5
276
  8
DETAIL
  6
CONTINUOUS
 62
     5
 10
22.5
 20
18.5
 30
0.0
 11
22.5
 21
16.5
 31
0.0
  0
LINE
  5
277
  8
DETAIL
  6
CONTINUOUS
 62
     5
 10
7.0
 20
16.5
 30
0.0
 11
22.5
 21
16.5
 31
0.0
  0
LINE
  5
278
  8
DETAIL
  6
CONTINUOUS
 62
     5
 10
7.0
 20
-16.5
 30
0.0
 11
22.5
 21
-16.5
 31
0.0
  0
ARC
  5
279
  8
DETAIL
  6
CONTINUOUS
 62
     5
 10
24.5
 20
-18.5
 30
0.0
 40
2.0
 50
180.0
 51
270.0
  0
LINE
  5
27A
  8
DETAIL
  6
CONTINUOUS
 62
     5
 10
22.5
 20
-18.5
 30
0.0
 11
22.5
 21
-16.5
 31
0.0
  0
ARC
  5
27B
  8
DETAIL
  6
CONTINUOUS
 62
     5
 10
3.0
 20
-16.5
 30
0.0
 40
2.0
 50
270.0
 51
0.0
  0
ARC
  5
27C
  8
DETAIL
  6
CONTINUOUS
 62
     5
 10
3.0
 20
-16.5
 30
0.0
 40
1.0
 50
270.0
 51
0.0
  0
LINE
  5
27D
  8
DETAIL
  6
CONTINUOUS
 62
     5
 10
0.0
 20
-18.5
 30
0.0
 11
0.0
 21
-17.5
 31
0.0
  0
LINE
  5
27E
  8
DETAIL
  6
CONTINUOUS
 62
     5
 10
4.0
 20
-16.5
 30
0.0
 11
4.0
 21
-10.0
 31
0.0
  0
LINE
  5
27F
  8
DETAIL
  6
CONTINUOUS
 62
     5
 10
4.0
 20
10.0
 30
0.0
 11
4.0
 21
-10.0
 31
0.0
  0
LINE
  5
280
  8
DETAIL
  6
CONTINUOUS
 62
     5
 10
5.0
 20
-16.5
 30
0.0
 11
5.0
 21
-6.149
 31
0.0
  0
ARC
  5
281
  8
DETAIL
  6
CONTINUOUS
 62
     5
 10
153.19999999999999
 20
7.0
 30
0.0
 40
3.0
 50
0.0
 51
90.0
  0
ARC
  5
282
  8
DETAIL
  6
CONTINUOUS
 62
     5
 10
153.19999999999999
 20
-7.0
 30
0.0
 40
3.0
 50
270.0
 51
0.0
  0
LINE
  5
283
  8
DETAIL
  6
CONTINUOUS
 62
     5
 10
156.1999999999999
 20
7.0
 30
0.0
 11
156.1999999999999
 21
-7.0
 31
0.0
  0
CIRCLE
  5
284
  8
DETAIL
  6
CONTINUOUS
 62
     5
 10
208.0
 20
0.0
 30
0.0
 40
2.0
  0
CIRCLE
  5
285
  8
DETAIL
  6
CONTINUOUS
 62
     5
 10
208.0
 20
0.0
 30
0.0
 40
2.799999999999998
  0
CIRCLE
  5
286
  8
DETAIL
  6
CONTINUOUS
 62
     5
 10
208.0
 20
0.0
 30
0.0
 40
1.649999999999999
  0
LINE
  5
287
  8
DETAIL
  6
CONTINUOUS
 62
     5
 10
0.0
 20
-17.5
 30
0.0
 11
3.0
 21
-17.5
 31
0.0
  0
LINE
  5
288
  8
DETAIL
  6
CONTINUOUS
 62
     5
 10
0.0
 20
-18.5
 30
0.0
 11
3.0
 21
-18.5
 31
0.0
  0
LINE
  5
289
  8
DETAIL
  6
CONTINUOUS
 62
     5
 10
5.0
 20
6.149
 30
0.0
 11
5.0
 21
16.5
 31
0.0
  0
CIRCLE
  5
28A
  8
DETAIL
  6
CONTINUOUS
 62
     5
 10
195.6999999999999
 20
0.0
 30
0.0
 40
2.0
  0
CIRCLE
  5
28B
  8
DETAIL
  6
CONTINUOUS
 62
     5
 10
195.6999999999999
 20
0.0
 30
0.0
 40
2.799999999999998
  0
CIRCLE
  5
28C
  8
DETAIL
  6
CONTINUOUS
 62
     5
 10
195.6999999999999
 20
0.0
 30
0.0
 40
1.649999999999999
  0
LINE
  5
28D
  8
DETAIL
  6
CONTINUOUS
 62
     5
 10
5.0
 20
85.0
 30
0.0
 11
6.0
 21
85.0
 31
0.0
  0
LINE
  5
28E
  8
DETAIL
  6
CONTINUOUS
 62
     5
 10
5.0
 20
16.5
 30
0.0
 11
5.0
 21
85.0
 31
0.0
  0
LINE
  5
28F
  8
DETAIL
  6
CONTINUOUS
 62
     5
 10
6.0
 20
16.5
 30
0.0
 11
6.0
 21
85.0
 31
0.0
  0
LINE
  5
290
  8
DETAIL
  6
CONTINUOUS
 62
     5
 10
5.0
 20
-85.0
 30
0.0
 11
6.0
 21
-85.0
 31
0.0
  0
LINE
  5
291
  8
DETAIL
  6
CONTINUOUS
 62
     5
 10
6.0
 20
-16.5
 30
0.0
 11
6.0
 21
-85.0
 31
0.0
  0
LINE
  5
292
  8
DETAIL
  6
CONTINUOUS
 62
     5
 10
5.0
 20
-16.5
 30
0.0
 11
5.0
 21
-85.0
 31
0.0
  0
CIRCLE
  5
293
  8
FIX
  6
CONTINUOUS
 62
    11
 39
50.0
 10
5.0
 20
-70.0
 30
0.0
 40
7.5
  0
LINE
  5
294
  8
NOTE
  6
CONTINUOUS
 62
     4
 10
5.0
 20
-90.0
 30
0.0
 11
5.0
 21
-50.0
 31
0.0
  0
LINE
  5
295
  8
NOTE
  6
CONTINUOUS
 62
     4
 10
25.0
 20
-70.0
 30
0.0
 11
-15.0
 21
-70.0
 31
0.0
  0
CIRCLE
  5
296
  8
FIX
  6
CONTINUOUS
 62
    11
 39
50.0
 10
214.0
 20
-75.0
 30
0.0
 40
3.5
  0
LINE
  5
297
  8
NOTE
  6
CONTINUOUS
 62
     4
 10
234.0
 20
-75.0
 30
0.0
 11
194.0
 21
-75.0
 31
0.0
  0
LINE
  5
298
  8
NOTE
  6
CONTINUOUS
 62
     4
 10
214.0
 20
-95.0
 30
0.0
 11
214.0
 21
-55.0
 31
0.0
  0
CIRCLE
  5
299
  8
FIX
  6
CONTINUOUS
 62
    11
 39
50.0
 10
214.0
 20
-111.7499999999999
 30
0.0
 40
3.5
  0
LINE
  5
29A
  8
NOTE
  6
CONTINUOUS
 62
     4
 10
214.0
 20
-131.75
 30
0.0
 11
214.0
 21
-91.75
 31
0.0
  0
LINE
  5
29B
  8
NOTE
  6
CONTINUOUS
 62
     4
 10
234.0
 20
-111.7499999999999
 30
0.0
 11
194.0
 21
-111.7499999999999
 31
0.0
  0
CIRCLE
  5
29C
  8
FIX
  6
CONTINUOUS
 62
    11
 39
50.0
 10
214.0
 20
-111.7499999999999
 30
0.0
 40
3.0
  0
CIRCLE
  5
29D
  8
FIX
  6
CONTINUOUS
 62
    11
 39
50.0
 10
214.0
 20
75.0
 30
0.0
 40
3.5
  0
CIRCLE
  5
29E
  8
FIX
  6
CONTINUOUS
 62
    11
 39
50.0
 10
214.0
 20
111.7499999999999
 30
0.0
 40
3.0
  0
CIRCLE
  5
29F
  8
FIX
  6
CONTINUOUS
 62
    11
 39
50.0
 10
214.0
 20
111.7499999999999
 30
0.0
 40
3.5
  0
LINE
  5
2A0
  8
NOTE
  6
CONTINUOUS
 62
     4
 10
214.0
 20
131.75
 30
0.0
 11
214.0
 21
91.75
 31
0.0
  0
LINE
  5
2A1
  8
NOTE
  6
CONTINUOUS
 62
     4
 10
234.0
 20
111.7499999999999
 30
0.0
 11
194.0
 21
111.7499999999999
 31
0.0
  0
LINE
  5
2A2
  8
NOTE
  6
CONTINUOUS
 62
     4
 10
234.0
 20
75.0
 30
0.0
 11
194.0
 21
75.0
 31
0.0
  0
LINE
  5
2A3
  8
NOTE
  6
CONTINUOUS
 62
     4
 10
214.0
 20
95.0
 30
0.0
 11
214.0
 21
55.0
 31
0.0
  0
LINE
  5
2A4
  8
NOTE
  6
CONTINUOUS
 62
     4
 10
5.0
 20
90.0
 30
0.0
 11
5.0
 21
50.0
 31
0.0
  0
LINE
  5
2A5
  8
NOTE
  6
CONTINUOUS
 62
     4
 10
25.0
 20
70.0
 30
0.0
 11
-15.0
 21
70.0
 31
0.0
  0
CIRCLE
  5
2A6
  8
FIX
  6
CONTINUOUS
 62
    11
 39
50.0
 10
5.0
 20
70.0
 30
0.0
 40
7.5
  0
LINE
  5
2A7
  8
SIZE
  6
CONTINUOUS
 62
    30
 10
255.0
 20
75.0
 30
0.0
 11
541.76264400000002
 21
75.0
 31
0.0
  0
LINE
  5
2A8
  8
SIZE
  6
CONTINUOUS
 62
    30
 10
255.0
 20
-75.0
 30
0.0
 11
541.76264400000002
 21
-75.0
 31
0.0
  0
LINE
  5
2A9
  8
SIZE
  6
CONTINUOUS
 62
    30
 10
521.76264400000002
 20
63.0
 30
0.0
 11
521.76264400000002
 21
-63.0
 31
0.0
  0
LINE
  5
2AA
  8
SIZE
  6
CONTINUOUS
 62
    30
 10
521.76264400000002
 20
-332.30497000000003
 30
0.0
 11
521.76264400000002
 21
-75.0
 31
0.0
  0
TEXT
  5
2AB
  8
SIZE
  6
CONTINUOUS
 62
    30
 10
496.76264400000002
 20
-307.30497057142838
 30
0.0
 40
64.0
  1
150
 50
90.0
 41
0.9
 72
     1
 11
496.76264400000002
 21
-238.7335419999998
 31
0.0
  0
CIRCLE
  5
2AC
  8
SIZE
  6
CONTINUOUS
 62
    30
 10
521.76264400000002
 20
75.0
 30
0.0
 40
6.0
  0
LINE
  5
2AD
  8
SIZE
  6
CONTINUOUS
 62
    30
 10
521.76264400000002
 20
75.0
 30
0.0
 11
521.76264400000002
 21
63.0
 31
0.0
  0
CIRCLE
  5
2AE
  8
SIZE
  6
CONTINUOUS
 62
    30
 10
521.76264400000002
 20
-75.0
 30
0.0
 40
6.0
  0
LINE
  5
2AF
  8
SIZE
  6
CONTINUOUS
 62
    30
 10
521.76264400000002
 20
-75.0
 30
0.0
 11
521.76264400000002
 21
-63.0
 31
0.0
  0
LINE
  5
2B0
  8
SIZE
  6
CONTINUOUS
 62
    30
 10
5.0
 20
-105.0
 30
0.0
 11
5.0
 21
-379.22704599999992
 31
0.0
  0
LINE
  5
2B1
  8
SIZE
  6
CONTINUOUS
 62
    30
 10
214.0
 20
-130.0
 30
0.0
 11
214.0
 21
-379.22704599999992
 31
0.0
  0
LINE
  5
2B2
  8
SIZE
  6
CONTINUOUS
 62
    30
 10
17.0
 20
-359.22704599999992
 30
0.0
 11
203.0
 21
-359.22704599999992
 31
0.0
  0
CIRCLE
  5
2B3
  8
SIZE
  6
CONTINUOUS
 62
    30
 10
5.0
 20
-359.22704599999992
 30
0.0
 40
6.0
  0
LINE
  5
2B4
  8
SIZE
  6
CONTINUOUS
 62
    30
 10
5.0
 20
-359.22704599999992
 30
0.0
 11
17.0
 21
-359.22704599999992
 31
0.0
  0
CIRCLE
  5
2B5
  8
SIZE
  6
CONTINUOUS
 62
    30
 10
214.0
 20
-359.22704599999992
 30
0.0
 40
6.0
  0
LINE
  5
2B6
  8
SIZE
  6
CONTINUOUS
 62
    30
 10
214.0
 20
-359.22704599999992
 30
0.0
 11
202.0
 21
-359.22704599999992
 31
0.0
  0
TEXT
  5
2B7
  8
SIZE
  6
CONTINUOUS
 62
    30
 10
37.31428571428571
 20
-334.22704599999992
 30
0.0
 40
64.0
  1
209
 41
0.9
 72
     1
 11
110.0
 21
-334.22704599999992
 31
0.0
  0
LINE
  5
2B8
  8
SIZE
  6
CONTINUOUS
 62
    30
 10
181.0
 20
-109.4999999999999
 30
0.0
 11
181.0
 21
-258.005202
 31
0.0
  0
LINE
  5
2B9
  8
SIZE
  6
CONTINUOUS
 62
    30
 10
169.0
 20
-238.00520199999991
 30
0.0
 11
157.0
 21
-238.00520199999991
 31
0.0
  0
LINE
  5
2BA
  8
SIZE
  6
CONTINUOUS
 62
    30
 10
225.30000000000001
 20
-238.00520199999991
 30
0.0
 11
237.30000000000001
 21
-238.00520199999991
 31
0.0
  0
LINE
  5
2BB
  8
SIZE
  6
CONTINUOUS
 62
    30
 10
383.15842900000001
 20
-238.00520199999991
 30
0.0
 11
213.30000000000001
 21
-238.00520199999991
 31
0.0
  0
TEXT
  5
2BC
  8
SIZE
  6
CONTINUOUS
 62
    30
 10
264.9012855714285
 20
-213.00520199999991
 30
0.0
 40
64.0
  1
33
 41
0.9
 72
     1
 11
311.52985699999999
 21
-213.00520199999991
 31
0.0
  0
LINE
  5
2BD
  8
SIZE
  6
CONTINUOUS
 62
    30
 10
180.30000000000001
 20
-238.00520199999991
 30
0.0
 11
213.30000000000001
 21
-238.00520199999991
 31
0.0
  0
LINE
  5
2BE
  8
SIZE
  6
CONTINUOUS
 62
    30
 10
180.30000000000001
 20
-238.00520199999991
 30
0.0
 11
213.30000000000001
 21
-238.00520199999991
 31
0.0
  0
CIRCLE
  5
2BF
  8
SIZE
  6
CONTINUOUS
 62
    30
 10
181.0
 20
-238.00520199999991
 30
0.0
 40
6.0
  0
LINE
  5
2C0
  8
SIZE
  6
CONTINUOUS
 62
    30
 10
181.0
 20
-238.00520199999991
 30
0.0
 11
169.0
 21
-238.00520199999991
 31
0.0
  0
CIRCLE
  5
2C1
  8
SIZE
  6
CONTINUOUS
 62
    30
 10
213.30000000000001
 20
-238.00520199999991
 30
0.0
 40
6.0
  0
LINE
  5
2C2
  8
SIZE
  6
CONTINUOUS
 62
    30
 10
213.30000000000001
 20
-238.00520199999991
 30
0.0
 11
225.30000000000001
 21
-238.00520199999991
 31
0.0
  0
LINE
  5
2C3
  8
SIZE
  6
CONTINUOUS
 62
    30
 10
5.0
 20
-105.0
 30
0.0
 11
5.0
 21
-379.22704599999992
 31
0.0
  0
LINE
  5
2C4
  8
SIZE
  6
CONTINUOUS
 62
    30
 10
0.0
 20
-38.5
 30
0.0
 11
0.0
 21
-379.22704599999992
 31
0.0
  0
LINE
  5
2C5
  8
SIZE
  6
CONTINUOUS
 62
    30
 10
17.0
 20
-359.22704599999992
 30
0.0
 11
29.0
 21
-359.22704599999992
 31
0.0
  0
LINE
  5
2C6
  8
SIZE
  6
CONTINUOUS
 62
    30
 10
-12.0
 20
-359.22704599999992
 30
0.0
 11
-24.0
 21
-359.22704599999992
 31
0.0
  0
LINE
  5
2C7
  8
SIZE
  6
CONTINUOUS
 62
    30
 10
-121.92399999999979
 20
-359.22704599999992
 30
0.0
 11
0.0
 21
-359.22704599999992
 31
0.0
  0
TEXT
  5
2C8
  8
SIZE
  6
CONTINUOUS
 62
    30
 10
-96.923999999999964
 20
-334.22704599999992
 30
0.0
 40
64.0
  1
5
 41
0.9
 72
     1
 11
-77.723999999999975
 21
-334.22704599999992
 31
0.0
  0
LINE
  5
2C9
  8
SIZE
  6
CONTINUOUS
 62
    30
 10
5.0
 20
-359.22704599999992
 30
0.0
 11
0.0
 21
-359.22704599999992
 31
0.0
  0
LINE
  5
2CA
  8
SIZE
  6
CONTINUOUS
 62
    30
 10
5.0
 20
-359.22704599999992
 30
0.0
 11
0.0
 21
-359.22704599999992
 31
0.0
  0
CIRCLE
  5
2CB
  8
SIZE
  6
CONTINUOUS
 62
    30
 10
5.0
 20
-359.22704599999992
 30
0.0
 40
6.0
  0
LINE
  5
2CC
  8
SIZE
  6
CONTINUOUS
 62
    30
 10
5.0
 20
-359.22704599999992
 30
0.0
 11
17.0
 21
-359.22704599999992
 31
0.0
  0
CIRCLE
  5
2CD
  8
SIZE
  6
CONTINUOUS
 62
    30
 10
0.0
 20
-359.22704599999992
 30
0.0
 40
6.0
  0
LINE
  5
2CE
  8
SIZE
  6
CONTINUOUS
 62
    30
 10
0.0
 20
-359.22704599999992
 30
0.0
 11
-12.0
 21
-359.22704599999992
 31
0.0
  0
LINE
  5
2CF
  8
SIZE
  6
CONTINUOUS
 62
    30
 10
-35.0
 20
70.0
 30
0.0
 11
-98.314847999999998
 21
70.0
 31
0.0
  0
LINE
  5
2D0
  8
SIZE
  6
CONTINUOUS
 62
    30
 10
-35.0
 20
-70.0
 30
0.0
 11
-98.314847999999998
 21
-70.0
 31
0.0
  0
LINE
  5
2D1
  8
SIZE
  6
CONTINUOUS
 62
    30
 10
-78.314847999999998
 20
70.0
 30
0.0
 11
-78.314847999999998
 21
-70.0
 31
0.0
  0
CIRCLE
  5
2D2
  8
SIZE
  6
CONTINUOUS
 62
    30
 10
-78.314847999999998
 20
70.0
 30
0.0
 40
6.0
  0
CIRCLE
  5
2D3
  8
SIZE
  6
CONTINUOUS
 62
    30
 10
-78.314847999999998
 20
-70.0
 30
0.0
 40
6.0
  0
TEXT
  5
2D4
  8
SIZE
  6
CONTINUOUS
 62
    30
 10
-103.3148479999999
 20
-68.571428571428569
 30
0.0
 40
64.0
  1
140
 50
90.0
 41
0.9
 72
     1
 11
-103.3148479999999
 21
0.0
 31
0.0
  0
LINE
  5
2D5
  8
DETAIL
  6
CONTINUOUS
 62
     5
 10
181.0
 20
102.0
 30
0.0
 11
214.0
 21
102.0
 31
0.0
  0
LINE
  5
2D6
  8
DETAIL
  6
CONTINUOUS
 62
     5
 10
181.0
 20
-102.0
 30
0.0
 11
214.0
 21
-102.0
 31
0.0
  0
LINE
  5
2D7
  8
SIZE
  6
CONTINUOUS
 62
    30
 10
235.0
 20
102.0
 30
0.0
 11
662.53726500000005
 21
102.0
 31
0.0
  0
LINE
  5
2D8
  8
SIZE
  6
CONTINUOUS
 62
    30
 10
235.0
 20
-102.0
 30
0.0
 11
662.53726500000005
 21
-102.0
 31
0.0
  0
LINE
  5
2D9
  8
SIZE
  6
CONTINUOUS
 62
    30
 10
642.53726500000005
 20
90.25
 30
0.0
 11
642.53726500000005
 21
-90.25
 31
0.0
  0
LINE
  5
2DA
  8
SIZE
  6
CONTINUOUS
 62
    30
 10
642.53726500000005
 20
-385.2962799710657
 30
0.0
 11
642.53726500000005
 21
-102.2499999999999
 31
0.0
  0
TEXT
  5
2DB
  8
SIZE
  6
CONTINUOUS
 62
    30
 10
617.53726500000005
 20
-380.32946914921138
 30
0.0
 40
64.0
  1
□204
 50
90.0
 41
0.9
 72
     1
 11
617.53726500000005
 21
-268.42089772064008
 31
0.0
  0
CIRCLE
  5
2DC
  8
SIZE
  6
CONTINUOUS
 62
    30
 10
642.53726500000005
 20
102.0
 30
0.0
 40
6.0
  0
LINE
  5
2DD
  8
SIZE
  6
CONTINUOUS
 62
    30
 10
642.53726500000005
 20
102.0
 30
0.0
 11
642.53726500000005
 21
90.0
 31
0.0
  0
CIRCLE
  5
2DE
  8
SIZE
  6
CONTINUOUS
 62
    30
 10
642.53726500000005
 20
-102.0
 30
0.0
 40
6.0
  0
LINE
  5
2DF
  8
SIZE
  6
CONTINUOUS
 62
    30
 10
642.53726500000005
 20
-102.0
 30
0.0
 11
642.53726500000005
 21
-90.0
 31
0.0
  0
LINE
  5
2E0
  8
SIZE
  6
CONTINUOUS
 62
    30
 10
-14.0
 20
85.0
 30
0.0
 11
-208.927785
 21
85.0
 31
0.0
  0
LINE
  5
2E1
  8
SIZE
  6
CONTINUOUS
 62
    30
 10
-14.0
 20
-85.0
 30
0.0
 11
-208.927785
 21
-85.0
 31
0.0
  0
LINE
  5
2E2
  8
SIZE
  6
CONTINUOUS
 62
    30
 10
-188.927785
 20
85.0
 30
0.0
 11
-188.927785
 21
-85.0
 31
0.0
  0
CIRCLE
  5
2E3
  8
SIZE
  6
CONTINUOUS
 62
    30
 10
-188.927785
 20
85.0
 30
0.0
 40
6.0
  0
CIRCLE
  5
2E4
  8
SIZE
  6
CONTINUOUS
 62
    30
 10
-188.927785
 20
-85.0
 30
0.0
 40
6.0
  0
TEXT
  5
2E5
  8
SIZE
  6
CONTINUOUS
 62
    30
 10
-213.927785
 20
-108.89142857142851
 30
0.0
 40
64.0
  1
φ170
 50
90.0
 41
0.9
 72
     1
 11
-213.927785
 21
0.0
 31
0.0
  0
CIRCLE
  5
2E6
  8
ARRANGE
  6
CONTINUOUS
 62
     1
 39
50.0
 10
0.0
 20
0.0
 30
0.0
 40
40.0
  0
TEXT
  5
2E7
  8
NOTE
  6
CONTINUOUS
 62
     4
 10
-741.09167500000001
 20
206.583867
 30
0.0
 40
64.0
  1
AH 2-φ15×22
 41
0.9
  0
LINE
  5
2E8
  8
NOTE
  6
CONTINUOUS
 62
     4
 10
-753.64096700000005
 20
188.62872300000001
 30
0.0
 11
-106.297006
 21
188.62872300000001
 31
0.0
  0
LINE
  5
2E9
  8
NOTE
  6
CONTINUOUS
 62
     4
 10
-106.297006
 20
188.62872300000001
 30
0.0
 11
5.0
 21
70.0
 31
0.0
  0
LINE
  5
2EA
  8
NOTE
  6
CONTINUOUS
 62
     4
 10
-28.804539999999999
 20
91.383476000000016
 30
0.0
 11
5.0
 21
70.0
 31
0.0
  0
LINE
  5
2EB
  8
NOTE
  6
CONTINUOUS
 62
     4
 10
5.0
 20
70.0
 30
0.0
 11
-13.583851999999981
 21
105.42090399999989
 31
0.0
  0
TEXT
  5
2EC
  8
NOTE
  6
CONTINUOUS
 62
     4
 10
331.84927699999992
 20
193.05749199999991
 30
0.0
 40
64.0
  1
2-φ6
 41
0.9
  0
LINE
  5
2ED
  8
NOTE
  6
CONTINUOUS
 62
     4
 10
570.57890299999997
 20
177.40753799999999
 30
0.0
 11
325.08431999999982
 21
177.40753799999999
 31
0.0
  0
LINE
  5
2EE
  8
NOTE
  6
CONTINUOUS
 62
     4
 10
324.08431999999999
 20
177.40753799999999
 30
0.0
 11
214.0
 21
75.0
 31
0.0
  0
LINE
  5
2EF
  8
NOTE
  6
CONTINUOUS
 62
     4
 10
234.958167
 20
109.069858
 30
0.0
 11
214.0
 21
75.0
 31
0.0
  0
LINE
  5
2F0
  8
NOTE
  6
CONTINUOUS
 62
     4
 10
214.0
 20
75.0
 30
0.0
 11
249.18523399999981
 21
94.026279000000002
 31
0.0
  0
TEXT
  5
2F1
  8
NOTE
  6
CONTINUOUS
 62
     4
 10
324.00181099999992
 20
314.26918799999999
 30
0.0
 40
64.0
  1
8-φ7×12
 41
0.9
  0
LINE
  5
2F2
  8
NOTE
  6
CONTINUOUS
 62
     4
 10
319.43886800000001
 20
288.25252899999992
 30
0.0
 11
732.94789800000001
 21
288.25252899999992
 31
0.0
  0
LINE
  5
2F3
  8
NOTE
  6
CONTINUOUS
 62
     4
 39
50.0
 10
214.0
 20
111.7499999999999
 30
0.0
 11
318.43886800000001
 21
288.25252899999992
 31
0.0
  0
LINE
  5
2F4
  8
NOTE
  6
CONTINUOUS
 62
     4
 10
225.39556400000001
 20
150.09241900000001
 30
0.0
 11
214.0
 21
111.7499999999999
 31
0.0
  0
LINE
  5
2F5
  8
NOTE
  6
CONTINUOUS
 62
     4
 10
214.0
 20
111.7499999999999
 30
0.0
 11
243.04005799999999
 21
139.25772699999979
 31
0.0
  0
LINE
  5
2F6
  8
SIZE
  6
CONTINUOUS
 62
    30
 10
235.0
 20
122.5
 30
0.0
 11
790.42093099999988
 21
122.5
 31
0.0
  0
LINE
  5
2F7
  8
SIZE
  6
CONTINUOUS
 62
    30
 10
235.0
 20
-122.5
 30
0.0
 11
790.42093099999988
 21
-122.5
 31
0.0
  0
LINE
  5
2F8
  8
SIZE
  6
CONTINUOUS
 62
    30
 10
770.420931
 20
122.5
 30
0.0
 11
770.420931
 21
-122.5
 31
0.0
  0
CIRCLE
  5
2F9
  8
SIZE
  6
CONTINUOUS
 62
    30
 10
770.420931
 20
122.5
 30
0.0
 40
6.0
  0
CIRCLE
  5
2FA
  8
SIZE
  6
CONTINUOUS
 62
    30
 10
770.420931
 20
-122.5
 30
0.0
 40
6.0
  0
TEXT
  5
2FB
  8
SIZE
  6
CONTINUOUS
 62
    30
 10
745.420931
 20
-110.5371428571428
 30
0.0
 40
64.0
  1
□245
 50
90.0
 41
0.9
 72
     1
 11
745.420931
 21
0.0
 31
0.0
  0
TEXT
  5
2FC
  8
ETC
  6
CONTINUOUS
 62
    61
 10
564.08362929662121
 20
459.3084352753412
 30
0.0
 40
50.0
  1
P-207TD
 41
0.9
  0
TEXT
  5
2FD
  8
ETC
  6
CONTINUOUS
 62
    61
 10
439.6898722929057
 20
536.22149877478375
 30
0.0
 40
64.0
  1
システム部材
 41
0.9
  0
TEXT
  5
2FE
  8
ETC
  6
CONTINUOUS
 62
    61
 10
454.5819479807048
 20
621.97064600066551
 30
0.0
 40
64.0
  1
P-207TD_4
 41
0.9
  0
LINE
  5
2FF
  8
OUTLINE
  6
CONTINUOUS
 62
     3
 10
4.0
 20
10.0
 30
0.0
 11
4.0
 21
-10.0
 31
0.0
  0
LINE
  5
300
  8
OUTLINE
  6
CONTINUOUS
 62
     3
 10
4.3999999999999764
 20
-4.9000000000000004
 30
0.0
 11
4.3999999999999764
 21
4.9000000000000004
 31
0.0
  0
LINE
  5
301
  8
OUTLINE
  6
CONTINUOUS
 62
     3
 10
5.3999999999999764
 20
0.0
 30
0.0
 11
5.3999999999999764
 21
4.7000000000000002
 31
0.0
  0
LINE
  5
302
  8
OUTLINE
  6
CONTINUOUS
 62
     3
 10
3.0
 20
1.5
 30
0.0
 11
3.0
 21
-1.5
 31
0.0
  0
LINE
  5
303
  8
OUTLINE
  6
CONTINUOUS
 62
     3
 10
181.0
 20
102.0
 30
0.0
 11
181.0
 21
-102.0
 31
0.0
  0
LINE
  5
304
  8
OUTLINE
  6
CONTINUOUS
 62
     3
 10
214.0
 20
102.0
 30
0.0
 11
214.0
 21
-102.0
 31
0.0
  0
LINE
  5
305
  8
OUTLINE
  6
CONTINUOUS
 62
     3
 10
-0.3694889999999873
 20
1.5
 30
0.0
 11
-0.3694889999999873
 21
-1.5
 31
0.0
  0
POINT
  5
306
  8
ARRANGE
  6
CONTINUOUS
 62
     1
 10
0.0
 20
0.0
 30
0.0
 39
50.0
  0
LINE
  5
307
  8
OUTLINE
  6
CONTINUOUS
 62
     3
 39
50.0
 10
212.80000000000001
 20
-122.5
 30
0.0
 11
214.0
 21
-122.5
 31
0.0
  0
LINE
  5
308
  8
OUTLINE
  6
CONTINUOUS
 62
     3
 10
24.5
 20
-20.5
 30
0.0
 11
181.0
 21
-20.5
 31
0.0
  0
LINE
  5
309
  8
OUTLINE
  6
CONTINUOUS
 62
     3
 10
5.0
 20
-16.5
 30
0.0
 11
5.0
 21
-85.0
 31
0.0
  0
LINE
  5
30A
  8
OUTLINE
  6
CONTINUOUS
 62
     3
 10
6.0
 20
-16.5
 30
0.0
 11
6.0
 21
-85.0
 31
0.0
  0
LINE
  5
30B
  8
OUTLINE
  6
CONTINUOUS
 62
     3
 10
5.0
 20
-85.0
 30
0.0
 11
6.0
 21
-85.0
 31
0.0
  0
LINE
  5
30C
  8
OUTLINE
  6
CONTINUOUS
 62
     3
 10
5.0
 20
-16.5
 30
0.0
 11
5.0
 21
-6.149
 31
0.0
  0
LINE
  5
30D
  8
OUTLINE
  6
CONTINUOUS
 62
     3
 10
4.0
 20
-16.5
 30
0.0
 11
4.0
 21
-10.0
 31
0.0
  0
ARC
  5
30E
  8
OUTLINE
  6
CONTINUOUS
 62
     3
 10
3.0
 20
-16.5
 30
0.0
 40
1.0
 50
270.0
 51
0.0
  0
ARC
  5
30F
  8
OUTLINE
  6
CONTINUOUS
 62
     3
 10
3.0
 20
-16.5
 30
0.0
 40
2.0
 50
270.0
 51
0.0
  0
LINE
  5
310
  8
OUTLINE
  6
CONTINUOUS
 62
     3
 10
22.5
 20
-18.5
 30
0.0
 11
22.5
 21
-16.5
 31
0.0
  0
ARC
  5
311
  8
OUTLINE
  6
CONTINUOUS
 62
     3
 10
24.5
 20
-18.5
 30
0.0
 40
2.0
 50
180.0
 51
270.0
  0
LINE
  5
312
  8
OUTLINE
  6
CONTINUOUS
 62
     3
 10
7.0
 20
-16.5
 30
0.0
 11
22.5
 21
-16.5
 31
0.0
  0
LINE
  5
313
  8
OUTLINE
  6
CONTINUOUS
 62
     3
 10
5.3999999999999764
 20
-4.7000000000000002
 30
0.0
 11
5.3999999999999764
 21
0.0
 31
0.0
  0
LINE
  5
314
  8
OUTLINE
  6
CONTINUOUS
 62
     3
 10
4.3999999999999764
 20
-2.5
 30
0.0
 11
5.3999999999999764
 21
-2.5
 31
0.0
  0
ARC
  5
315
  8
OUTLINE
  6
CONTINUOUS
 62
     3
 10
6.0
 20
-4.9000000000000004
 30
0.0
 40
1.6000000000000001
 50
180.0
 51
247.38013499999991
  0
ARC
  5
316
  8
OUTLINE
  6
CONTINUOUS
 62
     3
 10
5.3999999999999764
 20
-7.0999999999999979
 30
0.0
 40
1.6000000000000001
 50
0.0
 51
67.380134999999996
  0
ARC
  5
317
  8
OUTLINE
  6
CONTINUOUS
 62
     3
 10
5.0
 20
-7.2999999999999989
 30
0.0
 40
1.0
 50
0.0
 51
67.380134999999996
  0
ARC
  5
318
  8
OUTLINE
  6
CONTINUOUS
 62
     3
 10
6.3999999999999764
 20
-4.7000000000000002
 30
0.0
 40
1.0
 50
180.0
 51
247.38013499999991
  0
LINE
  5
319
  8
OUTLINE
  6
CONTINUOUS
 62
     3
 10
6.0
 20
-29.905246000000002
 30
0.0
 11
7.0
 21
-29.905246000000002
 31
0.0
  0
LINE
  5
31A
  8
OUTLINE
  6
CONTINUOUS
 62
     3
 10
7.0
 20
-7.0999999999999979
 30
0.0
 11
7.0
 21
-29.905246000000002
 31
0.0
  0
LINE
  5
31B
  8
OUTLINE
  6
CONTINUOUS
 62
     3
 10
6.0
 20
-7.2999999999999989
 30
0.0
 11
6.0
 21
-29.905246000000002
 31
0.0
  0
LINE
  5
31C
  8
OUTLINE
  6
CONTINUOUS
 62
     3
 10
3.0
 20
-1.5
 30
0.0
 11
4.0
 21
-2.0
 31
0.0
  0
LINE
  5
31D
  8
OUTLINE
  6
CONTINUOUS
 62
     3
 10
0.0
 20
-18.5
 30
0.0
 11
0.0
 21
-17.5
 31
0.0
  0
LINE
  5
31E
  8
OUTLINE
  6
CONTINUOUS
 62
     3
 10
0.0
 20
-18.5
 30
0.0
 11
3.0
 21
-18.5
 31
0.0
  0
LINE
  5
31F
  8
OUTLINE
  6
CONTINUOUS
 62
     3
 10
0.0
 20
-17.5
 30
0.0
 11
3.0
 21
-17.5
 31
0.0
  0
LINE
  5
320
  8
OUTLINE
  6
CONTINUOUS
 62
     3
 10
-0.3694889999999873
 20
-1.5
 30
0.0
 11
3.0
 21
-1.5
 31
0.0
  0
LINE
  5
321
  8
OUTLINE
  6
CONTINUOUS
 62
     3
 10
-0.3694889999999873
 20
-1.0
 30
0.0
 11
3.0
 21
-1.0
 31
0.0
  0
LINE
  5
322
  8
OUTLINE
  6
CONTINUOUS
 62
     3
 10
212.80000000000001
 20
-122.5
 30
0.0
 11
212.80000000000001
 21
-102.2499999999999
 31
0.0
  0
LINE
  5
323
  8
OUTLINE
  6
CONTINUOUS
 62
     3
 10
181.0
 20
-102.0
 30
0.0
 11
214.0
 21
-102.0
 31
0.0
  0
LINE
  5
324
  8
OUTLINE
  6
CONTINUOUS
 62
     3
 10
214.0
 20
-102.0
 30
0.0
 11
214.0
 21
-122.5
 31
0.0
  0
LINE
  5
325
  8
OUTLINE
  6
CONTINUOUS
 62
     3
 10
24.5
 20
20.5
 30
0.0
 11
181.0
 21
20.5
 31
0.0
  0
LINE
  5
326
  8
OUTLINE
  6
CONTINUOUS
 62
     3
 10
6.0
 20
16.5
 30
0.0
 11
6.0
 21
85.0
 31
0.0
  0
LINE
  5
327
  8
OUTLINE
  6
CONTINUOUS
 62
     3
 10
5.0
 20
16.5
 30
0.0
 11
5.0
 21
85.0
 31
0.0
  0
LINE
  5
328
  8
OUTLINE
  6
CONTINUOUS
 62
     3
 10
5.0
 20
6.149
 30
0.0
 11
5.0
 21
16.5
 31
0.0
  0
LINE
  5
329
  8
OUTLINE
  6
CONTINUOUS
 62
     3
 10
7.0
 20
16.5
 30
0.0
 11
22.5
 21
16.5
 31
0.0
  0
LINE
  5
32A
  8
OUTLINE
  6
CONTINUOUS
 62
     3
 10
22.5
 20
18.5
 30
0.0
 11
22.5
 21
16.5
 31
0.0
  0
ARC
  5
32B
  8
OUTLINE
  6
CONTINUOUS
 62
     3
 10
24.5
 20
18.5
 30
0.0
 40
2.0
 50
90.0
 51
180.0
  0
LINE
  5
32C
  8
OUTLINE
  6
CONTINUOUS
 62
     3
 10
4.0
 20
16.5
 30
0.0
 11
4.0
 21
10.0
 31
0.0
  0
ARC
  5
32D
  8
OUTLINE
  6
CONTINUOUS
 62
     3
 10
3.0
 20
16.5
 30
0.0
 40
2.0
 50
0.0
 51
90.0
  0
ARC
  5
32E
  8
OUTLINE
  6
CONTINUOUS
 62
     3
 10
3.0
 20
16.5
 30
0.0
 40
1.0
 50
0.0
 51
90.0
  0
LINE
  5
32F
  8
OUTLINE
  6
CONTINUOUS
 62
     3
 10
4.3999999999999764
 20
2.5
 30
0.0
 11
5.3999999999999764
 21
2.5
 31
0.0
  0
LINE
  5
330
  8
OUTLINE
  6
CONTINUOUS
 62
     3
 10
6.0
 20
29.905246000000002
 30
0.0
 11
7.0
 21
29.905246000000002
 31
0.0
  0
LINE
  5
331
  8
OUTLINE
  6
CONTINUOUS
 62
     3
 10
6.0
 20
7.2999999999999989
 30
0.0
 11
6.0
 21
29.905246000000002
 31
0.0
  0
LINE
  5
332
  8
OUTLINE
  6
CONTINUOUS
 62
     3
 10
7.0
 20
7.0999999999999979
 30
0.0
 11
7.0
 21
29.905246000000002
 31
0.0
  0
ARC
  5
333
  8
OUTLINE
  6
CONTINUOUS
 62
     3
 10
6.0
 20
4.9000000000000004
 30
0.0
 40
1.6000000000000001
 50
112.61986499999981
 51
180.0
  0
ARC
  5
334
  8
OUTLINE
  6
CONTINUOUS
 62
     3
 10
5.3999999999999764
 20
7.0999999999999979
 30
0.0
 40
1.6000000000000001
 50
292.61986499999989
 51
0.0
  0
ARC
  5
335
  8
OUTLINE
  6
CONTINUOUS
 62
     3
 10
6.3999999999999764
 20
4.7000000000000002
 30
0.0
 40
1.0
 50
112.61986499999981
 51
180.0
  0
ARC
  5
336
  8
OUTLINE
  6
CONTINUOUS
 62
     3
 10
5.0
 20
7.2999999999999989
 30
0.0
 40
1.0
 50
292.61986499999989
 51
0.0
  0
LINE
  5
337
  8
OUTLINE
  6
CONTINUOUS
 62
     3
 10
3.0
 20
1.5
 30
0.0
 11
4.0
 21
2.0
 31
0.0
  0
LINE
  5
338
  8
OUTLINE
  6
CONTINUOUS
 62
     3
 10
0.0
 20
18.5
 30
0.0
 11
0.0
 21
17.5
 31
0.0
  0
LINE
  5
339
  8
OUTLINE
  6
CONTINUOUS
 62
     3
 10
0.0
 20
18.5
 30
0.0
 11
3.0
 21
18.5
 31
0.0
  0
LINE
  5
33A
  8
OUTLINE
  6
CONTINUOUS
 62
     3
 10
0.0
 20
17.5
 30
0.0
 11
3.0
 21
17.5
 31
0.0
  0
LINE
  5
33B
  8
OUTLINE
  6
CONTINUOUS
 62
     3
 10
-0.3694889999999873
 20
1.5
 30
0.0
 11
3.0
 21
1.5
 31
0.0
  0
LINE
  5
33C
  8
OUTLINE
  6
CONTINUOUS
 62
     3
 10
-0.3694889999999873
 20
1.0
 30
0.0
 11
3.0
 21
1.0
 31
0.0
  0
LINE
  5
33D
  8
OUTLINE
  6
CONTINUOUS
 62
     3
 10
5.0
 20
85.0
 30
0.0
 11
6.0
 21
85.0
 31
0.0
  0
LINE
  5
33E
  8
OUTLINE
  6
CONTINUOUS
 62
     3
 10
213.30000000000001
 20
122.5
 30
0.0
 11
213.80000000000001
 21
122.5
 31
0.0
  0
LINE
  5
33F
  8
OUTLINE
  6
CONTINUOUS
 62
     3
 10
213.30000000000001
 20
122.5
 30
0.0
 11
212.80000000000001
 21
122.5
 31
0.0
  0
LINE
  5
340
  8
OUTLINE
  6
CONTINUOUS
 62
     3
 10
213.30000000000001
 20
122.5
 30
0.0
 11
214.0
 21
122.5
 31
0.0
  0
LINE
  5
341
  8
OUTLINE
  6
CONTINUOUS
 62
     3
 10
181.0
 20
102.0
 30
0.0
 11
214.0
 21
102.0
 31
0.0
  0
LINE
  5
342
  8
OUTLINE
  6
CONTINUOUS
 62
     3
 10
212.80000000000001
 20
122.5
 30
0.0
 11
212.80000000000001
 21
102.0
 31
0.0
  0
LINE
  5
343
  8
OUTLINE
  6
CONTINUOUS
 62
     3
 10
214.0
 20
102.0
 30
0.0
 11
214.0
 21
122.5
 31
0.0
  0
ENDSEC
  0
EOF
