  0
SECTION
  2
HEADER
  9
$ACADVER
  1
AC1009
  9
$INSBASE
 10
0.0
 20
0.0
 30
0.0
  9
$EXTMIN
 10
-635.81999077673572
 20
-414.96275681415858
 30
-0.0030518556252446
  9
$EXTMAX
 10
1189.6133540426531
 20
674.51477862721549
 30
50.003052088470113
  9
$LIMMIN
 10
-2970.0
 20
-2100.0
  9
$LIMMAX
 10
2970.0
 20
2100.0
  9
$ORTHOMODE
 70
     1
  9
$REGENMODE
 70
     0
  9
$FILLMODE
 70
     1
  9
$QTEXTMODE
 70
     0
  9
$MIRRTEXT
 70
     0
  9
$DRAGMODE
 70
     2
  9
$LTSCALE
 40
20.0
  9
$OSMODE
 70
    37
  9
$ATTMODE
 70
     1
  9
$TEXTSIZE
 40
64.0
  9
$TRACEWID
 40
0.05
  9
$TEXTSTYLE
  7
STANDARD
  9
$CLAYER
  8
SIZE
  9
$CELTYPE
  6
CONTINUOUS
  9
$CECOLOR
 62
    30
  9
$DIMSCALE
 40
1.0
  9
$DIMASZ
 40
12.0
  9
$DIMEXO
 40
20.0
  9
$DIMDLI
 40
200.0
  9
$DIMRND
 40
0.0
  9
$DIMDLE
 40
0.0
  9
$DIMEXE
 40
20.0
  9
$DIMTP
 40
0.0
  9
$DIMTM
 40
0.0
  9
$DIMTXT
 40
64.0
  9
$DIMCEN
 40
0.09
  9
$DIMTSZ
 40
0.0
  9
$DIMTOL
 70
     0
  9
$DIMLIM
 70
     0
  9
$DIMTIH
 70
     0
  9
$DIMTOH
 70
     0
  9
$DIMSE1
 70
     0
  9
$DIMSE2
 70
     0
  9
$DIMTAD
 70
     1
  9
$DIMZIN
 70
     8
  9
$DIMBLK
  1
DOT1
  9
$DIMASO
 70
     1
  9
$DIMSHO
 70
     0
  9
$DIMPOST
  1

  9
$DIMAPOST
  1

  9
$DIMALT
 70
     0
  9
$DIMALTD
 70
     2
  9
$DIMALTF
 40
25.399999999999999
  9
$DIMLFAC
 40
1.0
  9
$DIMTOFL
 70
     1
  9
$DIMTVP
 40
0.0
  9
$DIMTIX
 70
     1
  9
$DIMSOXD
 70
     0
  9
$DIMSAH
 70
     1
  9
$DIMBLK1
  1
ORIGIN
  9
$DIMBLK2
  1
ORIGIN
  9
$DIMSTYLE
  2
STANDARD
  9
$DIMCLRD
 70
     7
  9
$DIMCLRE
 70
     7
  9
$DIMCLRT
 70
     7
  9
$DIMTFAC
 40
1.0
  9
$DIMGAP
 40
25.0
  9
$LUNITS
 70
     2
  9
$LUPREC
 70
     4
  9
$SKETCHINC
 40
0.1
  9
$FILLETRAD
 40
5.0
  9
$AUNITS
 70
     1
  9
$AUPREC
 70
     3
  9
$MENU
  1
ACAD
  9
$ELEVATION
 40
0.0
  9
$PELEVATION
 40
0.0
  9
$THICKNESS
 40
50.0
  9
$LIMCHECK
 70
     0
  9
$BLIPMODE
 70
     0
  9
$CHAMFERA
 40
0.0
  9
$CHAMFERB
 40
0.0
  9
$SKPOLY
 70
     0
  9
$TDCREATE
 40
2453070.5796143981
  9
$TDUPDATE
 40
2454839.5787016321
  9
$TDINDWG
 40
0.1069247338
  9
$TDUSRTIMER
 40
0.1069245486
  9
$USRTIMER
 70
     1
  9
$ANGBASE
 50
0.0
  9
$ANGDIR
 70
     0
  9
$PDMODE
 70
     3
  9
$PDSIZE
 40
-2.0
  9
$PLINEWID
 40
0.0
  9
$COORDS
 70
     0
  9
$SPLFRAME
 70
     0
  9
$SPLINETYPE
 70
     6
  9
$SPLINESEGS
 70
     8
  9
$ATTDIA
 70
     0
  9
$ATTREQ
 70
     1
  9
$HANDLING
 70
     1
  9
$HANDSEED
  5
1A4
  9
$SURFTAB1
 70
     6
  9
$SURFTAB2
 70
     6
  9
$SURFTYPE
 70
     6
  9
$SURFU
 70
     6
  9
$SURFV
 70
     6
  9
$UCSNAME
  2

  9
$UCSORG
 10
0.0
 20
0.0
 30
0.0
  9
$UCSXDIR
 10
1.0
 20
0.0
 30
0.0
  9
$UCSYDIR
 10
0.0
 20
1.0
 30
0.0
  9
$PUCSNAME
  2

  9
$PUCSORG
 10
0.0
 20
0.0
 30
0.0
  9
$PUCSXDIR
 10
1.0
 20
0.0
 30
0.0
  9
$PUCSYDIR
 10
0.0
 20
1.0
 30
0.0
  9
$USERI1
 70
     0
  9
$USERI2
 70
     0
  9
$USERI3
 70
     0
  9
$USERI4
 70
     0
  9
$USERI5
 70
     0
  9
$USERR1
 40
20.0
  9
$USERR2
 40
0.0
  9
$USERR3
 40
0.0
  9
$USERR4
 40
0.0
  9
$USERR5
 40
0.0
  9
$WORLDVIEW
 70
     1
  9
$SHADEDGE
 70
     3
  9
$SHADEDIF
 70
    70
  9
$TILEMODE
 70
     1
  9
$MAXACTVP
 70
    48
  9
$PLIMCHECK
 70
     0
  9
$PEXTMIN
 10
-1.0000000000000000E+020
 20
-1.0000000000000000E+020
 30
-1.0000000000000000E+020
  9
$PEXTMAX
 10
1.0000000000000000E+020
 20
1.0000000000000000E+020
 30
1.0000000000000000E+020
  9
$PLIMMIN
 10
0.0
 20
0.0
  9
$PLIMMAX
 10
12.0
 20
9.0
  9
$UNITMODE
 70
     0
  9
$VISRETAIN
 70
     0
  9
$PLINEGEN
 70
     0
  9
$PSLTSCALE
 70
     0
  0
ENDSEC
  0
SECTION
  2
TABLES
  0
TABLE
  2
VPORT
 70
     1
  0
VPORT
  2
*ACTIVE
 70
     0
 10
0.0
 20
0.0
 11
1.0
 21
1.0
 12
350.66865643532788
 22
90.271137556617191
 13
0.0
 23
0.0
 14
1.0
 24
1.0
 15
0.0
 25
0.0
 16
0.0
 26
0.0
 36
1.0
 17
0.0
 27
0.0
 37
0.0
 40
1540.102172827668
 41
1.3387096774193541
 42
50.0
 43
0.0
 44
0.0
 50
0.0
 51
0.0
 71
     0
 72
  1000
 73
     1
 74
     0
 75
     0
 76
     0
 77
     0
 78
     0
  0
ENDTAB
  0
TABLE
  2
LTYPE
 70
     3
  0
LTYPE
  2
CONTINUOUS
 70
     0
  3
実線
 72
    65
 73
     0
 40
0.0
  0
LTYPE
  2
DASHDOT
 70
     0
  3
____ _ ____ _ ____ _ ____ _ ____ _ ____ _ ____
 72
    65
 73
     4
 40
5.5
 49
4.0
 49
-0.6
 49
0.3
 49
-0.6
  0
ENDTAB
  0
TABLE
  2
LAYER
 70
    12
  0
LAYER
  2
0
 70
     0
 62
     7
  6
CONTINUOUS
  0
LAYER
  2
SIZE
 70
     0
 62
    30
  6
CONTINUOUS
  0
LAYER
  2
BASIS
 70
     0
 62
     6
  6
DASHDOT
  0
LAYER
  2
OUTLINE
 70
     0
 62
     3
  6
CONTINUOUS
  0
LAYER
  2
DETAIL
 70
     0
 62
     5
  6
CONTINUOUS
  0
LAYER
  2
ARRANGE
 70
     0
 62
     1
  6
CONTINUOUS
  0
LAYER
  2
DEFPOINTS
 70
     0
 62
     7
  6
CONTINUOUS
  0
LAYER
  2
ETC
 70
     0
 62
    61
  6
CONTINUOUS
  0
LAYER
  2
FIX
 70
     0
 62
    11
  6
CONTINUOUS
  0
LAYER
  2
NOTE
 70
     0
 62
     4
  6
CONTINUOUS
  0
LAYER
  2
SERVICESPACE
 70
     0
 62
     2
  6
DASHDOT
  0
LAYER
  2
SYMBOLLINE
 70
     0
 62
    15
  6
CONTINUOUS
  0
ENDTAB
  0
TABLE
  2
STYLE
 70
     2
  0
STYLE
  2
STANDARD
 70
     0
 40
64.0
 41
0.9
 50
0.0
 71
     0
 42
64.0
  3
SIMPLEX.shx
  4
BIGFONT.shx
  0
STYLE
  2
ANNOTATIVE
 70
     0
 40
0.0
 41
1.0
 50
0.0
 71
     0
 42
0.2
  3
txt
  4

  0
ENDTAB
  0
TABLE
  2
VIEW
 70
     1
  0
VIEW
  2
ALL
 70
     0
 40
4282.6198079999986
 10
0.0
 20
41.309903999999989
 41
5940.0
 11
0.0
 21
0.0
 31
1.0
 12
0.0
 22
0.0
 32
0.0
 42
50.0
 43
0.0
 44
0.0
 50
0.0
 71
     0
  0
ENDTAB
  0
TABLE
  2
UCS
 70
     0
  0
ENDTAB
  0
TABLE
  2
APPID
 70
     5
  0
APPID
  2
ACAD
 70
     0
  0
APPID
  2
ACADANNOTATIVE
 70
     0
  0
APPID
  2
ACAD_MLEADERVER
 70
     0
  0
APPID
  2
AUTOCAD_POSTSCRIPT_FIGURE
 70
     0
  0
APPID
  2
ACAD_EXEMPT_FROM_CAD_STANDARDS
 70
     0
  0
ENDTAB
  0
TABLE
  2
DIMSTYLE
 70
     2
  0
DIMSTYLE
  2
STANDARD
 70
     0
  3

  4

  5

  6

  7

 40
1.0
 41
0.18
 42
0.0625
 43
0.38
 44
0.18
 45
0.0
 46
0.0
 47
0.0
 48
0.0
140
0.18
141
0.09
142
0.0
143
25.399999999999999
144
1.0
145
0.0
146
1.0
147
0.09
 71
     0
 72
     0
 73
     1
 74
     1
 75
     0
 76
     0
 77
     0
 78
     0
170
     0
171
     2
172
     0
173
     0
174
     0
175
     0
176
     7
177
     7
178
     7
  0
DIMSTYLE
  2
ANNOTATIVE
 70
     0
  3

  4

  5

  6

  7

 40
1.0
 41
0.18
 42
0.0625
 43
0.38
 44
0.18
 45
0.0
 46
0.0
 47
0.0
 48
0.0
140
0.18
141
0.09
142
0.0
143
25.399999999999999
144
1.0
145
0.0
146
1.0
147
0.09
 71
     0
 72
     0
 73
     1
 74
     1
 75
     0
 76
     0
 77
     0
 78
     0
170
     0
171
     2
172
     0
173
     0
174
     0
175
     0
176
     0
177
     0
178
     0
  0
ENDTAB
  0
ENDSEC
  0
SECTION
  2
BLOCKS
  0
BLOCK
  8
0
  2
$MODEL_SPACE
 70
     0
 10
0.0
 20
0.0
 30
0.0
  3
$MODEL_SPACE
  1

  0
ENDBLK
  5
76
  8
0
  0
BLOCK
 67
     1
  8
0
  2
$PAPER_SPACE
 70
     0
 10
0.0
 20
0.0
 30
0.0
  3
$PAPER_SPACE
  1

  0
ENDBLK
  5
72
 67
     1
  8
0
  0
BLOCK
  8
0
  2
DOT1
 70
     0
 10
0.0
 20
0.0
 30
0.0
  3
DOT1
  1

  0
CIRCLE
  5
8C
  8
SIZE
  6
CONTINUOUS
 62
     7
 10
0.0
 20
0.0
 30
0.0
 40
3.0
  0
ENDBLK
  5
8D
  8
0
  0
BLOCK
  8
0
  2
_ORIGIN
 70
     0
 10
0.0
 20
0.0
 30
0.0
  3
_ORIGIN
  1

  0
CIRCLE
  5
90
  8
0
  6
CONTINUOUS
 62
     7
 10
0.0
 20
0.0
 30
0.0
 40
0.5
  0
LINE
  5
91
  8
0
  6
CONTINUOUS
 62
     7
 10
0.0
 20
0.0
 30
0.0
 11
-1.0
 21
0.0
 31
0.0
  0
ENDBLK
  5
92
  8
0
  0
ENDSEC
  0
SECTION
  2
ENTITIES
  0
LINE
  5
95
  8
NOTE
  6
CONTINUOUS
 62
     4
 10
-502.45869800000003
 20
-276.577068
 30
0.0
 11
-239.66270499999999
 21
-276.577068
 31
0.0
  0
TEXT
  5
96
  8
NOTE
  6
CONTINUOUS
 62
     4
 10
-479.277648
 20
-251.21667400000001
 30
0.0
 40
64.0
  1
4-φ6
 41
0.9
  0
LINE
  5
97
  8
DETAIL
  6
CONTINUOUS
 62
     5
 10
246.44892200000001
 20
-124.48675900000001
 30
0.0
 11
246.44892200000001
 21
-125.0
 31
0.0
  0
LINE
  5
98
  8
DETAIL
  6
CONTINUOUS
 62
     5
 10
121.0
 20
119.40000000000001
 30
0.0
 11
4.0530509999999991
 21
119.40000000000001
 31
0.0
  0
LINE
  5
99
  8
DETAIL
  6
CONTINUOUS
 62
     5
 10
2.0530509999999991
 20
124.985128
 30
0.0
 11
2.0530509999999991
 21
121.40000000000001
 31
0.0
  0
ARC
  5
9A
  8
DETAIL
  6
CONTINUOUS
 62
     5
 10
4.0530509999999991
 20
121.40000000000001
 30
0.0
 40
2.0
 50
180.0
 51
270.0
  0
LINE
  5
9B
  8
DETAIL
  6
CONTINUOUS
 62
     5
 10
250.40911500000001
 20
-124.186759
 30
0.0
 11
249.786462
 21
-120.655518
 31
0.0
  0
LINE
  5
9C
  8
DETAIL
  6
CONTINUOUS
 62
     5
 10
244.417913
 20
-119.002814
 30
0.0
 11
243.46946199999999
 21
-115.269845
 31
0.0
  0
ARC
  5
9D
  8
DETAIL
  6
CONTINUOUS
 62
     5
 10
246.387528
 20
-118.655518
 30
0.0
 40
2.0
 50
190.0
 51
280.0
  0
LINE
  5
9E
  8
DETAIL
  6
CONTINUOUS
 62
     5
 10
246.387528
 20
-120.655518
 30
0.0
 11
250.14290399999999
 21
-120.655518
 31
0.0
  0
LINE
  5
9F
  8
DETAIL
  6
CONTINUOUS
 62
     5
 10
16.0
 20
-157.41465099999999
 30
0.0
 11
15.454687
 21
-158.0
 31
0.0
  0
LINE
  5
A0
  8
DETAIL
  6
CONTINUOUS
 62
     5
 10
1.8
 20
-144.0
 30
0.0
 11
1.8
 21
-126.3
 31
0.0
  0
ARC
  5
A1
  8
DETAIL
  6
CONTINUOUS
 62
     5
 10
2.6000000000000001
 20
-126.3
 30
0.0
 40
0.8
 50
90.0
 51
180.0
  0
ARC
  5
A2
  8
DETAIL
  6
CONTINUOUS
 62
     5
 10
2.6000000000000001
 20
-126.3
 30
0.0
 40
1.6000000000000001
 50
125.659088
 51
180.0
  0
LINE
  5
A3
  8
DETAIL
  6
CONTINUOUS
 62
     5
 10
19.399999999999999
 20
-125.5
 30
0.0
 11
2.6000000000000001
 21
-125.5
 31
0.0
  0
LINE
  5
A4
  8
DETAIL
  6
CONTINUOUS
 62
     5
 10
1.0
 20
-144.0
 30
0.0
 11
1.0
 21
-126.3
 31
0.0
  0
LINE
  5
A5
  8
DETAIL
  6
CONTINUOUS
 62
     5
 10
2.054686999999999
 20
-144.58534900000001
 30
0.0
 11
16.0
 21
-157.41465099999999
 31
0.0
  0
LINE
  5
A6
  8
DETAIL
  6
CONTINUOUS
 62
     5
 10
1.509374
 20
-145.17069900000001
 30
0.0
 11
15.454687
 21
-158.0
 31
0.0
  0
ARC
  5
A7
  8
DETAIL
  6
CONTINUOUS
 62
     5
 10
2.6000000000000001
 20
-144.0
 30
0.0
 40
1.6000000000000001
 50
180.0
 51
227.02797799999999
  0
ARC
  5
A8
  8
DETAIL
  6
CONTINUOUS
 62
     5
 10
2.6000000000000001
 20
-144.0
 30
0.0
 40
0.8
 50
180.0
 51
227.02797799999999
  0
ARC
  5
A9
  8
DETAIL
  6
CONTINUOUS
 62
     5
 10
19.399999999999999
 20
-123.90000000000001
 30
0.0
 40
1.6000000000000001
 50
270.0
 51
316.56746299999998
  0
LINE
  5
AA
  8
DETAIL
  6
CONTINUOUS
 62
     5
 10
2.0530509999999991
 20
124.40000000000001
 30
0.0
 11
1.8999999999999999
 21
124.40000000000001
 31
0.0
  0
LINE
  5
AB
  8
DETAIL
  6
CONTINUOUS
 62
     5
 10
121.0
 20
125.0
 30
0.0
 11
1.8999999999999999
 21
125.0
 31
0.0
  0
LINE
  5
AC
  8
DETAIL
  6
CONTINUOUS
 62
     5
 10
250.40911500000001
 20
-124.786759
 30
0.0
 11
246.44892200000001
 21
-124.786759
 31
0.0
  0
LINE
  5
AD
  8
DETAIL
  6
CONTINUOUS
 62
     5
 10
1.6000000000000001
 20
125.3
 30
0.0
 11
1.6000000000000001
 21
143.69999999999999
 31
0.0
  0
LINE
  5
AE
  8
DETAIL
  6
CONTINUOUS
 62
     5
 10
251.0
 20
-124.08257
 30
0.0
 11
248.983307
 21
-116.018929
 31
0.0
  0
ARC
  5
AF
  8
DETAIL
  6
CONTINUOUS
 62
     5
 10
1.8999999999999999
 20
125.3
 30
0.0
 40
0.3
 50
180.0
 51
270.0
  0
LINE
  5
B0
  8
DETAIL
  6
CONTINUOUS
 62
     5
 10
250.40911500000001
 20
-124.48675900000001
 30
0.0
 11
246.44892200000001
 21
-124.48675900000001
 31
0.0
  0
ARC
  5
B1
  8
DETAIL
  6
CONTINUOUS
 62
     5
 10
250.40911500000001
 20
-124.186759
 30
0.0
 40
0.3
 50
270.0
 51
10.0
  0
ARC
  5
B2
  8
DETAIL
  6
CONTINUOUS
 62
     5
 10
250.40911500000001
 20
-124.186759
 30
0.0
 40
0.6
 50
270.0
 51
10.0
  0
LINE
  5
B3
  8
DETAIL
  6
CONTINUOUS
 62
     5
 10
1.0
 20
125.3
 30
0.0
 11
1.0
 21
143.69999999999999
 31
0.0
  0
ARC
  5
B4
  8
DETAIL
  6
CONTINUOUS
 62
     5
 10
1.3
 20
143.69999999999999
 30
0.0
 40
0.3
 50
0.0
 51
90.0
  0
ARC
  5
B5
  8
DETAIL
  6
CONTINUOUS
 62
     5
 10
1.3
 20
143.69999999999999
 30
0.0
 40
0.3
 50
90.0
 51
180.0
  0
LINE
  5
B6
  8
DETAIL
  6
CONTINUOUS
 62
     5
 10
251.0
 20
-124.08257
 30
0.0
 11
250.40911500000001
 21
-124.186759
 31
0.0
  0
ARC
  5
B7
  8
DETAIL
  6
CONTINUOUS
 62
     5
 10
1.8999999999999999
 20
125.3
 30
0.0
 40
0.9
 50
180.0
 51
270.0
  0
LINE
  5
B8
  8
DETAIL
  6
CONTINUOUS
 62
     5
 10
1.0
 20
122.7
 30
0.0
 11
1.0
 21
-123.90000000000001
 31
0.0
  0
LINE
  5
B9
  8
DETAIL
  6
CONTINUOUS
 62
     5
 10
1.0
 20
-123.90000000000001
 30
0.0
 11
1.0
 21
-145.14808199999999
 31
0.0
  0
LINE
  5
BA
  8
DETAIL
  6
CONTINUOUS
 62
     5
 10
0.0
 20
-145.14808199999999
 30
0.0
 11
1.0
 21
-145.14808199999999
 31
0.0
  0
LINE
  5
BB
  8
DETAIL
  6
CONTINUOUS
 62
     5
 10
0.0
 20
144.0
 30
0.0
 11
1.0
 21
144.0
 31
0.0
  0
LINE
  5
BC
  8
DETAIL
  6
CONTINUOUS
 62
     5
 10
1.0
 20
144.0
 30
0.0
 11
1.0
 21
122.7
 31
0.0
  0
LINE
  5
BD
  8
DETAIL
  6
CONTINUOUS
 62
     5
 10
0.0
 20
-123.09999999999999
 30
0.0
 11
0.0
 21
-145.14808199999999
 31
0.0
  0
LINE
  5
BE
  8
DETAIL
  6
CONTINUOUS
 62
     5
 10
0.0
 20
144.0
 30
0.0
 11
0.0
 21
-123.09999999999999
 31
0.0
  0
LINE
  5
BF
  8
DETAIL
  6
CONTINUOUS
 62
     5
 10
65.099999999999994
 20
-125.0
 30
0.0
 11
1.0
 21
-125.0
 31
0.0
  0
LINE
  5
C0
  8
DETAIL
  6
CONTINUOUS
 62
     5
 10
65.099999999999994
 20
-125.0
 30
0.0
 11
246.44892200000001
 21
-125.0
 31
0.0
  0
LINE
  5
C1
  8
DETAIL
  6
CONTINUOUS
 62
     5
 10
249.03503000000001
 20
-122.152704
 30
0.0
 11
248.76841300000001
 21
-120.640646
 31
0.0
  0
ARC
  5
C2
  8
DETAIL
  6
CONTINUOUS
 62
     5
 10
247.065414
 20
-122.5
 30
0.0
 40
2.0
 50
276.596565
 51
10.0
  0
LINE
  5
C3
  8
BASIS
  6
DASHDOT
 62
     6
 10
-49.474447999999988
 20
0.0
 30
0.0
 11
261.38256899999999
 21
0.0
 31
0.0
  0
CIRCLE
  5
C4
  8
ARRANGE
  6
CONTINUOUS
 62
     1
 39
50.0
 10
0.0
 20
0.0
 30
0.0
 40
40.0
  0
POINT
  5
C5
  8
ARRANGE
  6
CONTINUOUS
 62
     1
 10
0.0
 20
0.0
 30
0.0
 39
50.0
  0
CIRCLE
  5
C6
  8
FIX
  6
CONTINUOUS
 62
    11
 39
50.0
 10
0.0
 20
-132.5
 30
0.0
 40
2.5
  0
LINE
  5
C7
  8
NOTE
  6
CONTINUOUS
 62
     4
 10
0.0
 20
-112.5
 30
0.0
 11
0.0
 21
-152.5
 31
0.0
  0
LINE
  5
C8
  8
NOTE
  6
CONTINUOUS
 62
     4
 10
-20.0
 20
-132.5
 30
0.0
 11
20.0
 21
-132.5
 31
0.0
  0
CIRCLE
  5
C9
  8
FIX
  6
CONTINUOUS
 62
    11
 39
50.0
 10
0.0
 20
-135.0
 30
0.0
 40
3.0
  0
LINE
  5
CA
  8
NOTE
  6
CONTINUOUS
 62
     4
 10
0.0
 20
-115.0
 30
0.0
 11
0.0
 21
-155.0
 31
0.0
  0
LINE
  5
CB
  8
NOTE
  6
CONTINUOUS
 62
     4
 10
-20.0
 20
-135.0
 30
0.0
 11
20.0
 21
-135.0
 31
0.0
  0
LINE
  5
CC
  8
NOTE
  6
CONTINUOUS
 62
     4
 10
0.0
 20
112.5
 30
0.0
 11
0.0
 21
152.5
 31
0.0
  0
LINE
  5
CD
  8
NOTE
  6
CONTINUOUS
 62
     4
 10
-20.0
 20
132.5
 30
0.0
 11
20.0
 21
132.5
 31
0.0
  0
LINE
  5
CE
  8
NOTE
  6
CONTINUOUS
 62
     4
 10
0.0
 20
115.0
 30
0.0
 11
0.0
 21
155.0
 31
0.0
  0
LINE
  5
CF
  8
NOTE
  6
CONTINUOUS
 62
     4
 10
-20.0
 20
135.0
 30
0.0
 11
20.0
 21
135.0
 31
0.0
  0
CIRCLE
  5
D0
  8
FIX
  6
CONTINUOUS
 62
    11
 39
50.0
 10
0.0
 20
132.5
 30
0.0
 40
2.5
  0
CIRCLE
  5
D1
  8
FIX
  6
CONTINUOUS
 62
    11
 39
50.0
 10
0.0
 20
135.0
 30
0.0
 40
3.0
  0
LINE
  5
D2
  8
SIZE
  6
CONTINUOUS
 62
    30
 10
-40.0
 20
132.5
 30
0.0
 11
-201.457987
 21
132.5
 31
0.0
  0
LINE
  5
D3
  8
SIZE
  6
CONTINUOUS
 62
    30
 10
-40.0
 20
-132.5
 30
0.0
 11
-201.457987
 21
-132.5
 31
0.0
  0
LINE
  5
D4
  8
SIZE
  6
CONTINUOUS
 62
    30
 10
-181.457987
 20
120.5
 30
0.0
 11
-181.457987
 21
-120.5
 31
0.0
  0
CIRCLE
  5
D5
  8
SIZE
  6
CONTINUOUS
 62
    30
 10
-181.457987
 20
132.5
 30
0.0
 40
6.0
  0
LINE
  5
D6
  8
SIZE
  6
CONTINUOUS
 62
    30
 10
-181.457987
 20
132.5
 30
0.0
 11
-181.457987
 21
120.5
 31
0.0
  0
CIRCLE
  5
D7
  8
SIZE
  6
CONTINUOUS
 62
    30
 10
-181.457987
 20
-132.5
 30
0.0
 40
6.0
  0
LINE
  5
D8
  8
SIZE
  6
CONTINUOUS
 62
    30
 10
-181.457987
 20
-132.5
 30
0.0
 11
-181.457987
 21
-120.5
 31
0.0
  0
TEXT
  5
D9
  8
SIZE
  6
CONTINUOUS
 62
    30
 10
-206.457987
 20
-74.05714285714285
 30
0.0
 40
64.0
  1
265
 50
90.0
 41
0.9
 72
     1
 11
-206.457987
 21
0.0
 31
0.0
  0
POINT
  5
DA
  8
DEFPOINTS
  6
CONTINUOUS
 62
    30
 10
-20.0
 20
132.5
 30
0.0
  0
POINT
  5
DB
  8
DEFPOINTS
  6
CONTINUOUS
 62
    30
 10
-20.0
 20
-132.5
 30
0.0
  0
POINT
  5
DC
  8
DEFPOINTS
  6
CONTINUOUS
 62
    30
 10
-181.457987
 20
-132.5
 30
0.0
  0
LINE
  5
DD
  8
SIZE
  6
CONTINUOUS
 62
    30
 10
-40.0
 20
135.0
 30
0.0
 11
-326.69012400000003
 21
135.0
 31
0.0
  0
LINE
  5
DE
  8
SIZE
  6
CONTINUOUS
 62
    30
 10
-40.0
 20
-135.0
 30
0.0
 11
-326.69012400000003
 21
-135.0
 31
0.0
  0
LINE
  5
DF
  8
SIZE
  6
CONTINUOUS
 62
    30
 10
-306.69012400000003
 20
123.0
 30
0.0
 11
-306.69012400000003
 21
-123.0
 31
0.0
  0
CIRCLE
  5
E0
  8
SIZE
  6
CONTINUOUS
 62
    30
 10
-306.69012400000003
 20
135.0
 30
0.0
 40
6.0
  0
LINE
  5
E1
  8
SIZE
  6
CONTINUOUS
 62
    30
 10
-306.69012400000003
 20
135.0
 30
0.0
 11
-306.69012400000003
 21
123.0
 31
0.0
  0
CIRCLE
  5
E2
  8
SIZE
  6
CONTINUOUS
 62
    30
 10
-306.69012400000003
 20
-135.0
 30
0.0
 40
6.0
  0
LINE
  5
E3
  8
SIZE
  6
CONTINUOUS
 62
    30
 10
-306.69012400000003
 20
-135.0
 30
0.0
 11
-306.69012400000003
 21
-123.0
 31
0.0
  0
TEXT
  5
E4
  8
SIZE
  6
CONTINUOUS
 62
    30
 10
-331.69012400000003
 20
-74.05714285714285
 30
0.0
 40
64.0
  1
270
 50
90.0
 41
0.9
 72
     1
 11
-331.69012400000003
 21
0.0
 31
0.0
  0
POINT
  5
E5
  8
DEFPOINTS
  6
CONTINUOUS
 62
    30
 10
-20.0
 20
135.0
 30
0.0
  0
POINT
  5
E6
  8
DEFPOINTS
  6
CONTINUOUS
 62
    30
 10
-20.0
 20
-135.0
 30
0.0
  0
POINT
  5
E7
  8
DEFPOINTS
  6
CONTINUOUS
 62
    30
 10
-306.69012400000003
 20
-135.0
 30
0.0
  0
LINE
  5
E8
  8
SIZE
  6
CONTINUOUS
 62
    30
 10
-20.0
 20
144.0
 30
0.0
 11
-566.47439099999986
 21
144.0
 31
0.0
  0
LINE
  5
E9
  8
SIZE
  6
CONTINUOUS
 62
    30
 10
-4.5453130000000002
 20
-158.0
 30
0.0
 11
-566.47439099999986
 21
-158.0
 31
0.0
  0
LINE
  5
EA
  8
SIZE
  6
CONTINUOUS
 62
    30
 10
-546.47439099999997
 20
132.0
 30
0.0
 11
-546.47439099999997
 21
-146.0
 31
0.0
  0
CIRCLE
  5
EB
  8
SIZE
  6
CONTINUOUS
 62
    30
 10
-546.47439099999997
 20
144.0
 30
0.0
 40
6.0
  0
LINE
  5
EC
  8
SIZE
  6
CONTINUOUS
 62
    30
 10
-546.47439099999997
 20
144.0
 30
0.0
 11
-546.47439099999997
 21
132.0
 31
0.0
  0
CIRCLE
  5
ED
  8
SIZE
  6
CONTINUOUS
 62
    30
 10
-546.47439099999997
 20
-158.0
 30
0.0
 40
6.0
  0
LINE
  5
EE
  8
SIZE
  6
CONTINUOUS
 62
    30
 10
-546.47439099999997
 20
-158.0
 30
0.0
 11
-546.47439099999997
 21
-146.0
 31
0.0
  0
TEXT
  5
EF
  8
SIZE
  6
CONTINUOUS
 62
    30
 10
-571.47439099999997
 20
-81.057142857142836
 30
0.0
 40
64.0
  1
302
 50
90.0
 41
0.9
 72
     1
 11
-571.47439099999997
 21
-7.0
 31
0.0
  0
POINT
  5
F0
  8
DEFPOINTS
  6
CONTINUOUS
 62
    30
 10
0.0
 20
144.0
 30
0.0
  0
POINT
  5
F1
  8
DEFPOINTS
  6
CONTINUOUS
 62
    30
 10
15.454687
 20
-158.0
 30
0.0
  0
POINT
  5
F2
  8
DEFPOINTS
  6
CONTINUOUS
 62
    30
 10
-546.47439099999997
 20
-158.0
 30
0.0
  0
LINE
  5
F3
  8
SIZE
  6
CONTINUOUS
 62
    30
 10
0.0
 20
-165.14808199999999
 30
0.0
 11
0.0
 21
-339.38451700000002
 31
0.0
  0
LINE
  5
F4
  8
SIZE
  6
CONTINUOUS
 62
    30
 10
16.0
 20
-177.41465099999999
 30
0.0
 11
16.0
 21
-339.38451700000002
 31
0.0
  0
LINE
  5
F5
  8
SIZE
  6
CONTINUOUS
 62
    30
 10
-12.0
 20
-319.38451700000002
 30
0.0
 11
-24.0
 21
-319.38451700000002
 31
0.0
  0
LINE
  5
F6
  8
SIZE
  6
CONTINUOUS
 62
    30
 10
28.0
 20
-319.38451700000002
 30
0.0
 11
40.0
 21
-319.38451700000002
 31
0.0
  0
LINE
  5
F7
  8
SIZE
  6
CONTINUOUS
 62
    30
 10
-167.06218699999999
 20
-319.38451700000002
 30
0.0
 11
0.0
 21
-319.38451700000002
 31
0.0
  0
TEXT
  5
F8
  8
SIZE
  6
CONTINUOUS
 62
    30
 10
-142.0621875714285
 20
-294.38451700000002
 30
0.0
 40
64.0
  1
16
 41
0.9
 72
     1
 11
-102.29075899999999
 21
-294.38451700000002
 31
0.0
  0
LINE
  5
F9
  8
SIZE
  6
CONTINUOUS
 62
    30
 10
0.0
 20
-319.38451700000002
 30
0.0
 11
16.0
 21
-319.38451700000002
 31
0.0
  0
LINE
  5
FA
  8
SIZE
  6
CONTINUOUS
 62
    30
 10
0.0
 20
-319.38451700000002
 30
0.0
 11
16.0
 21
-319.38451700000002
 31
0.0
  0
CIRCLE
  5
FB
  8
SIZE
  6
CONTINUOUS
 62
    30
 10
0.0
 20
-319.38451700000002
 30
0.0
 40
6.0
  0
LINE
  5
FC
  8
SIZE
  6
CONTINUOUS
 62
    30
 10
0.0
 20
-319.38451700000002
 30
0.0
 11
-12.0
 21
-319.38451700000002
 31
0.0
  0
CIRCLE
  5
FD
  8
SIZE
  6
CONTINUOUS
 62
    30
 10
16.0
 20
-319.38451700000002
 30
0.0
 40
6.0
  0
LINE
  5
FE
  8
SIZE
  6
CONTINUOUS
 62
    30
 10
16.0
 20
-319.38451700000002
 30
0.0
 11
28.0
 21
-319.38451700000002
 31
0.0
  0
POINT
  5
FF
  8
DEFPOINTS
  6
CONTINUOUS
 62
    30
 10
0.0
 20
-145.14808199999999
 30
0.0
  0
POINT
  5
100
  8
DEFPOINTS
  6
CONTINUOUS
 62
    30
 10
16.0
 20
-157.41465099999999
 30
0.0
  0
POINT
  5
101
  8
DEFPOINTS
  6
CONTINUOUS
 62
    30
 10
16.0
 20
-319.38451700000002
 30
0.0
  0
LINE
  5
102
  8
SIZE
  6
CONTINUOUS
 62
    30
 10
0.0
 20
-165.14808199999999
 30
0.0
 11
0.0
 21
-414.69200999999993
 31
0.0
  0
LINE
  5
103
  8
SIZE
  6
CONTINUOUS
 62
    30
 10
251.0
 20
-144.08257
 30
0.0
 11
251.0
 21
-414.69200999999993
 31
0.0
  0
LINE
  5
104
  8
SIZE
  6
CONTINUOUS
 62
    30
 10
12.0
 20
-394.69200999999998
 30
0.0
 11
239.0
 21
-394.69200999999998
 31
0.0
  0
CIRCLE
  5
105
  8
SIZE
  6
CONTINUOUS
 62
    30
 10
0.0
 20
-394.69200999999998
 30
0.0
 40
6.0
  0
LINE
  5
106
  8
SIZE
  6
CONTINUOUS
 62
    30
 10
0.0
 20
-394.69200999999998
 30
0.0
 11
12.0
 21
-394.69200999999998
 31
0.0
  0
CIRCLE
  5
107
  8
SIZE
  6
CONTINUOUS
 62
    30
 10
251.0
 20
-394.69200999999998
 30
0.0
 40
6.0
  0
LINE
  5
108
  8
SIZE
  6
CONTINUOUS
 62
    30
 10
251.0
 20
-394.69200999999998
 30
0.0
 11
239.0
 21
-394.69200999999998
 31
0.0
  0
TEXT
  5
109
  8
SIZE
  6
CONTINUOUS
 62
    30
 10
63.785714285714292
 20
-369.69200999999998
 30
0.0
 40
64.0
  1
251
 41
0.9
 72
     1
 11
125.5
 21
-369.69200999999998
 31
0.0
  0
POINT
  5
10A
  8
DEFPOINTS
  6
CONTINUOUS
 62
    30
 10
0.0
 20
-145.14808199999999
 30
0.0
  0
POINT
  5
10B
  8
DEFPOINTS
  6
CONTINUOUS
 62
    30
 10
251.0
 20
-124.08257
 30
0.0
  0
POINT
  5
10C
  8
DEFPOINTS
  6
CONTINUOUS
 62
    30
 10
251.0
 20
-394.69200999999998
 30
0.0
  0
LINE
  5
10D
  8
SIZE
  6
CONTINUOUS
 62
    30
 10
141.0
 20
125.0
 30
0.0
 11
474.519882
 21
125.0
 31
0.0
  0
LINE
  5
10E
  8
SIZE
  6
CONTINUOUS
 62
    30
 10
266.44892199999998
 20
-125.0
 30
0.0
 11
474.519882
 21
-125.0
 31
0.0
  0
LINE
  5
10F
  8
SIZE
  6
CONTINUOUS
 62
    30
 10
454.519882
 20
137.0
 30
0.0
 11
454.519882
 21
149.0
 31
0.0
  0
LINE
  5
110
  8
SIZE
  6
CONTINUOUS
 62
    30
 10
454.519882
 20
-137.0
 30
0.0
 11
454.519882
 21
-149.0
 31
0.0
  0
LINE
  5
111
  8
SIZE
  6
CONTINUOUS
 62
    30
 10
454.519882
 20
125.0
 30
0.0
 11
454.519882
 21
-125.0
 31
0.0
  0
CIRCLE
  5
112
  8
SIZE
  6
CONTINUOUS
 62
    30
 10
454.519882
 20
125.0
 30
0.0
 40
6.0
  0
LINE
  5
113
  8
SIZE
  6
CONTINUOUS
 62
    30
 10
454.519882
 20
125.0
 30
0.0
 11
454.519882
 21
137.0
 31
0.0
  0
CIRCLE
  5
114
  8
SIZE
  6
CONTINUOUS
 62
    30
 10
454.519882
 20
-125.0
 30
0.0
 40
6.0
  0
LINE
  5
115
  8
SIZE
  6
CONTINUOUS
 62
    30
 10
454.519882
 20
-125.0
 30
0.0
 11
454.519882
 21
-137.0
 31
0.0
  0
TEXT
  5
116
  8
SIZE
  6
CONTINUOUS
 62
    30
 10
429.519882
 20
-110.5371428571428
 30
0.0
 40
64.0
  1
□250
 50
90.0
 41
0.9
 72
     1
 11
429.519882
 21
0.0
 31
0.0
  0
POINT
  5
117
  8
DEFPOINTS
  6
CONTINUOUS
 62
    30
 10
121.0
 20
125.0
 30
0.0
  0
POINT
  5
118
  8
DEFPOINTS
  6
CONTINUOUS
 62
    30
 10
246.44892200000001
 20
-125.0
 30
0.0
  0
POINT
  5
119
  8
DEFPOINTS
  6
CONTINUOUS
 62
    30
 10
454.519882
 20
-125.0
 30
0.0
  0
LINE
  5
11A
  8
SIZE
  6
CONTINUOUS
 62
    30
 10
0.0
 20
164.0
 30
0.0
 11
0.0
 21
250.055205
 31
0.0
  0
LINE
  5
11B
  8
SIZE
  6
CONTINUOUS
 62
    30
 10
121.0
 20
145.0
 30
0.0
 11
121.0
 21
250.055205
 31
0.0
  0
LINE
  5
11C
  8
SIZE
  6
CONTINUOUS
 62
    30
 10
-12.0
 20
230.055205
 30
0.0
 11
-24.0
 21
230.055205
 31
0.0
  0
LINE
  5
11D
  8
SIZE
  6
CONTINUOUS
 62
    30
 10
133.0
 20
230.055205
 30
0.0
 11
145.0
 21
230.055205
 31
0.0
  0
LINE
  5
11E
  8
SIZE
  6
CONTINUOUS
 62
    30
 10
0.0
 20
230.055205
 30
0.0
 11
121.0
 21
230.055205
 31
0.0
  0
CIRCLE
  5
11F
  8
SIZE
  6
CONTINUOUS
 62
    30
 10
0.0
 20
230.055205
 30
0.0
 40
6.0
  0
LINE
  5
120
  8
SIZE
  6
CONTINUOUS
 62
    30
 10
0.0
 20
230.055205
 30
0.0
 11
-12.0
 21
230.055205
 31
0.0
  0
CIRCLE
  5
121
  8
SIZE
  6
CONTINUOUS
 62
    30
 10
121.0
 20
230.055205
 30
0.0
 40
6.0
  0
LINE
  5
122
  8
SIZE
  6
CONTINUOUS
 62
    30
 10
121.0
 20
230.055205
 30
0.0
 11
133.0
 21
230.055205
 31
0.0
  0
TEXT
  5
123
  8
SIZE
  6
CONTINUOUS
 62
    30
 10
4.2714285714285793
 20
255.055205
 30
0.0
 40
64.0
  1
121
 41
0.9
 72
     1
 11
60.5
 21
255.055205
 31
0.0
  0
POINT
  5
124
  8
DEFPOINTS
  6
CONTINUOUS
 62
    30
 10
0.0
 20
144.0
 30
0.0
  0
POINT
  5
125
  8
DEFPOINTS
  6
CONTINUOUS
 62
    30
 10
121.0
 20
125.0
 30
0.0
  0
POINT
  5
126
  8
DEFPOINTS
  6
CONTINUOUS
 62
    30
 10
121.0
 20
230.055205
 30
0.0
  0
LINE
  5
127
  8
NOTE
  6
CONTINUOUS
 62
     4
 39
50.0
 10
-134.51595499999999
 20
240.01113599999999
 30
0.0
 11
0.0
 21
132.5
 31
0.0
  0
TEXT
  5
128
  8
NOTE
  6
CONTINUOUS
 62
     4
 10
-376.8737549999999
 20
265.37153000000001
 30
0.0
 40
64.0
  1
4-φ5
 41
0.9
  0
LINE
  5
129
  8
NOTE
  6
CONTINUOUS
 62
     4
 10
-397.31194699999998
 20
240.01113599999999
 30
0.0
 11
-134.51595499999999
 21
240.01113599999999
 31
0.0
  0
LINE
  5
12A
  8
NOTE
  6
CONTINUOUS
 62
     4
 10
-23.692679999999999
 20
164.72820100000001
 30
0.0
 11
0.0
 21
132.5
 31
0.0
  0
LINE
  5
12B
  8
NOTE
  6
CONTINUOUS
 62
     4
 10
0.0
 20
132.5
 30
0.0
 11
-36.632562999999998
 21
148.5641
 31
0.0
  0
LINE
  5
12C
  8
NOTE
  6
CONTINUOUS
 62
     4
 39
50.0
 10
0.0
 20
-135.0
 30
0.0
 11
-239.66270499999999
 21
-276.577068
 31
0.0
  0
LINE
  5
12D
  8
NOTE
  6
CONTINUOUS
 62
     4
 10
-38.415466000000002
 20
-146.146839
 30
0.0
 11
0.0
 21
-135.0
 31
0.0
  0
LINE
  5
12E
  8
NOTE
  6
CONTINUOUS
 62
     4
 10
0.0
 20
-135.0
 30
0.0
 11
-27.695349
 21
-163.861178
 31
0.0
  0
LINE
  5
12F
  8
OUTLINE
  6
CONTINUOUS
 62
     3
 10
251.0
 20
-124.08257
 30
0.0
 11
248.983307
 21
-116.018929
 31
0.0
  0
LINE
  5
130
  8
OUTLINE
  6
CONTINUOUS
 62
     3
 10
0.0
 20
144.0
 30
0.0
 11
0.0
 21
-123.09999999999999
 31
0.0
  0
LINE
  5
131
  8
OUTLINE
  6
CONTINUOUS
 62
     3
 10
65.099999999999994
 20
-125.0
 30
0.0
 11
246.44892200000001
 21
-125.0
 31
0.0
  0
LINE
  5
132
  8
OUTLINE
  6
CONTINUOUS
 62
     3
 10
246.44892200000001
 20
-124.786759
 30
0.0
 11
246.44892200000001
 21
-125.0
 31
0.0
  0
LINE
  5
133
  8
OUTLINE
  6
CONTINUOUS
 62
     3
 10
250.40911500000001
 20
-124.786759
 30
0.0
 11
246.44892200000001
 21
-124.786759
 31
0.0
  0
ARC
  5
134
  8
OUTLINE
  6
CONTINUOUS
 62
     3
 10
250.40911500000001
 20
-124.186759
 30
0.0
 40
0.6
 50
270.0
 51
10.0
  0
LINE
  5
135
  8
OUTLINE
  6
CONTINUOUS
 62
     3
 10
1.8
 20
-144.0
 30
0.0
 11
1.8
 21
-126.3
 31
0.0
  0
LINE
  5
136
  8
OUTLINE
  6
CONTINUOUS
 62
     3
 10
0.0
 20
-123.09999999999999
 30
0.0
 11
0.0
 21
-145.14808199999999
 31
0.0
  0
LINE
  5
137
  8
OUTLINE
  6
CONTINUOUS
 62
     3
 10
16.0
 20
-157.41465099999999
 30
0.0
 11
15.454687
 21
-158.0
 31
0.0
  0
LINE
  5
138
  8
OUTLINE
  6
CONTINUOUS
 62
     3
 10
2.054686999999999
 20
-144.58534900000001
 30
0.0
 11
16.0
 21
-157.41465099999999
 31
0.0
  0
LINE
  5
139
  8
OUTLINE
  6
CONTINUOUS
 62
     3
 10
1.509374
 20
-145.17069900000001
 30
0.0
 11
15.454687
 21
-158.0
 31
0.0
  0
ARC
  5
13A
  8
OUTLINE
  6
CONTINUOUS
 62
     3
 10
2.6000000000000001
 20
-144.0
 30
0.0
 40
1.6000000000000001
 50
180.0
 51
227.02797799999999
  0
ARC
  5
13B
  8
OUTLINE
  6
CONTINUOUS
 62
     3
 10
2.6000000000000001
 20
-144.0
 30
0.0
 40
0.8
 50
180.0
 51
227.02797799999999
  0
LINE
  5
13C
  8
OUTLINE
  6
CONTINUOUS
 62
     3
 10
0.0
 20
-145.14808199999999
 30
0.0
 11
1.0
 21
-145.14808199999999
 31
0.0
  0
LINE
  5
13D
  8
OUTLINE
  6
CONTINUOUS
 62
     3
 10
65.099999999999994
 20
-125.0
 30
0.0
 11
20.561895
 21
-125.0
 31
0.0
  0
ARC
  5
13E
  8
OUTLINE
  6
CONTINUOUS
 62
     3
 10
19.399999999999999
 20
-123.90000000000001
 30
0.0
 40
1.6000000000000001
 50
270.0
 51
316.56746299999998
  0
LINE
  5
13F
  8
OUTLINE
  6
CONTINUOUS
 62
     3
 10
19.399999999999999
 20
-125.5
 30
0.0
 11
2.6000000000000001
 21
-125.5
 31
0.0
  0
ARC
  5
140
  8
OUTLINE
  6
CONTINUOUS
 62
     3
 10
2.6000000000000001
 20
-126.3
 30
0.0
 40
0.8
 50
90.0
 51
180.0
  0
LINE
  5
141
  8
OUTLINE
  6
CONTINUOUS
 62
     3
 10
1.6000000000000001
 20
125.3
 30
0.0
 11
1.6000000000000001
 21
143.69999999999999
 31
0.0
  0
LINE
  5
142
  8
OUTLINE
  6
CONTINUOUS
 62
     3
 10
121.0
 20
125.0
 30
0.0
 11
1.8999999999999999
 21
125.0
 31
0.0
  0
ARC
  5
143
  8
OUTLINE
  6
CONTINUOUS
 62
     3
 10
1.8999999999999999
 20
125.3
 30
0.0
 40
0.3
 50
180.0
 51
270.0
  0
ARC
  5
144
  8
OUTLINE
  6
CONTINUOUS
 62
     3
 10
1.3
 20
143.69999999999999
 30
0.0
 40
0.3
 50
0.0
 51
90.0
  0
ARC
  5
145
  8
OUTLINE
  6
CONTINUOUS
 62
     3
 10
1.3
 20
143.69999999999999
 30
0.0
 40
0.3
 50
90.0
 51
180.0
  0
LINE
  5
146
  8
OUTLINE
  6
CONTINUOUS
 62
     3
 10
0.0
 20
144.0
 30
0.0
 11
1.0
 21
144.0
 31
0.0
  0
LINE
  5
147
  8
OUTLINE
  6
CONTINUOUS
 62
     3
 10
1.0
 20
144.0
 30
0.0
 11
1.0
 21
143.69999999999999
 31
0.0
  0
LINE
  5
148
  8
OUTLINE
  6
CONTINUOUS
 62
     3
 10
1.0
 20
-145.14808199999999
 30
0.0
 11
1.0
 21
-144.0
 31
0.0
  0
LINE
  5
149
  8
SIZE
  6
CONTINUOUS
 62
    30
 10
-20.0
 20
144.0
 30
0.0
 11
-445.37363299999993
 21
144.0
 31
0.0
  0
LINE
  5
14A
  8
SIZE
  6
CONTINUOUS
 62
    30
 10
-18.199999999999999
 20
-144.0
 30
0.0
 11
-445.37363299999993
 21
-144.0
 31
0.0
  0
LINE
  5
14B
  8
SIZE
  6
CONTINUOUS
 62
    30
 10
-425.37363299999993
 20
132.0
 30
0.0
 11
-425.37363299999993
 21
-132.0
 31
0.0
  0
CIRCLE
  5
14C
  8
SIZE
  6
CONTINUOUS
 62
    30
 10
-425.37363299999993
 20
144.0
 30
0.0
 40
6.0
  0
LINE
  5
14D
  8
SIZE
  6
CONTINUOUS
 62
    30
 10
-425.37363299999993
 20
144.0
 30
0.0
 11
-425.37363299999993
 21
132.0
 31
0.0
  0
CIRCLE
  5
14E
  8
SIZE
  6
CONTINUOUS
 62
    30
 10
-425.37363299999993
 20
-144.0
 30
0.0
 40
6.0
  0
LINE
  5
14F
  8
SIZE
  6
CONTINUOUS
 62
    30
 10
-425.37363299999993
 20
-144.0
 30
0.0
 11
-425.37363299999993
 21
-132.0
 31
0.0
  0
TEXT
  5
150
  8
SIZE
  6
CONTINUOUS
 62
    30
 10
-450.37363299999993
 20
-110.5371428571429
 30
0.0
 40
64.0
  1
□288
 50
90.0
 41
0.9
 72
     1
 11
-450.37363299999993
 21
0.0
 31
0.0
  0
POINT
  5
151
  8
DEFPOINTS
  6
CONTINUOUS
 62
    30
 10
0.0
 20
144.0
 30
0.0
  0
POINT
  5
152
  8
DEFPOINTS
  6
CONTINUOUS
 62
    30
 10
1.8
 20
-144.0
 30
0.0
  0
POINT
  5
153
  8
DEFPOINTS
  6
CONTINUOUS
 62
    30
 10
-425.37363299999993
 20
-144.0
 30
0.0
  0
ARC
  5
154
  8
DETAIL
  6
CONTINUOUS
 62
     5
 10
121.0
 20
23.122744999999998
 30
0.0
 40
96.577255000000008
 50
10.0
 51
90.0
  0
ARC
  5
155
  8
DETAIL
  6
CONTINUOUS
 62
     5
 10
121.0
 20
23.122744999999998
 30
0.0
 40
101.87725500000001
 50
10.0
 51
90.0
  0
LINE
  5
156
  8
DETAIL
  6
CONTINUOUS
 62
     5
 10
243.46946199999999
 20
-115.269845
 30
0.0
 11
216.11002999999999
 21
39.893209000000013
 31
0.0
  0
LINE
  5
157
  8
DETAIL
  6
CONTINUOUS
 62
     5
 10
248.983307
 20
-116.018929
 30
0.0
 11
221.329511
 21
40.813544999999991
 31
0.0
  0
ARC
  5
158
  8
OUTLINE
  6
CONTINUOUS
 62
     3
 10
121.0
 20
23.122744999999998
 30
0.0
 40
101.87725500000001
 50
10.0
 51
90.0
  0
LINE
  5
159
  8
OUTLINE
  6
CONTINUOUS
 62
     3
 10
248.983307
 20
-116.018929
 30
0.0
 11
221.329511
 21
40.813544999999991
 31
0.0
  0
TEXT
  5
164
  8
ETC
  6
CONTINUOUS
 62
    61
 10
479.88410952965262
 20
509.40193538648248
 30
0.0
 40
64.0
  1
システム部材
 41
0.9
  0
TEXT
  5
165
  8
ETC
  6
CONTINUOUS
 62
    61
 10
474.5198825296527
 20
610.45715338648256
 30
0.0
 40
64.0
  1
P-20CVS4_5
 41
0.9
  0
TEXT
  5
166
  8
ETC
  6
CONTINUOUS
 62
    61
 10
561.19995668424838
 20
408.28826644272999
 30
0.0
 40
64.0
  1
P-20CVS4
 41
0.9
  0
TEXT
  5
167
  8
ETC
  6
CONTINUOUS
 62
    61
 10
561.19995668424838
 20
315.57574296792632
 30
0.0
 40
64.0
  1
P-20CVA4
 41
0.9
  0
TEXT
  5
168
  8
ETC
  6
CONTINUOUS
 62
    61
 10
561.19995668424838
 20
220.28787189294579
 30
0.0
 40
64.0
  1
P-20CVSP4
 41
0.9
  0
TEXT
  5
169
  8
ETC
  6
CONTINUOUS
 62
    61
 10
561.19995668424838
 20
125.0000008179652
 30
0.0
 40
64.0
  1
P-20CVS4-BK
 41
0.9
  0
ENDSEC
  0
EOF
