  0
SECTION
  2
HEADER
  9
$ACADVER
  1
AC1009
  9
$INSBASE
 10
0.0
 20
0.0
 30
0.0
  9
$EXTMIN
 10
-413.94850436832201
 20
-170.99243567736201
 30
0.0
  9
$EXTMAX
 10
1292.7004378034731
 20
553.88663303177361
 30
50.0
  9
$LIMMIN
 10
-2970.0
 20
-2100.0
  9
$LIMMAX
 10
2970.0
 20
2100.0
  9
$ORTHOMODE
 70
     1
  9
$REGENMODE
 70
     1
  9
$FILLMODE
 70
     1
  9
$QTEXTMODE
 70
     0
  9
$MIRRTEXT
 70
     0
  9
$DRAGMODE
 70
     2
  9
$LTSCALE
 40
20.0
  9
$OSMODE
 70
    55
  9
$ATTMODE
 70
     1
  9
$TEXTSIZE
 40
64.0
  9
$TRACEWID
 40
0.05
  9
$TEXTSTYLE
  7
STANDARD
  9
$CLAYER
  8
SIZE
  9
$CELTYPE
  6
CONTINUOUS
  9
$CECOLOR
 62
     7
  9
$DIMSCALE
 40
1.0
  9
$DIMASZ
 40
12.0
  9
$DIMEXO
 40
20.0
  9
$DIMDLI
 40
200.0
  9
$DIMRND
 40
0.0
  9
$DIMDLE
 40
0.0
  9
$DIMEXE
 40
20.0
  9
$DIMTP
 40
0.0
  9
$DIMTM
 40
0.0
  9
$DIMTXT
 40
64.0
  9
$DIMCEN
 40
0.09
  9
$DIMTSZ
 40
0.0
  9
$DIMTOL
 70
     0
  9
$DIMLIM
 70
     0
  9
$DIMTIH
 70
     0
  9
$DIMTOH
 70
     0
  9
$DIMSE1
 70
     0
  9
$DIMSE2
 70
     0
  9
$DIMTAD
 70
     1
  9
$DIMZIN
 70
     8
  9
$DIMBLK
  1

  9
$DIMASO
 70
     1
  9
$DIMSHO
 70
     0
  9
$DIMPOST
  1

  9
$DIMAPOST
  1

  9
$DIMALT
 70
     0
  9
$DIMALTD
 70
     2
  9
$DIMALTF
 40
25.399999999999999
  9
$DIMLFAC
 40
1.0
  9
$DIMTOFL
 70
     1
  9
$DIMTVP
 40
0.0
  9
$DIMTIX
 70
     1
  9
$DIMSOXD
 70
     0
  9
$DIMSAH
 70
     0
  9
$DIMBLK1
  1

  9
$DIMBLK2
  1

  9
$DIMSTYLE
  2
STANDARD
  9
$DIMCLRD
 70
     7
  9
$DIMCLRE
 70
     7
  9
$DIMCLRT
 70
     7
  9
$DIMTFAC
 40
1.0
  9
$DIMGAP
 40
25.0
  9
$LUNITS
 70
     2
  9
$LUPREC
 70
     4
  9
$SKETCHINC
 40
0.1
  9
$FILLETRAD
 40
3.0
  9
$AUNITS
 70
     1
  9
$AUPREC
 70
     3
  9
$MENU
  1
ACAD
  9
$ELEVATION
 40
0.0
  9
$PELEVATION
 40
0.0
  9
$THICKNESS
 40
50.0
  9
$LIMCHECK
 70
     0
  9
$BLIPMODE
 70
     0
  9
$CHAMFERA
 40
0.0
  9
$CHAMFERB
 40
0.0
  9
$SKPOLY
 70
     0
  9
$TDCREATE
 40
2453019.6230103709
  9
$TDUPDATE
 40
2456391.6320111221
  9
$TDINDWG
 40
1.6621220718
  9
$TDUSRTIMER
 40
1.6621218866
  9
$USRTIMER
 70
     1
  9
$ANGBASE
 50
0.0
  9
$ANGDIR
 70
     0
  9
$PDMODE
 70
     3
  9
$PDSIZE
 40
-2.0
  9
$PLINEWID
 40
0.0
  9
$COORDS
 70
     1
  9
$SPLFRAME
 70
     0
  9
$SPLINETYPE
 70
     6
  9
$SPLINESEGS
 70
     8
  9
$ATTDIA
 70
     0
  9
$ATTREQ
 70
     1
  9
$HANDLING
 70
     1
  9
$HANDSEED
  5
248
  9
$SURFTAB1
 70
     6
  9
$SURFTAB2
 70
     6
  9
$SURFTYPE
 70
     6
  9
$SURFU
 70
     6
  9
$SURFV
 70
     6
  9
$UCSNAME
  2

  9
$UCSORG
 10
0.0
 20
0.0
 30
0.0
  9
$UCSXDIR
 10
1.0
 20
0.0
 30
0.0
  9
$UCSYDIR
 10
0.0
 20
1.0
 30
0.0
  9
$PUCSNAME
  2

  9
$PUCSORG
 10
0.0
 20
0.0
 30
0.0
  9
$PUCSXDIR
 10
1.0
 20
0.0
 30
0.0
  9
$PUCSYDIR
 10
0.0
 20
1.0
 30
0.0
  9
$USERI1
 70
     0
  9
$USERI2
 70
     0
  9
$USERI3
 70
     0
  9
$USERI4
 70
     0
  9
$USERI5
 70
     0
  9
$USERR1
 40
20.0
  9
$USERR2
 40
0.0
  9
$USERR3
 40
0.0
  9
$USERR4
 40
0.0
  9
$USERR5
 40
0.0
  9
$WORLDVIEW
 70
     1
  9
$SHADEDGE
 70
     3
  9
$SHADEDIF
 70
    70
  9
$TILEMODE
 70
     1
  9
$MAXACTVP
 70
    48
  9
$PLIMCHECK
 70
     0
  9
$PEXTMIN
 10
-1.0000000000000000E+020
 20
-1.0000000000000000E+020
 30
-1.0000000000000000E+020
  9
$PEXTMAX
 10
1.0000000000000000E+020
 20
1.0000000000000000E+020
 30
1.0000000000000000E+020
  9
$PLIMMIN
 10
0.0
 20
0.0
  9
$PLIMMAX
 10
12.0
 20
9.0
  9
$UNITMODE
 70
     0
  9
$VISRETAIN
 70
     0
  9
$PLINEGEN
 70
     0
  9
$PSLTSCALE
 70
     0
  0
ENDSEC
  0
SECTION
  2
TABLES
  0
TABLE
  2
VPORT
 70
     1
  0
VPORT
  2
*ACTIVE
 70
     0
 10
0.0
 20
0.0
 11
1.0
 21
1.0
 12
480.37539607925441
 22
236.2780214129167
 13
0.0
 23
0.0
 14
1.0
 24
1.0
 15
0.0
 25
0.0
 16
0.0
 26
0.0
 36
1.0
 17
0.0
 27
0.0
 37
0.0
 40
1261.975297527292
 41
1.6865079365079361
 42
50.0
 43
0.0
 44
0.0
 50
0.0
 51
0.0
 71
     0
 72
  1000
 73
     1
 74
     0
 75
     0
 76
     0
 77
     0
 78
     0
  0
ENDTAB
  0
TABLE
  2
LTYPE
 70
     3
  0
LTYPE
  2
CONTINUOUS
 70
     0
  3
実線
 72
    65
 73
     0
 40
0.0
  0
LTYPE
  2
DASHDOT
 70
     0
  3
____ _ ____ _ ____ _ ____ _ ____ _ ____ _ ____
 72
    65
 73
     4
 40
5.5
 49
4.0
 49
-0.6
 49
0.3
 49
-0.6
  0
ENDTAB
  0
TABLE
  2
LAYER
 70
    12
  0
LAYER
  2
0
 70
     0
 62
     7
  6
CONTINUOUS
  0
LAYER
  2
SIZE
 70
     0
 62
    30
  6
CONTINUOUS
  0
LAYER
  2
BASIS
 70
     0
 62
     6
  6
DASHDOT
  0
LAYER
  2
OUTLINE
 70
     0
 62
     3
  6
CONTINUOUS
  0
LAYER
  2
DETAIL
 70
     0
 62
     5
  6
CONTINUOUS
  0
LAYER
  2
ARRANGE
 70
     4
 62
     1
  6
CONTINUOUS
  0
LAYER
  2
DEFPOINTS
 70
     0
 62
     7
  6
CONTINUOUS
  0
LAYER
  2
ETC
 70
     0
 62
    61
  6
CONTINUOUS
  0
LAYER
  2
NOTE
 70
     0
 62
     4
  6
CONTINUOUS
  0
LAYER
  2
FIX
 70
     0
 62
    11
  6
CONTINUOUS
  0
LAYER
  2
SERVICESPACE
 70
     0
 62
     2
  6
DASHDOT
  0
LAYER
  2
SYMBOLLINE
 70
     0
 62
    15
  6
CONTINUOUS
  0
ENDTAB
  0
TABLE
  2
STYLE
 70
     2
  0
STYLE
  2
STANDARD
 70
     0
 40
64.0
 41
0.9
 50
0.0
 71
     0
 42
64.0
  3
SIMPLEX.shx
  4
BIGFONT.shx
  0
STYLE
  2
ANNOTATIVE
 70
     0
 40
0.0
 41
1.0
 50
0.0
 71
     0
 42
0.2
  3
txt
  4

  0
ENDTAB
  0
TABLE
  2
VIEW
 70
     1
  0
VIEW
  2
ALL
 70
     0
 40
4282.6198079999976
 10
0.0
 20
41.309904000000003
 41
5940.0
 11
0.0
 21
0.0
 31
1.0
 12
0.0
 22
0.0
 32
0.0
 42
50.0
 43
0.0
 44
0.0
 50
0.0
 71
     0
  0
ENDTAB
  0
TABLE
  2
UCS
 70
     0
  0
ENDTAB
  0
TABLE
  2
APPID
 70
    18
  0
APPID
  2
ACAD
 70
     0
  0
APPID
  2
ACADANNOTATIVE
 70
     0
  0
APPID
  2
AUTOCAD_POSTSCRIPT_FIGURE
 70
     0
  0
APPID
  2
ACAD_EXEMPT_FROM_CAD_STANDARDS
 70
     0
  0
APPID
  2
ACAD_PSEXT
 70
     0
  0
APPID
  2
ACAUTHENVIRON
 70
     0
  0
APPID
  2
GENIUS_GENOENT_13
 70
     0
  0
APPID
  2
GENIUS_GENCFG_13
 70
     0
  0
APPID
  2
GENIUS_GENCFG0_13
 70
     0
  0
APPID
  2
GENIUS_GENCFG1_13
 70
     0
  0
APPID
  2
GENIUS_GENCFG2_13
 70
     0
  0
APPID
  2
GENIUS_GENCFG3_13
 70
     0
  0
APPID
  2
GENIUS_GENCFG4_13
 70
     0
  0
APPID
  2
GENIUS_GEVCFG0_13
 70
     0
  0
APPID
  2
CONTENTBLOCKICON
 70
     0
  0
APPID
  2
CONTENTBLOCKDESCRIPTION
 70
     0
  0
APPID
  2
ACAD_NAV_VCDISPLAY
 70
     0
  0
APPID
  2
ACAD_MLEADERVER
 70
     0
  0
ENDTAB
  0
TABLE
  2
DIMSTYLE
 70
     2
  0
DIMSTYLE
  2
STANDARD
 70
     0
  3

  4

  5

  6

  7

 40
1.0
 41
0.18
 42
0.0625
 43
0.38
 44
0.18
 45
0.0
 46
0.0
 47
0.0
 48
0.0
140
0.18
141
0.09
142
0.0
143
25.399999999999999
144
1.0
145
0.0
146
1.0
147
0.09
 71
     0
 72
     0
 73
     1
 74
     1
 75
     0
 76
     0
 77
     0
 78
     0
170
     0
171
     2
172
     0
173
     0
174
     0
175
     0
176
     7
177
     7
178
     7
  0
DIMSTYLE
  2
ANNOTATIVE
 70
     0
  3

  4

  5

  6

  7

 40
1.0
 41
0.18
 42
0.0625
 43
0.38
 44
0.18
 45
0.0
 46
0.0
 47
0.0
 48
0.0
140
0.18
141
0.09
142
0.0
143
25.399999999999999
144
1.0
145
0.0
146
1.0
147
0.09
 71
     0
 72
     0
 73
     1
 74
     1
 75
     0
 76
     0
 77
     0
 78
     0
170
     0
171
     2
172
     0
173
     0
174
     0
175
     0
176
     0
177
     0
178
     0
  0
ENDTAB
  0
ENDSEC
  0
SECTION
  2
BLOCKS
  0
BLOCK
  8
0
  2
$MODEL_SPACE
 70
     0
 10
0.0
 20
0.0
 30
0.0
  3
$MODEL_SPACE
  1

  0
ENDBLK
  5
6D
  8
0
  0
BLOCK
 67
     1
  8
0
  2
$PAPER_SPACE
 70
     0
 10
0.0
 20
0.0
 30
0.0
  3
$PAPER_SPACE
  1

  0
ENDBLK
  5
69
 67
     1
  8
0
  0
BLOCK
  8
0
  2
_ORIGIN
 70
     0
 10
0.0
 20
0.0
 30
0.0
  3
_ORIGIN
  1

  0
CIRCLE
  5
90
  8
0
  6
CONTINUOUS
 62
     7
 10
0.0
 20
0.0
 30
0.0
 40
0.5
  0
LINE
  5
91
  8
0
  6
CONTINUOUS
 62
     7
 10
0.0
 20
0.0
 30
0.0
 11
-1.0
 21
0.0
 31
0.0
  0
ENDBLK
  5
92
  8
0
  0
ENDSEC
  0
SECTION
  2
ENTITIES
  0
TEXT
  5
93
  8
ETC
  6
CONTINUOUS
 62
    61
 10
452.82096978365001
 20
477.72747426105042
 30
0.0
 40
64.0
  1
P-20WPS2_2
 41
0.9
  0
TEXT
  5
94
  8
ETC
  6
CONTINUOUS
 62
    61
 10
448.63497578364968
 20
359.77216424621918
 30
0.0
 40
64.0
  1
システム部材
 41
0.9
  0
CIRCLE
  5
95
  8
ARRANGE
  6
CONTINUOUS
 62
     1
 10
0.0
 20
0.0
 30
0.0
 40
40.0
  0
POINT
  5
96
  8
ARRANGE
  6
CONTINUOUS
 62
     1
 10
0.0
 20
0.0
 30
0.0
 39
50.0
  0
LINE
  5
97
  8
BASIS
  6
DASHDOT
 62
     6
 39
50.0
 10
0.0
 20
-170.99243567736201
 30
0.0
 11
0.0
 21
170.99243567736201
 31
0.0
  0
LINE
  5
98
  8
BASIS
  6
DASHDOT
 62
     6
 39
65.0
 10
163.0929621166178
 20
0.0
 30
0.0
 11
-163.0929621166178
 21
0.0
 31
0.0
  0
TEXT
  5
99
  8
ETC
  6
CONTINUOUS
 62
    61
 10
499.33637403220558
 20
251.623391359994
 30
0.0
 40
40.0
  1
P-20WPS2
 41
0.9
  0
CIRCLE
  5
9A
  8
SIZE
  6
CONTINUOUS
 62
    30
 39
50.0
 10
132.50000013249999
 20
60.000000059999991
 30
0.0
 40
5.0
  0
LINE
  5
9B
  8
DETAIL
  6
CONTINUOUS
 62
     5
 10
-122.02200012202201
 20
116.6000001166
 30
0.0
 11
-124.0000001240001
 21
115.00000011500001
 31
0.0
  0
LINE
  5
9C
  8
DETAIL
  6
CONTINUOUS
 62
     5
 10
-115.00000011500001
 20
124.0000001239999
 30
0.0
 11
-116.6000001165999
 21
122.02200012202211
 31
0.0
  0
LINE
  5
9D
  8
DETAIL
  6
CONTINUOUS
 62
     5
 10
-145.4000001454001
 20
116.6000001166
 30
0.0
 11
-147.00000014700021
 21
115.00000011500001
 31
0.0
  0
LINE
  5
9E
  8
DETAIL
  6
CONTINUOUS
 62
     5
 10
-116.6000001165999
 20
145.40000014540001
 30
0.0
 11
-115.00000011500001
 21
147.00000014700001
 31
0.0
  0
LINE
  5
9F
  8
DETAIL
  6
CONTINUOUS
 62
     5
 10
-145.4000001454001
 20
116.6000001166
 30
0.0
 11
-122.02200012202201
 21
116.6000001166
 31
0.0
  0
LINE
  5
A0
  8
DETAIL
  6
CONTINUOUS
 62
     5
 10
-116.6000001165999
 20
145.40000014540001
 30
0.0
 11
-116.6000001165999
 21
122.02200012202211
 31
0.0
  0
ARC
  5
A1
  8
DETAIL
  6
CONTINUOUS
 62
     5
 10
-148.00000014800011
 20
148.000000148
 30
0.0
 40
2.5000000025000002
 50
90.0
 51
180.0
  0
ARC
  5
A2
  8
DETAIL
  6
CONTINUOUS
 62
     5
 10
-145.50000014550011
 20
145.50000014550011
 30
0.0
 40
2.5000000025000002
 50
90.0
 51
180.0
  0
ARC
  5
A3
  8
DETAIL
  6
CONTINUOUS
 62
     5
 10
-143.90000014390009
 20
143.9000001439
 30
0.0
 40
1.500000001499934
 50
90.0
 51
180.0
  0
ARC
  5
A4
  8
DETAIL
  6
CONTINUOUS
 62
     5
 10
-145.50000014550039
 20
145.50000014550011
 30
0.0
 40
1.500000001499934
 50
90.0
 51
180.0
  0
LINE
  5
A5
  8
DETAIL
  6
CONTINUOUS
 62
     5
 10
-143.90000014390009
 20
145.40000014540001
 30
0.0
 11
-116.6000001165999
 21
145.40000014540001
 31
0.0
  0
LINE
  5
A6
  8
DETAIL
  6
CONTINUOUS
 62
     5
 10
-145.4000001454001
 20
143.9000001439
 30
0.0
 11
-145.4000001454001
 21
116.6000001166
 31
0.0
  0
LINE
  5
A7
  8
DETAIL
  6
CONTINUOUS
 62
     5
 10
-147.00000014700041
 20
145.50000014550011
 30
0.0
 11
-147.00000014700021
 21
115.00000011500001
 31
0.0
  0
LINE
  5
A8
  8
DETAIL
  6
CONTINUOUS
 62
     5
 10
-145.50000014550039
 20
147.00000014700001
 30
0.0
 11
-115.00000011500001
 21
147.00000014700001
 31
0.0
  0
ARC
  5
A9
  8
DETAIL
  6
CONTINUOUS
 62
     5
 10
-120.52200012052199
 20
120.52200012052199
 30
0.0
 40
0.978000000977903
 50
90.0
 51
180.0
  0
ARC
  5
AA
  8
DETAIL
  6
CONTINUOUS
 62
     5
 10
-120.52200012052199
 20
120.52200012052199
 30
0.0
 40
1.500000001499934
 50
90.0
 51
180.0
  0
LINE
  5
AB
  8
DETAIL
  6
CONTINUOUS
 62
     5
 10
-120.52200012052199
 20
122.02200012202201
 30
0.0
 11
-116.6000001165999
 21
122.02200012202211
 31
0.0
  0
LINE
  5
AC
  8
DETAIL
  6
CONTINUOUS
 62
     5
 10
-122.02200012202201
 20
120.52200012052199
 30
0.0
 11
-122.02200012202201
 21
116.6000001166
 31
0.0
  0
LINE
  5
AD
  8
DETAIL
  6
CONTINUOUS
 62
     5
 10
-145.50000014550011
 20
148.000000148
 30
0.0
 11
-45.000000044999972
 21
148.000000148
 31
0.0
  0
CIRCLE
  5
AE
  8
DETAIL
  6
CONTINUOUS
 62
     5
 10
-136.00000013600001
 20
35.000000034999971
 30
0.0
 40
2.7000000026999791
  0
LINE
  5
AF
  8
NOTE
  6
CONTINUOUS
 62
     4
 10
-60.000000059999927
 20
156.53316430753989
 30
0.0
 11
-60.000000059999927
 21
116.9276241617618
 31
0.0
  0
LINE
  5
B0
  8
DETAIL
  6
CONTINUOUS
 62
     5
 10
-115.00000011500001
 20
147.00000014700001
 30
0.0
 11
-115.00000011500001
 21
124.0000001239999
 31
0.0
  0
LINE
  5
B1
  8
DETAIL
  6
CONTINUOUS
 62
     5
 10
-148.00000014800011
 20
150.50000015050011
 30
0.0
 11
-45.000000044999972
 21
150.50000015050011
 31
0.0
  0
LINE
  5
B2
  8
DETAIL
  6
CONTINUOUS
 62
     5
 10
-120.52200012052199
 20
121.50000012149999
 30
0.0
 11
-45.000000044999972
 21
121.50000012149999
 31
0.0
  0
LINE
  5
B3
  8
DETAIL
  6
CONTINUOUS
 62
     5
 10
-147.00000014700021
 20
115.00000011500001
 30
0.0
 11
-124.0000001240001
 21
115.00000011500001
 31
0.0
  0
LINE
  5
B4
  8
DETAIL
  6
CONTINUOUS
 62
     5
 10
-150.50000015050011
 20
148.000000148
 30
0.0
 11
-150.50000015050011
 21
45.000000044999972
 31
0.0
  0
LINE
  5
B5
  8
DETAIL
  6
CONTINUOUS
 62
     5
 10
-121.50000012150009
 20
120.52200012052199
 30
0.0
 11
-121.50000012150009
 21
45.000000044999972
 31
0.0
  0
LINE
  5
B6
  8
DETAIL
  6
CONTINUOUS
 62
     5
 10
-150.50000015050011
 20
45.000000044999972
 30
0.0
 11
-121.50000012150009
 21
45.000000044999972
 31
0.0
  0
LINE
  5
B7
  8
DETAIL
  6
CONTINUOUS
 62
     5
 10
-45.000000044999972
 20
150.50000015050011
 30
0.0
 11
-45.000000044999972
 21
121.50000012149999
 31
0.0
  0
LINE
  5
B8
  8
DETAIL
  6
CONTINUOUS
 62
     5
 10
-148.00000014800011
 20
145.50000014550011
 30
0.0
 11
-148.00000014800011
 21
45.000000044999972
 31
0.0
  0
LINE
  5
B9
  8
DETAIL
  6
CONTINUOUS
 62
     5
 10
-124.0000001240001
 20
115.00000011500001
 30
0.0
 11
-124.0000001240001
 21
25.00000002500002
 31
0.0
  0
LINE
  5
BA
  8
DETAIL
  6
CONTINUOUS
 62
     5
 10
-115.00000011500001
 20
124.0000001239999
 30
0.0
 11
-25.00000002499997
 21
124.0000001239999
 31
0.0
  0
LINE
  5
BB
  8
NOTE
  6
CONTINUOUS
 62
     4
 10
-152.60336990630751
 20
60.000000059999991
 30
0.0
 11
-116.3445460965978
 21
60.000000059999991
 31
0.0
  0
CIRCLE
  5
BC
  8
DETAIL
  6
CONTINUOUS
 62
     5
 10
-132.50000013250011
 20
60.000000059999991
 30
0.0
 40
1.750000001750031
  0
CIRCLE
  5
BD
  8
DETAIL
  6
CONTINUOUS
 62
     5
 10
-60.000000059999927
 20
132.50000013249999
 30
0.0
 40
1.750000001749991
  0
LINE
  5
BE
  8
DETAIL
  6
CONTINUOUS
 62
     5
 10
-116.6000001166
 20
-122.02200012202201
 30
0.0
 11
-115.00000011500001
 21
-124.0000001239999
 31
0.0
  0
LINE
  5
BF
  8
DETAIL
  6
CONTINUOUS
 62
     5
 10
-124.0000001240001
 20
-115.00000011500001
 30
0.0
 11
-122.02200012202211
 21
-116.6000001165999
 31
0.0
  0
LINE
  5
C0
  8
DETAIL
  6
CONTINUOUS
 62
     5
 10
-116.6000001165999
 20
-145.4000001454001
 30
0.0
 11
-115.00000011500001
 21
-147.00000014700001
 31
0.0
  0
LINE
  5
C1
  8
DETAIL
  6
CONTINUOUS
 62
     5
 10
-145.4000001454001
 20
-116.6000001165999
 30
0.0
 11
-147.00000014700021
 21
-115.00000011500001
 31
0.0
  0
LINE
  5
C2
  8
DETAIL
  6
CONTINUOUS
 62
     5
 10
-116.6000001165999
 20
-145.4000001454001
 30
0.0
 11
-116.6000001166
 21
-122.02200012202201
 31
0.0
  0
LINE
  5
C3
  8
DETAIL
  6
CONTINUOUS
 62
     5
 10
-145.4000001454001
 20
-116.6000001165999
 30
0.0
 11
-122.02200012202211
 21
-116.6000001165999
 31
0.0
  0
ARC
  5
C4
  8
DETAIL
  6
CONTINUOUS
 62
     5
 10
-148.00000014800011
 20
-148.000000148
 30
0.0
 40
2.5000000025000002
 50
180.0
 51
270.0
  0
ARC
  5
C5
  8
DETAIL
  6
CONTINUOUS
 62
     5
 10
-145.50000014550011
 20
-145.50000014550011
 30
0.0
 40
2.5000000025000002
 50
180.0
 51
270.0
  0
ARC
  5
C6
  8
DETAIL
  6
CONTINUOUS
 62
     5
 10
-143.9000001439
 20
-143.9000001439
 30
0.0
 40
1.5000000015000159
 50
180.0
 51
270.0
  0
ARC
  5
C7
  8
DETAIL
  6
CONTINUOUS
 62
     5
 10
-145.50000014550011
 20
-145.50000014550039
 30
0.0
 40
1.500000001499934
 50
180.0
 51
270.0
  0
LINE
  5
C8
  8
DETAIL
  6
CONTINUOUS
 62
     5
 10
-145.4000001454001
 20
-143.9000001439
 30
0.0
 11
-145.4000001454001
 21
-116.6000001165999
 31
0.0
  0
LINE
  5
C9
  8
DETAIL
  6
CONTINUOUS
 62
     5
 10
-143.9000001439
 20
-145.4000001454001
 30
0.0
 11
-116.6000001165999
 21
-145.4000001454001
 31
0.0
  0
LINE
  5
CA
  8
DETAIL
  6
CONTINUOUS
 62
     5
 10
-145.50000014550011
 20
-147.00000014700049
 30
0.0
 11
-115.00000011500001
 21
-147.00000014700001
 31
0.0
  0
LINE
  5
CB
  8
DETAIL
  6
CONTINUOUS
 62
     5
 10
-147.00000014700021
 20
-145.50000014550039
 30
0.0
 11
-147.00000014700021
 21
-115.00000011500001
 31
0.0
  0
ARC
  5
CC
  8
DETAIL
  6
CONTINUOUS
 62
     5
 10
-120.52200012052199
 20
-120.5220001205218
 30
0.0
 40
0.9780000009780657
 50
180.0
 51
270.0
  0
ARC
  5
CD
  8
DETAIL
  6
CONTINUOUS
 62
     5
 10
-120.52200012052199
 20
-120.5220001205218
 30
0.0
 40
1.500000001499934
 50
180.0
 51
270.0
  0
LINE
  5
CE
  8
DETAIL
  6
CONTINUOUS
 62
     5
 10
-122.02200012202201
 20
-120.5220001205218
 30
0.0
 11
-122.02200012202211
 21
-116.6000001165999
 31
0.0
  0
LINE
  5
CF
  8
DETAIL
  6
CONTINUOUS
 62
     5
 10
-120.52200012052199
 20
-122.02200012202201
 30
0.0
 11
-116.6000001166
 21
-122.02200012202201
 31
0.0
  0
LINE
  5
D0
  8
DETAIL
  6
CONTINUOUS
 62
     5
 10
-148.00000014800011
 20
-145.50000014550011
 30
0.0
 11
-148.00000014800011
 21
-45.000000044999972
 31
0.0
  0
CIRCLE
  5
D1
  8
DETAIL
  6
CONTINUOUS
 62
     5
 10
-35.000000034999971
 20
-136.0000001359999
 30
0.0
 40
2.7000000026999791
  0
LINE
  5
D2
  8
NOTE
  6
CONTINUOUS
 62
     4
 10
-156.53316430754001
 20
-60.000000059999991
 30
0.0
 11
-116.9276241617619
 21
-60.000000059999991
 31
0.0
  0
LINE
  5
D3
  8
DETAIL
  6
CONTINUOUS
 62
     5
 10
-147.00000014700021
 20
-115.00000011500001
 30
0.0
 11
-124.0000001240001
 21
-115.00000011500001
 31
0.0
  0
LINE
  5
D4
  8
DETAIL
  6
CONTINUOUS
 62
     5
 10
-150.50000015050011
 20
-148.000000148
 30
0.0
 11
-150.50000015050011
 21
-45.000000044999972
 31
0.0
  0
LINE
  5
D5
  8
DETAIL
  6
CONTINUOUS
 62
     5
 10
-121.50000012150009
 20
-120.5220001205218
 30
0.0
 11
-121.50000012150009
 21
-45.000000044999972
 31
0.0
  0
LINE
  5
D6
  8
DETAIL
  6
CONTINUOUS
 62
     5
 10
-115.00000011500001
 20
-147.00000014700001
 30
0.0
 11
-115.00000011500001
 21
-124.0000001239999
 31
0.0
  0
LINE
  5
D7
  8
DETAIL
  6
CONTINUOUS
 62
     5
 10
-148.00000014800011
 20
-150.50000015050011
 30
0.0
 11
-45.000000044999972
 21
-150.50000015050011
 31
0.0
  0
LINE
  5
D8
  8
DETAIL
  6
CONTINUOUS
 62
     5
 10
-120.52200012052199
 20
-121.50000012149999
 30
0.0
 11
-45.000000044999972
 21
-121.50000012149999
 31
0.0
  0
LINE
  5
D9
  8
DETAIL
  6
CONTINUOUS
 62
     5
 10
-45.000000044999972
 20
-150.50000015050011
 30
0.0
 11
-45.000000044999972
 21
-121.50000012149999
 31
0.0
  0
LINE
  5
DA
  8
DETAIL
  6
CONTINUOUS
 62
     5
 10
-150.50000015050011
 20
-45.000000044999972
 30
0.0
 11
-121.50000012150009
 21
-45.000000044999972
 31
0.0
  0
LINE
  5
DB
  8
DETAIL
  6
CONTINUOUS
 62
     5
 10
-145.50000014550011
 20
-148.000000148
 30
0.0
 11
-45.000000044999972
 21
-148.000000148
 31
0.0
  0
LINE
  5
DC
  8
DETAIL
  6
CONTINUOUS
 62
     5
 10
-115.00000011500001
 20
-124.0000001239999
 30
0.0
 11
-25.00000002499997
 21
-124.0000001239999
 31
0.0
  0
LINE
  5
DD
  8
DETAIL
  6
CONTINUOUS
 62
     5
 10
-124.0000001240001
 20
-115.00000011500001
 30
0.0
 11
-124.0000001240001
 21
-25.00000002499997
 31
0.0
  0
LINE
  5
DE
  8
NOTE
  6
CONTINUOUS
 62
     4
 10
-60.000000059999927
 20
-152.60336990630751
 30
0.0
 11
-60.000000059999927
 21
-116.3445460965979
 31
0.0
  0
CIRCLE
  5
DF
  8
DETAIL
  6
CONTINUOUS
 62
     5
 10
-60.000000059999927
 20
-132.50000013249999
 30
0.0
 40
1.750000001749991
  0
CIRCLE
  5
E0
  8
DETAIL
  6
CONTINUOUS
 62
     5
 10
-132.50000013250011
 20
-60.000000059999991
 30
0.0
 40
1.750000001750031
  0
LINE
  5
E1
  8
DETAIL
  6
CONTINUOUS
 62
     5
 10
122.02200012202201
 20
-116.6000001166
 30
0.0
 11
124.0000001239999
 21
-115.00000011500001
 31
0.0
  0
LINE
  5
E2
  8
DETAIL
  6
CONTINUOUS
 62
     5
 10
115.00000011500001
 20
-124.0000001239999
 30
0.0
 11
116.6000001166
 21
-122.02200012202201
 31
0.0
  0
LINE
  5
E3
  8
DETAIL
  6
CONTINUOUS
 62
     5
 10
145.40000014540001
 20
-116.6000001165999
 30
0.0
 11
147.00000014699981
 21
-115.00000011500001
 31
0.0
  0
LINE
  5
E4
  8
DETAIL
  6
CONTINUOUS
 62
     5
 10
116.6000001166
 20
-145.40000014540001
 30
0.0
 11
115.00000011500001
 21
-147.00000014700001
 31
0.0
  0
LINE
  5
E5
  8
DETAIL
  6
CONTINUOUS
 62
     5
 10
145.40000014540001
 20
-116.6000001165999
 30
0.0
 11
122.02200012202201
 21
-116.6000001166
 31
0.0
  0
LINE
  5
E6
  8
DETAIL
  6
CONTINUOUS
 62
     5
 10
116.6000001166
 20
-145.40000014540001
 30
0.0
 11
116.6000001166
 21
-122.02200012202201
 31
0.0
  0
ARC
  5
E7
  8
DETAIL
  6
CONTINUOUS
 62
     5
 10
148.0000001479998
 20
-148.000000148
 30
0.0
 40
2.5000000025000002
 50
270.0
 51
0.0
  0
ARC
  5
E8
  8
DETAIL
  6
CONTINUOUS
 62
     5
 10
145.50000014549991
 20
-145.50000014550011
 30
0.0
 40
2.5000000025000002
 50
270.0
 51
0.0
  0
ARC
  5
E9
  8
DETAIL
  6
CONTINUOUS
 62
     5
 10
143.9000001439
 20
-143.9000001439
 30
0.0
 40
1.500000001499934
 50
270.0
 51
0.0
  0
ARC
  5
EA
  8
DETAIL
  6
CONTINUOUS
 62
     5
 10
145.50000014550039
 20
-145.50000014550011
 30
0.0
 40
1.500000001499934
 50
270.0
 51
0.0
  0
LINE
  5
EB
  8
DETAIL
  6
CONTINUOUS
 62
     5
 10
143.9000001439
 20
-145.40000014540001
 30
0.0
 11
116.6000001166
 21
-145.40000014540001
 31
0.0
  0
LINE
  5
EC
  8
DETAIL
  6
CONTINUOUS
 62
     5
 10
145.40000014540001
 20
-143.9000001439
 30
0.0
 11
145.40000014540001
 21
-116.6000001165999
 31
0.0
  0
LINE
  5
ED
  8
DETAIL
  6
CONTINUOUS
 62
     5
 10
147.00000014700041
 20
-145.50000014550011
 30
0.0
 11
147.00000014699981
 21
-115.00000011500001
 31
0.0
  0
LINE
  5
EE
  8
DETAIL
  6
CONTINUOUS
 62
     5
 10
145.50000014550039
 20
-147.00000014700001
 30
0.0
 11
115.00000011500001
 21
-147.00000014700001
 31
0.0
  0
ARC
  5
EF
  8
DETAIL
  6
CONTINUOUS
 62
     5
 10
120.52200012052199
 20
-120.5220001205218
 30
0.0
 40
0.9780000009780657
 50
270.0
 51
0.0
  0
ARC
  5
F0
  8
DETAIL
  6
CONTINUOUS
 62
     5
 10
120.52200012052199
 20
-120.5220001205218
 30
0.0
 40
1.500000001500096
 50
270.0
 51
0.0
  0
LINE
  5
F1
  8
DETAIL
  6
CONTINUOUS
 62
     5
 10
120.52200012052199
 20
-122.02200012202201
 30
0.0
 11
116.6000001166
 21
-122.02200012202201
 31
0.0
  0
LINE
  5
F2
  8
DETAIL
  6
CONTINUOUS
 62
     5
 10
122.02200012202201
 20
-120.5220001205218
 30
0.0
 11
122.02200012202201
 21
-116.6000001166
 31
0.0
  0
LINE
  5
F3
  8
DETAIL
  6
CONTINUOUS
 62
     5
 10
145.50000014549991
 20
-148.000000148
 30
0.0
 11
45.000000044999972
 21
-148.000000148
 31
0.0
  0
CIRCLE
  5
F4
  8
DETAIL
  6
CONTINUOUS
 62
     5
 10
136.0000001359999
 20
-35.000000034999971
 30
0.0
 40
2.7000000026999991
  0
LINE
  5
F5
  8
NOTE
  6
CONTINUOUS
 62
     4
 10
60.000000059999927
 20
-156.53316430754001
 30
0.0
 11
60.000000059999927
 21
-116.9276241617617
 31
0.0
  0
LINE
  5
F6
  8
DETAIL
  6
CONTINUOUS
 62
     5
 10
115.00000011500001
 20
-147.00000014700001
 30
0.0
 11
115.00000011500001
 21
-124.0000001239999
 31
0.0
  0
LINE
  5
F7
  8
DETAIL
  6
CONTINUOUS
 62
     5
 10
148.0000001479998
 20
-150.50000015050011
 30
0.0
 11
45.000000044999972
 21
-150.50000015050011
 31
0.0
  0
LINE
  5
F8
  8
DETAIL
  6
CONTINUOUS
 62
     5
 10
120.52200012052199
 20
-121.50000012149999
 30
0.0
 11
45.000000044999972
 21
-121.50000012149999
 31
0.0
  0
LINE
  5
F9
  8
DETAIL
  6
CONTINUOUS
 62
     5
 10
147.00000014699981
 20
-115.00000011500001
 30
0.0
 11
124.0000001239999
 21
-115.00000011500001
 31
0.0
  0
LINE
  5
FA
  8
DETAIL
  6
CONTINUOUS
 62
     5
 10
150.50000015049989
 20
-148.000000148
 30
0.0
 11
150.50000015049989
 21
-45.000000044999972
 31
0.0
  0
LINE
  5
FB
  8
DETAIL
  6
CONTINUOUS
 62
     5
 10
121.50000012149999
 20
-120.5220001205218
 30
0.0
 11
121.50000012149999
 21
-45.000000044999972
 31
0.0
  0
LINE
  5
FC
  8
DETAIL
  6
CONTINUOUS
 62
     5
 10
150.50000015049989
 20
-45.000000044999972
 30
0.0
 11
121.50000012149999
 21
-45.000000044999972
 31
0.0
  0
LINE
  5
FD
  8
DETAIL
  6
CONTINUOUS
 62
     5
 10
45.000000044999972
 20
-150.50000015050011
 30
0.0
 11
45.000000044999972
 21
-121.50000012149999
 31
0.0
  0
LINE
  5
FE
  8
DETAIL
  6
CONTINUOUS
 62
     5
 10
148.0000001479998
 20
-145.50000014550011
 30
0.0
 11
148.0000001479998
 21
-45.000000044999972
 31
0.0
  0
LINE
  5
FF
  8
DETAIL
  6
CONTINUOUS
 62
     5
 10
124.0000001239999
 20
-115.00000011500001
 30
0.0
 11
124.0000001239999
 21
-25.00000002499997
 31
0.0
  0
LINE
  5
100
  8
DETAIL
  6
CONTINUOUS
 62
     5
 10
115.00000011500001
 20
-124.0000001239999
 30
0.0
 11
25.00000002500008
 21
-124.0000001239999
 31
0.0
  0
LINE
  5
101
  8
NOTE
  6
CONTINUOUS
 62
     4
 10
152.60336990630739
 20
-60.000000059999991
 30
0.0
 11
116.3445460965978
 21
-60.000000059999991
 31
0.0
  0
CIRCLE
  5
102
  8
DETAIL
  6
CONTINUOUS
 62
     5
 10
132.50000013249999
 20
-60.000000059999991
 30
0.0
 40
1.750000001749991
  0
CIRCLE
  5
103
  8
DETAIL
  6
CONTINUOUS
 62
     5
 10
60.000000059999927
 20
-132.50000013249999
 30
0.0
 40
1.750000001749991
  0
LINE
  5
104
  8
DETAIL
  6
CONTINUOUS
 62
     5
 10
116.6000001166
 20
122.02200012202201
 30
0.0
 11
115.00000011500001
 21
124.0000001239999
 31
0.0
  0
LINE
  5
105
  8
DETAIL
  6
CONTINUOUS
 62
     5
 10
124.0000001239999
 20
115.00000011500001
 30
0.0
 11
122.02200012202201
 21
116.6000001165999
 31
0.0
  0
LINE
  5
106
  8
DETAIL
  6
CONTINUOUS
 62
     5
 10
116.6000001166
 20
145.4000001454001
 30
0.0
 11
115.00000011500001
 21
147.00000014700001
 31
0.0
  0
LINE
  5
107
  8
DETAIL
  6
CONTINUOUS
 62
     5
 10
145.40000014540001
 20
116.6000001165999
 30
0.0
 11
147.00000014699981
 21
115.00000011500001
 31
0.0
  0
LINE
  5
108
  8
DETAIL
  6
CONTINUOUS
 62
     5
 10
116.6000001166
 20
145.4000001454001
 30
0.0
 11
116.6000001166
 21
122.02200012202201
 31
0.0
  0
LINE
  5
109
  8
DETAIL
  6
CONTINUOUS
 62
     5
 10
145.40000014540001
 20
116.6000001165999
 30
0.0
 11
122.02200012202201
 21
116.6000001165999
 31
0.0
  0
ARC
  5
10A
  8
DETAIL
  6
CONTINUOUS
 62
     5
 10
148.0000001479998
 20
148.000000148
 30
0.0
 40
2.5000000025000002
 50
0.0
 51
90.0
  0
ARC
  5
10B
  8
DETAIL
  6
CONTINUOUS
 62
     5
 10
145.50000014549991
 20
145.50000014550011
 30
0.0
 40
2.5000000025000002
 50
0.0
 51
90.0
  0
ARC
  5
10C
  8
DETAIL
  6
CONTINUOUS
 62
     5
 10
143.9000001439
 20
143.9000001439
 30
0.0
 40
1.5000000014999959
 50
0.0
 51
90.0
  0
ARC
  5
10D
  8
DETAIL
  6
CONTINUOUS
 62
     5
 10
145.50000014549991
 20
145.50000014550051
 30
0.0
 40
1.5000000014999959
 50
0.0
 51
90.0
  0
LINE
  5
10E
  8
DETAIL
  6
CONTINUOUS
 62
     5
 10
145.40000014540001
 20
143.9000001439
 30
0.0
 11
145.40000014540001
 21
116.6000001165999
 31
0.0
  0
LINE
  5
10F
  8
DETAIL
  6
CONTINUOUS
 62
     5
 10
143.9000001439
 20
145.4000001454001
 30
0.0
 11
116.6000001166
 21
145.4000001454001
 31
0.0
  0
LINE
  5
110
  8
DETAIL
  6
CONTINUOUS
 62
     5
 10
148.0000001479998
 20
112.5000001125
 30
0.0
 11
124.0000001239999
 21
112.5000001125
 31
0.0
  0
LINE
  5
111
  8
DETAIL
  6
CONTINUOUS
 62
     5
 10
145.50000014549991
 20
147.00000014700049
 30
0.0
 11
115.00000011500001
 21
147.00000014700001
 31
0.0
  0
LINE
  5
112
  8
DETAIL
  6
CONTINUOUS
 62
     5
 10
147.00000014699981
 20
145.50000014550051
 30
0.0
 11
147.00000014699981
 21
115.00000011500001
 31
0.0
  0
ARC
  5
113
  8
DETAIL
  6
CONTINUOUS
 62
     5
 10
120.52200012052199
 20
120.5220001205218
 30
0.0
 40
0.9780000009779633
 50
0.0
 51
90.0
  0
ARC
  5
114
  8
DETAIL
  6
CONTINUOUS
 62
     5
 10
120.52200012052199
 20
120.5220001205218
 30
0.0
 40
1.5000000015000159
 50
0.0
 51
90.0
  0
LINE
  5
115
  8
DETAIL
  6
CONTINUOUS
 62
     5
 10
122.02200012202201
 20
120.5220001205218
 30
0.0
 11
122.02200012202201
 21
116.6000001165999
 31
0.0
  0
LINE
  5
116
  8
DETAIL
  6
CONTINUOUS
 62
     5
 10
120.52200012052199
 20
122.02200012202201
 30
0.0
 11
116.6000001166
 21
122.02200012202201
 31
0.0
  0
LINE
  5
117
  8
DETAIL
  6
CONTINUOUS
 62
     5
 10
148.0000001479998
 20
145.50000014550011
 30
0.0
 11
148.0000001479998
 21
45.000000044999972
 31
0.0
  0
CIRCLE
  5
118
  8
DETAIL
  6
CONTINUOUS
 62
     5
 10
35.000000034999971
 20
136.0000001360001
 30
0.0
 40
2.7000000026999791
  0
LINE
  5
119
  8
NOTE
  6
CONTINUOUS
 62
     4
 10
156.53316430753981
 20
60.000000059999991
 30
0.0
 11
116.9276241617617
 21
60.000000059999991
 31
0.0
  0
LINE
  5
11A
  8
DETAIL
  6
CONTINUOUS
 62
     5
 10
147.00000014699981
 20
115.00000011500001
 30
0.0
 11
124.0000001239999
 21
115.00000011500001
 31
0.0
  0
LINE
  5
11B
  8
DETAIL
  6
CONTINUOUS
 62
     5
 10
150.50000015049989
 20
148.000000148
 30
0.0
 11
150.50000015049989
 21
45.000000044999972
 31
0.0
  0
LINE
  5
11C
  8
DETAIL
  6
CONTINUOUS
 62
     5
 10
121.50000012149999
 20
120.5220001205218
 30
0.0
 11
121.50000012149999
 21
45.000000044999972
 31
0.0
  0
LINE
  5
11D
  8
DETAIL
  6
CONTINUOUS
 62
     5
 10
115.00000011500001
 20
147.00000014700001
 30
0.0
 11
115.00000011500001
 21
124.0000001239999
 31
0.0
  0
LINE
  5
11E
  8
DETAIL
  6
CONTINUOUS
 62
     5
 10
148.0000001479998
 20
150.50000015050011
 30
0.0
 11
45.000000044999972
 21
150.50000015050011
 31
0.0
  0
LINE
  5
11F
  8
DETAIL
  6
CONTINUOUS
 62
     5
 10
120.52200012052199
 20
121.50000012149999
 30
0.0
 11
45.000000044999972
 21
121.50000012149999
 31
0.0
  0
LINE
  5
120
  8
DETAIL
  6
CONTINUOUS
 62
     5
 10
45.000000044999972
 20
150.50000015050011
 30
0.0
 11
45.000000044999972
 21
121.50000012149999
 31
0.0
  0
LINE
  5
121
  8
DETAIL
  6
CONTINUOUS
 62
     5
 10
150.50000015049989
 20
45.000000044999972
 30
0.0
 11
121.50000012149999
 21
45.000000044999972
 31
0.0
  0
LINE
  5
122
  8
DETAIL
  6
CONTINUOUS
 62
     5
 10
145.50000014549991
 20
148.000000148
 30
0.0
 11
45.000000044999972
 21
148.000000148
 31
0.0
  0
LINE
  5
123
  8
DETAIL
  6
CONTINUOUS
 62
     5
 10
115.00000011500001
 20
124.0000001239999
 30
0.0
 11
25.00000002500008
 21
124.0000001239999
 31
0.0
  0
LINE
  5
124
  8
DETAIL
  6
CONTINUOUS
 62
     5
 10
124.0000001239999
 20
115.00000011500001
 30
0.0
 11
124.0000001239999
 21
25.00000002500002
 31
0.0
  0
LINE
  5
125
  8
NOTE
  6
CONTINUOUS
 62
     4
 10
60.000000059999927
 20
152.60336990630751
 30
0.0
 11
60.000000059999927
 21
116.3445460965979
 31
0.0
  0
CIRCLE
  5
126
  8
DETAIL
  6
CONTINUOUS
 62
     5
 10
60.000000059999927
 20
132.50000013249999
 30
0.0
 40
1.750000001749991
  0
CIRCLE
  5
127
  8
DETAIL
  6
CONTINUOUS
 62
     5
 10
132.50000013249999
 20
60.000000059999991
 30
0.0
 40
1.750000001749991
  0
LINE
  5
128
  8
DETAIL
  6
CONTINUOUS
 62
     5
 10
-132.50000013250011
 20
68.395114609322533
 30
0.0
 11
-132.50000013250011
 21
53.211134662943138
 31
0.0
  0
LINE
  5
129
  8
NOTE
  6
CONTINUOUS
 62
     4
 10
-69.465867810676613
 20
132.50000013249999
 30
0.0
 11
-51.671511046191441
 21
132.50000013249999
 31
0.0
  0
LINE
  5
12A
  8
DETAIL
  6
CONTINUOUS
 62
     5
 10
-68.395114609322391
 20
-132.50000013249999
 30
0.0
 11
-53.211134662943202
 21
-132.50000013249999
 31
0.0
  0
LINE
  5
12B
  8
DETAIL
  6
CONTINUOUS
 62
     5
 10
-132.50000013250011
 20
-69.465867810676741
 30
0.0
 11
-132.50000013250011
 21
-51.671511046191362
 31
0.0
  0
LINE
  5
12C
  8
DETAIL
  6
CONTINUOUS
 62
     5
 10
132.50000013249999
 20
-68.395114609322533
 30
0.0
 11
132.50000013249999
 21
-53.211134662943138
 31
0.0
  0
LINE
  5
12D
  8
NOTE
  6
CONTINUOUS
 62
     4
 10
69.465867810676613
 20
-132.50000013249999
 30
0.0
 11
51.671511046191313
 21
-132.50000013249999
 31
0.0
  0
LINE
  5
12E
  8
DETAIL
  6
CONTINUOUS
 62
     5
 10
68.395114609322391
 20
132.50000013249999
 30
0.0
 11
53.211134662942968
 21
132.50000013249999
 31
0.0
  0
LINE
  5
12F
  8
DETAIL
  6
CONTINUOUS
 62
     5
 10
132.50000013249999
 20
69.465867810676741
 30
0.0
 11
132.50000013249999
 21
51.671511046191313
 31
0.0
  0
LINE
  5
130
  8
NOTE
  6
CONTINUOUS
 62
     4
 10
68.395114609322391
 20
132.50000013249999
 30
0.0
 11
53.211134662942968
 21
132.50000013249999
 31
0.0
  0
LINE
  5
131
  8
NOTE
  6
CONTINUOUS
 62
     4
 10
132.50000013249999
 20
69.465867810676741
 30
0.0
 11
132.50000013249999
 21
51.671511046191313
 31
0.0
  0
LINE
  5
132
  8
NOTE
  6
CONTINUOUS
 62
     4
 10
132.50000013249999
 20
-68.395114609322533
 30
0.0
 11
132.50000013249999
 21
-53.211134662943138
 31
0.0
  0
LINE
  5
133
  8
NOTE
  6
CONTINUOUS
 62
     4
 10
69.465867810676613
 20
-132.50000013249999
 30
0.0
 11
51.671511046191313
 21
-132.50000013249999
 31
0.0
  0
LINE
  5
134
  8
NOTE
  6
CONTINUOUS
 62
     4
 10
-68.395114609322391
 20
-132.50000013249999
 30
0.0
 11
-53.211134662943202
 21
-132.50000013249999
 31
0.0
  0
LINE
  5
135
  8
NOTE
  6
CONTINUOUS
 62
     4
 10
-132.50000013250011
 20
-69.465867810676741
 30
0.0
 11
-132.50000013250011
 21
-51.671511046191362
 31
0.0
  0
LINE
  5
136
  8
NOTE
  6
CONTINUOUS
 62
     4
 10
-69.465867810676613
 20
132.50000013249999
 30
0.0
 11
-51.671511046191441
 21
132.50000013249999
 31
0.0
  0
LINE
  5
137
  8
NOTE
  6
CONTINUOUS
 62
     4
 10
-132.50000013250011
 20
68.395114609322533
 30
0.0
 11
-132.50000013250011
 21
53.211134662943138
 31
0.0
  0
ARC
  5
138
  8
DETAIL
  6
CONTINUOUS
 62
     5
 10
-145.5000001454915
 20
-145.5000001454915
 30
0.0
 40
1.500000001500096
 50
179.99999999999341
 51
270.0
  0
LINE
  5
139
  8
DETAIL
  6
CONTINUOUS
 62
     5
 10
-126.6152238157471
 20
-147.00000014701999
 30
0.0
 11
-145.50000014549181
 21
-147.00000014701999
 31
0.0
  0
LINE
  5
13A
  8
DETAIL
  6
CONTINUOUS
 62
     5
 10
-147.0000001469848
 20
-145.50000014552691
 30
0.0
 11
-147.0000001469848
 21
-126.6152238157824
 31
0.0
  0
ARC
  5
13B
  8
DETAIL
  6
CONTINUOUS
 62
     5
 10
145.5000001454915
 20
-145.50000014549161
 30
0.0
 40
1.500000001499973
 50
270.0
 51
0.0
  0
LINE
  5
13C
  8
DETAIL
  6
CONTINUOUS
 62
     5
 10
126.6152238157471
 20
-147.00000014702019
 30
0.0
 11
145.50000014549161
 21
-147.00000014701999
 31
0.0
  0
LINE
  5
13D
  8
DETAIL
  6
CONTINUOUS
 62
     5
 10
147.00000014698469
 20
-145.50000014552691
 30
0.0
 11
147.00000014698469
 21
-126.6152238157824
 31
0.0
  0
ARC
  5
13E
  8
DETAIL
  6
CONTINUOUS
 62
     5
 10
145.5000001454915
 20
145.5000001454915
 30
0.0
 40
1.500000001500096
 50
0.0
 51
90.0
  0
LINE
  5
13F
  8
DETAIL
  6
CONTINUOUS
 62
     5
 10
126.6152238157471
 20
147.0000001470201
 30
0.0
 11
145.50000014549161
 21
147.00000014701999
 31
0.0
  0
LINE
  5
140
  8
DETAIL
  6
CONTINUOUS
 62
     5
 10
147.00000014698469
 20
145.50000014552691
 30
0.0
 11
147.00000014698469
 21
126.6152238157824
 31
0.0
  0
ARC
  5
141
  8
DETAIL
  6
CONTINUOUS
 62
     5
 10
-145.5000001454915
 20
145.50000014549161
 30
0.0
 40
1.500000001499973
 50
90.0
 51
180.0
  0
LINE
  5
142
  8
DETAIL
  6
CONTINUOUS
 62
     5
 10
-126.6152238157471
 20
147.0000001470201
 30
0.0
 11
-145.50000014549181
 21
147.0000001470201
 31
0.0
  0
LINE
  5
143
  8
DETAIL
  6
CONTINUOUS
 62
     5
 10
-147.0000001469848
 20
145.50000014552691
 30
0.0
 11
-147.0000001469848
 21
126.6152238157824
 31
0.0
  0
CIRCLE
  5
144
  8
DETAIL
  6
CONTINUOUS
 62
     5
 10
35.000000034999857
 20
-136.0000001359999
 30
0.0
 40
4.0000000040000172
  0
LINE
  5
145
  8
DETAIL
  6
CONTINUOUS
 62
     5
 10
33.910330739307597
 20
-134.8989925917447
 30
0.0
 11
36.1638113197032
 21
-137.17592113296041
 31
0.0
  0
LINE
  5
146
  8
DETAIL
  6
CONTINUOUS
 62
     5
 10
33.752192548759808
 20
-137.0607903029032
 30
0.0
 11
36.316837673141549
 21
-134.88052583138739
 31
0.0
  0
CIRCLE
  5
147
  8
DETAIL
  6
CONTINUOUS
 62
     5
 10
-136.00000013600001
 20
-35.000000034999971
 30
0.0
 40
4.0000000040000172
  0
LINE
  5
148
  8
DETAIL
  6
CONTINUOUS
 62
     5
 10
-134.89899259174479
 20
-33.91033073930771
 30
0.0
 11
-137.17592113296041
 21
-36.163811319703321
 31
0.0
  0
LINE
  5
149
  8
DETAIL
  6
CONTINUOUS
 62
     5
 10
-137.06079030290351
 20
-33.752192548759872
 30
0.0
 11
-134.88052583138739
 21
-36.31683767314167
 31
0.0
  0
CIRCLE
  5
14A
  8
DETAIL
  6
CONTINUOUS
 62
     5
 10
-35.000000034999971
 20
136.0000001360001
 30
0.0
 40
4.0000000040000172
  0
LINE
  5
14B
  8
DETAIL
  6
CONTINUOUS
 62
     5
 10
-33.91033073930771
 20
134.89899259174479
 30
0.0
 11
-36.163811319703321
 21
137.17592113296041
 31
0.0
  0
LINE
  5
14C
  8
DETAIL
  6
CONTINUOUS
 62
     5
 10
-33.752192548759808
 20
137.06079030290331
 30
0.0
 11
-36.316837673141777
 21
134.88052583138739
 31
0.0
  0
LINE
  5
14D
  8
DETAIL
  6
CONTINUOUS
 62
     5
 10
134.89899259174479
 20
33.91033073930771
 30
0.0
 11
137.17592113296041
 21
36.163811319703321
 31
0.0
  0
LINE
  5
14E
  8
DETAIL
  6
CONTINUOUS
 62
     5
 10
137.0607903029032
 20
33.752192548759872
 30
0.0
 11
134.88052583138739
 21
36.31683767314167
 31
0.0
  0
CIRCLE
  5
14F
  8
DETAIL
  6
CONTINUOUS
 62
     5
 10
136.0000001359999
 20
35.000000034999971
 30
0.0
 40
4.0000000039999968
  0
CIRCLE
  5
150
  8
DETAIL
  6
CONTINUOUS
 62
     5
 10
35.000000034999971
 20
136.0000001360001
 30
0.0
 40
2.7500000027500162
  0
LINE
  5
151
  8
DETAIL
  6
CONTINUOUS
 62
     5
 10
-45.000000044999972
 20
150.444516673702
 30
0.0
 11
-45.000000044999972
 21
127.00000012700001
 31
0.0
  0
LINE
  5
152
  8
DETAIL
  6
CONTINUOUS
 62
     5
 10
42.000000042000011
 20
124.0000001239999
 30
0.0
 11
-42.000000042000011
 21
124.0000001239999
 31
0.0
  0
ARC
  5
153
  8
DETAIL
  6
CONTINUOUS
 62
     5
 10
-42.000000042000011
 20
127.00000012700001
 30
0.0
 40
3.00000000299999
 50
180.0
 51
270.0
  0
LINE
  5
154
  8
DETAIL
  6
CONTINUOUS
 62
     5
 10
45.000000044999972
 20
150.444516673702
 30
0.0
 11
45.000000044999972
 21
127.00000012700001
 31
0.0
  0
ARC
  5
155
  8
DETAIL
  6
CONTINUOUS
 62
     5
 10
42.000000042000011
 20
127.00000012700001
 30
0.0
 40
3.00000000300003
 50
270.0
 51
0.0
  0
LINE
  5
156
  8
DETAIL
  6
CONTINUOUS
 62
     5
 10
45.000000044999972
 20
150.444516673702
 30
0.0
 11
-45.000000044999972
 21
150.444516673702
 31
0.0
  0
CIRCLE
  5
157
  8
DETAIL
  6
CONTINUOUS
 62
     5
 10
136.0000001359999
 20
-35.000000034999971
 30
0.0
 40
2.7500000027499958
  0
LINE
  5
158
  8
DETAIL
  6
CONTINUOUS
 62
     5
 10
150.444516673702
 20
45.000000044999972
 30
0.0
 11
127.00000012699989
 21
45.000000044999972
 31
0.0
  0
LINE
  5
159
  8
DETAIL
  6
CONTINUOUS
 62
     5
 10
124.0000001239999
 20
-42.000000041999947
 30
0.0
 11
124.0000001239999
 21
42.000000042000011
 31
0.0
  0
ARC
  5
15A
  8
DETAIL
  6
CONTINUOUS
 62
     5
 10
127.00000012699989
 20
42.000000042000011
 30
0.0
 40
3.00000000300003
 50
90.0
 51
180.0
  0
LINE
  5
15B
  8
DETAIL
  6
CONTINUOUS
 62
     5
 10
150.444516673702
 20
-45.000000044999972
 30
0.0
 11
127.00000012699989
 21
-45.000000044999972
 31
0.0
  0
ARC
  5
15C
  8
DETAIL
  6
CONTINUOUS
 62
     5
 10
127.00000012699989
 20
-42.000000041999947
 30
0.0
 40
3.00000000299999
 50
180.0
 51
270.0
  0
LINE
  5
15D
  8
DETAIL
  6
CONTINUOUS
 62
     5
 10
150.444516673702
 20
-45.000000044999972
 30
0.0
 11
150.444516673702
 21
45.000000044999972
 31
0.0
  0
CIRCLE
  5
15E
  8
DETAIL
  6
CONTINUOUS
 62
     5
 10
-35.000000034999971
 20
-136.0000001359999
 30
0.0
 40
2.7500000027500162
  0
LINE
  5
15F
  8
DETAIL
  6
CONTINUOUS
 62
     5
 10
45.000000044999972
 20
-150.44451667370211
 30
0.0
 11
45.000000044999972
 21
-127.00000012700001
 31
0.0
  0
LINE
  5
160
  8
DETAIL
  6
CONTINUOUS
 62
     5
 10
-42.000000042000011
 20
-124.0000001239999
 30
0.0
 11
42.000000042000011
 21
-124.0000001239999
 31
0.0
  0
ARC
  5
161
  8
DETAIL
  6
CONTINUOUS
 62
     5
 10
42.000000042000011
 20
-127.00000012700001
 30
0.0
 40
3.00000000299999
 50
0.0
 51
90.0
  0
LINE
  5
162
  8
DETAIL
  6
CONTINUOUS
 62
     5
 10
-45.000000044999972
 20
-150.44451667370211
 30
0.0
 11
-45.000000044999972
 21
-127.00000012700001
 31
0.0
  0
ARC
  5
163
  8
DETAIL
  6
CONTINUOUS
 62
     5
 10
-42.000000042000011
 20
-127.00000012700001
 30
0.0
 40
3.00000000300003
 50
90.0
 51
180.0
  0
LINE
  5
164
  8
DETAIL
  6
CONTINUOUS
 62
     5
 10
-45.000000044999972
 20
-150.44451667370211
 30
0.0
 11
45.000000044999972
 21
-150.44451667370211
 31
0.0
  0
ARC
  5
165
  8
DETAIL
  6
CONTINUOUS
 62
     5
 10
-127.00000012700011
 20
42.000000042000011
 30
0.0
 40
3.000000002999951
 50
0.0
 51
90.0
  0
LINE
  5
166
  8
DETAIL
  6
CONTINUOUS
 62
     5
 10
-150.444516673702
 20
45.000000044999972
 30
0.0
 11
-127.00000012700011
 21
45.000000044999972
 31
0.0
  0
ARC
  5
167
  8
DETAIL
  6
CONTINUOUS
 62
     5
 10
-127.00000012700011
 20
-42.000000041999947
 30
0.0
 40
3.00000000300003
 50
270.0
 51
0.0
  0
LINE
  5
168
  8
DETAIL
  6
CONTINUOUS
 62
     5
 10
-124.0000001240001
 20
42.000000042000011
 30
0.0
 11
-124.0000001240001
 21
-42.000000041999947
 31
0.0
  0
LINE
  5
169
  8
DETAIL
  6
CONTINUOUS
 62
     5
 10
-150.444516673702
 20
-45.000000044999972
 30
0.0
 11
-127.00000012700011
 21
-45.000000044999972
 31
0.0
  0
CIRCLE
  5
16A
  8
DETAIL
  6
CONTINUOUS
 62
     5
 10
-136.00000013600001
 20
35.000000034999971
 30
0.0
 40
2.7500000027500162
  0
LINE
  5
16B
  8
DETAIL
  6
CONTINUOUS
 62
     5
 10
-150.444516673702
 20
45.000000044999972
 30
0.0
 11
-150.444516673702
 21
-45.000000044999972
 31
0.0
  0
ARC
  5
16C
  8
OUTLINE
  6
CONTINUOUS
 62
     3
 10
-148.000000148
 20
148.000000148
 30
0.0
 40
2.5000000025000002
 50
90.0
 51
180.0
  0
ARC
  5
16D
  8
OUTLINE
  6
CONTINUOUS
 62
     3
 10
-120.5220001205218
 20
120.52200012052199
 30
0.0
 40
0.978000000977903
 50
90.0
 51
180.0
  0
LINE
  5
16E
  8
OUTLINE
  6
CONTINUOUS
 62
     3
 10
-148.000000148
 20
150.50000015050011
 30
0.0
 11
-45.000000044999972
 21
150.50000015050011
 31
0.0
  0
LINE
  5
16F
  8
OUTLINE
  6
CONTINUOUS
 62
     3
 10
-120.5220001205218
 20
121.50000012149999
 30
0.0
 11
-45.000000044999972
 21
121.50000012149999
 31
0.0
  0
LINE
  5
170
  8
OUTLINE
  6
CONTINUOUS
 62
     3
 10
-150.5000001505
 20
148.000000148
 30
0.0
 11
-150.5000001505
 21
45.000000044999972
 31
0.0
  0
LINE
  5
171
  8
OUTLINE
  6
CONTINUOUS
 62
     3
 10
-121.50000012149989
 20
120.52200012052199
 30
0.0
 11
-121.50000012149989
 21
45.000000044999972
 31
0.0
  0
LINE
  5
172
  8
OUTLINE
  6
CONTINUOUS
 62
     3
 10
-124.0000001240001
 20
45.000000044999972
 30
0.0
 11
-121.50000012149989
 21
45.000000044999972
 31
0.0
  0
LINE
  5
173
  8
OUTLINE
  6
CONTINUOUS
 62
     3
 10
-45.000000044999972
 20
124.0000001239999
 30
0.0
 11
-45.000000044999972
 21
121.50000012149999
 31
0.0
  0
LINE
  5
174
  8
OUTLINE
  6
CONTINUOUS
 62
     3
 10
-124.0000001240001
 20
45.000000044999972
 30
0.0
 11
-124.0000001240001
 21
25.00000002500002
 31
0.0
  0
ARC
  5
175
  8
OUTLINE
  6
CONTINUOUS
 62
     3
 10
-148.000000148
 20
-148.000000148
 30
0.0
 40
2.5000000025000002
 50
180.0
 51
270.0
  0
ARC
  5
176
  8
OUTLINE
  6
CONTINUOUS
 62
     3
 10
-120.5220001205218
 20
-120.52200012052199
 30
0.0
 40
0.9780000009780657
 50
180.0
 51
270.0
  0
LINE
  5
177
  8
OUTLINE
  6
CONTINUOUS
 62
     3
 10
-150.5000001505
 20
-148.000000148
 30
0.0
 11
-150.5000001505
 21
-45.000000044999972
 31
0.0
  0
LINE
  5
178
  8
OUTLINE
  6
CONTINUOUS
 62
     3
 10
-121.50000012149989
 20
-120.52200012052199
 30
0.0
 11
-121.50000012149989
 21
-45.000000044999972
 31
0.0
  0
LINE
  5
179
  8
OUTLINE
  6
CONTINUOUS
 62
     3
 10
-148.000000148
 20
-150.50000015050011
 30
0.0
 11
-45.000000044999972
 21
-150.50000015050011
 31
0.0
  0
LINE
  5
17A
  8
OUTLINE
  6
CONTINUOUS
 62
     3
 10
-120.5220001205218
 20
-121.50000012149999
 30
0.0
 11
-45.000000044999972
 21
-121.50000012149999
 31
0.0
  0
LINE
  5
17B
  8
OUTLINE
  6
CONTINUOUS
 62
     3
 10
-45.000000044999972
 20
-124.0000001239999
 30
0.0
 11
-45.000000044999972
 21
-121.50000012149999
 31
0.0
  0
LINE
  5
17C
  8
OUTLINE
  6
CONTINUOUS
 62
     3
 10
-124.0000001240001
 20
-45.000000044999972
 30
0.0
 11
-121.50000012149989
 21
-45.000000044999972
 31
0.0
  0
LINE
  5
17D
  8
OUTLINE
  6
CONTINUOUS
 62
     3
 10
-45.000000044999972
 20
-124.0000001239999
 30
0.0
 11
-25.000000024999739
 21
-124.0000001239999
 31
0.0
  0
LINE
  5
17E
  8
OUTLINE
  6
CONTINUOUS
 62
     3
 10
-124.0000001240001
 20
-45.000000044999972
 30
0.0
 11
-124.0000001240001
 21
-25.00000002499997
 31
0.0
  0
ARC
  5
17F
  8
OUTLINE
  6
CONTINUOUS
 62
     3
 10
148.000000148
 20
-148.000000148
 30
0.0
 40
2.5000000025000002
 50
270.0
 51
0.0
  0
ARC
  5
180
  8
OUTLINE
  6
CONTINUOUS
 62
     3
 10
120.52200012052199
 20
-120.52200012052199
 30
0.0
 40
0.9780000009780657
 50
270.0
 51
0.0
  0
LINE
  5
181
  8
OUTLINE
  6
CONTINUOUS
 62
     3
 10
148.000000148
 20
-150.50000015050011
 30
0.0
 11
45.000000044999972
 21
-150.50000015050011
 31
0.0
  0
LINE
  5
182
  8
OUTLINE
  6
CONTINUOUS
 62
     3
 10
120.52200012052199
 20
-121.50000012149999
 30
0.0
 11
45.000000044999972
 21
-121.50000012149999
 31
0.0
  0
LINE
  5
183
  8
OUTLINE
  6
CONTINUOUS
 62
     3
 10
150.5000001505
 20
-148.000000148
 30
0.0
 11
150.5000001505
 21
-45.000000044999972
 31
0.0
  0
LINE
  5
184
  8
OUTLINE
  6
CONTINUOUS
 62
     3
 10
121.50000012150009
 20
-120.52200012052199
 30
0.0
 11
121.50000012150009
 21
-45.000000044999972
 31
0.0
  0
LINE
  5
185
  8
OUTLINE
  6
CONTINUOUS
 62
     3
 10
124.0000001240001
 20
-45.000000044999972
 30
0.0
 11
121.50000012150009
 21
-45.000000044999972
 31
0.0
  0
LINE
  5
186
  8
OUTLINE
  6
CONTINUOUS
 62
     3
 10
45.000000044999972
 20
-124.0000001239999
 30
0.0
 11
45.000000044999972
 21
-121.50000012149999
 31
0.0
  0
ARC
  5
187
  8
OUTLINE
  6
CONTINUOUS
 62
     3
 10
148.000000148
 20
148.000000148
 30
0.0
 40
2.5000000025000002
 50
0.0
 51
90.0
  0
ARC
  5
188
  8
OUTLINE
  6
CONTINUOUS
 62
     3
 10
120.52200012052199
 20
120.5220001205218
 30
0.0
 40
0.9780000009779633
 50
0.0
 51
90.0
  0
LINE
  5
189
  8
OUTLINE
  6
CONTINUOUS
 62
     3
 10
150.5000001505
 20
148.000000148
 30
0.0
 11
150.5000001505
 21
45.000000044999972
 31
0.0
  0
LINE
  5
18A
  8
OUTLINE
  6
CONTINUOUS
 62
     3
 10
121.50000012150009
 20
120.5220001205218
 30
0.0
 11
121.50000012150009
 21
45.000000044999972
 31
0.0
  0
LINE
  5
18B
  8
OUTLINE
  6
CONTINUOUS
 62
     3
 10
148.000000148
 20
150.50000015050011
 30
0.0
 11
45.000000044999972
 21
150.50000015050011
 31
0.0
  0
LINE
  5
18C
  8
OUTLINE
  6
CONTINUOUS
 62
     3
 10
120.52200012052199
 20
121.50000012149999
 30
0.0
 11
45.000000044999972
 21
121.50000012149999
 31
0.0
  0
LINE
  5
18D
  8
OUTLINE
  6
CONTINUOUS
 62
     3
 10
45.000000044999972
 20
124.0000001239999
 30
0.0
 11
45.000000044999972
 21
121.50000012149999
 31
0.0
  0
LINE
  5
18E
  8
OUTLINE
  6
CONTINUOUS
 62
     3
 10
124.0000001240001
 20
45.000000044999972
 30
0.0
 11
121.50000012150009
 21
45.000000044999972
 31
0.0
  0
LINE
  5
18F
  8
OUTLINE
  6
CONTINUOUS
 62
     3
 10
45.000000044999972
 20
124.0000001239999
 30
0.0
 11
25.00000002500019
 21
124.0000001239999
 31
0.0
  0
LINE
  5
190
  8
OUTLINE
  6
CONTINUOUS
 62
     3
 10
124.0000001240001
 20
45.000000044999972
 30
0.0
 11
124.0000001240001
 21
25.00000002500002
 31
0.0
  0
LINE
  5
191
  8
OUTLINE
  6
CONTINUOUS
 62
     3
 10
42.000000042000011
 20
124.0000001239999
 30
0.0
 11
-45.000000044999972
 21
124.0000001239999
 31
0.0
  0
LINE
  5
192
  8
OUTLINE
  6
CONTINUOUS
 62
     3
 10
45.000000044999972
 20
150.444516673702
 30
0.0
 11
-45.000000044999972
 21
150.444516673702
 31
0.0
  0
LINE
  5
193
  8
OUTLINE
  6
CONTINUOUS
 62
     3
 10
124.0000001240001
 20
-45.000000044999972
 30
0.0
 11
124.0000001240001
 21
42.000000042000011
 31
0.0
  0
LINE
  5
194
  8
OUTLINE
  6
CONTINUOUS
 62
     3
 10
150.44451667370211
 20
-45.000000044999972
 30
0.0
 11
150.44451667370211
 21
45.000000044999972
 31
0.0
  0
LINE
  5
195
  8
OUTLINE
  6
CONTINUOUS
 62
     3
 10
-42.000000042000011
 20
-124.0000001239999
 30
0.0
 11
45.000000044999972
 21
-124.0000001239999
 31
0.0
  0
LINE
  5
196
  8
OUTLINE
  6
CONTINUOUS
 62
     3
 10
-45.000000044999972
 20
-150.44451667370211
 30
0.0
 11
45.000000044999972
 21
-150.44451667370211
 31
0.0
  0
LINE
  5
197
  8
OUTLINE
  6
CONTINUOUS
 62
     3
 10
-124.0000001240001
 20
42.000000042000011
 30
0.0
 11
-124.0000001240001
 21
-42.000000041999947
 31
0.0
  0
LINE
  5
198
  8
OUTLINE
  6
CONTINUOUS
 62
     3
 10
-150.44451667370191
 20
45.000000044999972
 30
0.0
 11
-150.44451667370191
 21
-45.000000044999972
 31
0.0
  0
CIRCLE
  5
199
  8
SIZE
  6
CONTINUOUS
 62
    30
 39
50.0
 10
60.000000059999927
 20
132.50000013249999
 30
0.0
 40
5.0
  0
CIRCLE
  5
19A
  8
SIZE
  6
CONTINUOUS
 62
    30
 39
50.0
 10
-60.000000059999927
 20
132.50000013249999
 30
0.0
 40
5.0
  0
CIRCLE
  5
19B
  8
SIZE
  6
CONTINUOUS
 62
    30
 39
50.0
 10
-132.50000013250011
 20
60.000000059999991
 30
0.0
 40
5.0
  0
CIRCLE
  5
19C
  8
SIZE
  6
CONTINUOUS
 62
    30
 39
50.0
 10
-132.50000013250011
 20
-60.000000059999991
 30
0.0
 40
5.0
  0
CIRCLE
  5
19D
  8
SIZE
  6
CONTINUOUS
 62
    30
 39
50.0
 10
-60.000000059999927
 20
-132.50000013249999
 30
0.0
 40
5.0
  0
CIRCLE
  5
19E
  8
SIZE
  6
CONTINUOUS
 62
    30
 39
50.0
 10
60.000000059999927
 20
-132.50000013249999
 30
0.0
 40
5.0
  0
CIRCLE
  5
19F
  8
SIZE
  6
CONTINUOUS
 62
    30
 39
50.0
 10
132.50000013249999
 20
-60.000000059999991
 30
0.0
 40
5.0
  0
LINE
  5
1A0
  8
NOTE
  6
CONTINUOUS
 62
     4
 10
132.50000013249999
 20
-60.000000059999991
 30
0.0
 11
221.68329494633099
 21
-169.2379482150204
 31
0.0
  0
LINE
  5
1A1
  8
NOTE
  6
CONTINUOUS
 62
     4
 10
221.68329494633099
 20
-169.2379482150204
 30
0.0
 11
233.68329494633099
 21
-169.2379482150204
 31
0.0
  0
LINE
  5
1A2
  8
NOTE
  6
CONTINUOUS
 62
     4
 10
233.68329494633099
 20
-169.2379482150204
 30
0.0
 11
1292.7004378034731
 21
-169.2379482150204
 31
0.0
  0
LINE
  5
1A3
  8
NOTE
  6
CONTINUOUS
 62
     4
 10
141.72805556898419
 20
-67.957394498840088
 30
0.0
 11
138.44994654389649
 21
-70.633685737864411
 31
0.0
  0
LINE
  5
1A4
  8
NOTE
  6
CONTINUOUS
 62
     4
 10
138.44994654389649
 20
-70.633685737864411
 30
0.0
 11
132.50000013249999
 21
-60.000000059999991
 31
0.0
  0
LINE
  5
1A5
  8
NOTE
  6
CONTINUOUS
 62
     4
 10
132.50000013249999
 20
-60.000000059999991
 30
0.0
 11
141.72805556898419
 21
-67.957394498840088
 31
0.0
  0
TEXT
  5
1A6
  8
NOTE
  6
CONTINUOUS
 62
     4
 10
260.10445715526703
 20
-147.3072366811451
 30
0.0
 40
64.0
  1
8\U+00D7\U+03C63.2 換気扇本体固定用穴
 41
0.9
  0
LINE
  5
1A7
  8
SIZE
  6
CONTINUOUS
 62
    30
 10
-150.50000015050011
 20
168.000000148
 30
0.0
 11
-150.50000015050011
 21
484.88663303177361
 31
0.0
  0
LINE
  5
1A8
  8
SIZE
  6
CONTINUOUS
 62
    30
 10
150.5000001505
 20
168.000000148
 30
0.0
 11
150.5000001505
 21
484.88663303177361
 31
0.0
  0
LINE
  5
1A9
  8
SIZE
  6
CONTINUOUS
 62
    30
 10
-138.50000015050011
 20
464.88663303177361
 30
0.0
 11
138.5000001505
 21
464.88663303177361
 31
0.0
  0
CIRCLE
  5
1AA
  8
SIZE
  6
CONTINUOUS
 62
    30
 10
-150.50000015050011
 20
464.88663303177361
 30
0.0
 40
6.0
  0
LINE
  5
1AB
  8
SIZE
  6
CONTINUOUS
 62
    30
 10
-150.50000015050011
 20
464.88663303177361
 30
0.0
 11
-138.50000015050011
 21
464.88663303177361
 31
0.0
  0
CIRCLE
  5
1AC
  8
SIZE
  6
CONTINUOUS
 62
    30
 10
150.5000001505
 20
464.88663303177361
 30
0.0
 40
6.0
  0
LINE
  5
1AD
  8
SIZE
  6
CONTINUOUS
 62
    30
 10
150.5000001505
 20
464.88663303177361
 30
0.0
 11
138.5000001505
 21
464.88663303177361
 31
0.0
  0
TEXT
  5
1AE
  8
SIZE
  6
CONTINUOUS
 62
    30
 10
-98.194285714285741
 20
489.88663303177361
 30
0.0
 40
64.0
  1
□301
 41
0.9
 72
     1
 11
-0.0000000000000284
 21
489.88663303177361
 31
0.0
  0
POINT
  5
1AF
  8
DEFPOINTS
  6
CONTINUOUS
 62
    30
 10
-150.50000015050011
 20
148.000000148
 30
0.0
  0
POINT
  5
1B0
  8
DEFPOINTS
  6
CONTINUOUS
 62
    30
 10
150.5000001505
 20
148.000000148
 30
0.0
  0
POINT
  5
1B1
  8
DEFPOINTS
  6
CONTINUOUS
 62
    30
 10
150.5000001505
 20
464.88663303177361
 30
0.0
  0
LINE
  5
1B2
  8
SIZE
  6
CONTINUOUS
 62
    30
 10
-132.50000013250011
 20
88.395114609322547
 30
0.0
 11
-132.50000013249999
 21
380.75766563749772
 31
0.0
  0
LINE
  5
1B3
  8
SIZE
  6
CONTINUOUS
 62
    30
 10
132.50000013249999
 20
89.465867810676727
 30
0.0
 11
132.50000013249999
 21
380.75766563749772
 31
0.0
  0
LINE
  5
1B4
  8
SIZE
  6
CONTINUOUS
 62
    30
 10
-120.50000013250001
 20
360.75766563749772
 30
0.0
 11
120.50000013250001
 21
360.75766563749772
 31
0.0
  0
CIRCLE
  5
1B5
  8
SIZE
  6
CONTINUOUS
 62
    30
 10
-132.50000013249999
 20
360.75766563749772
 30
0.0
 40
6.0
  0
LINE
  5
1B6
  8
SIZE
  6
CONTINUOUS
 62
    30
 10
-132.50000013249999
 20
360.75766563749772
 30
0.0
 11
-120.50000013250001
 21
360.75766563749772
 31
0.0
  0
CIRCLE
  5
1B7
  8
SIZE
  6
CONTINUOUS
 62
    30
 10
132.50000013249999
 20
360.75766563749772
 30
0.0
 40
6.0
  0
LINE
  5
1B8
  8
SIZE
  6
CONTINUOUS
 62
    30
 10
132.50000013249999
 20
360.75766563749772
 30
0.0
 11
120.50000013250001
 21
360.75766563749772
 31
0.0
  0
TEXT
  5
1B9
  8
SIZE
  6
CONTINUOUS
 62
    30
 10
-74.057142857142907
 20
385.75766563749772
 30
0.0
 40
64.0
  1
265
 41
0.9
 72
     1
 11
-0.0000000000000568
 21
385.75766563749772
 31
0.0
  0
POINT
  5
1BA
  8
DEFPOINTS
  6
CONTINUOUS
 62
    30
 10
-132.50000013250011
 20
68.395114609322533
 30
0.0
  0
POINT
  5
1BB
  8
DEFPOINTS
  6
CONTINUOUS
 62
    30
 10
132.50000013249999
 20
69.465867810676741
 30
0.0
  0
POINT
  5
1BC
  8
DEFPOINTS
  6
CONTINUOUS
 62
    30
 10
132.50000013249999
 20
360.75766563749772
 30
0.0
  0
LINE
  5
1BD
  8
SIZE
  6
CONTINUOUS
 62
    30
 10
-60.000000059999927
 20
176.53316430753981
 30
0.0
 11
-60.000000059999927
 21
267.16242820485968
 31
0.0
  0
LINE
  5
1BE
  8
SIZE
  6
CONTINUOUS
 62
    30
 10
60.000000059999927
 20
176.53316430754001
 30
0.0
 11
60.000000059999927
 21
267.16242820485968
 31
0.0
  0
LINE
  5
1BF
  8
SIZE
  6
CONTINUOUS
 62
    30
 10
-48.000000059999941
 20
247.16242820485971
 30
0.0
 11
48.000000059999941
 21
247.16242820485971
 31
0.0
  0
CIRCLE
  5
1C0
  8
SIZE
  6
CONTINUOUS
 62
    30
 10
-60.000000059999927
 20
247.16242820485971
 30
0.0
 40
6.0
  0
LINE
  5
1C1
  8
SIZE
  6
CONTINUOUS
 62
    30
 10
-60.000000059999927
 20
247.16242820485971
 30
0.0
 11
-48.000000059999941
 21
247.16242820485971
 31
0.0
  0
CIRCLE
  5
1C2
  8
SIZE
  6
CONTINUOUS
 62
    30
 10
60.000000059999927
 20
247.16242820485971
 30
0.0
 40
6.0
  0
LINE
  5
1C3
  8
SIZE
  6
CONTINUOUS
 62
    30
 10
60.000000059999927
 20
247.16242820485971
 30
0.0
 11
48.000000059999941
 21
247.16242820485971
 31
0.0
  0
TEXT
  5
1C4
  8
SIZE
  6
CONTINUOUS
 62
    30
 10
-68.571428571428555
 20
272.16242820485968
 30
0.0
 40
64.0
  1
120
 41
0.9
 72
     1
 11
0.0000000000000142
 21
272.16242820485968
 31
0.0
  0
POINT
  5
1C5
  8
DEFPOINTS
  6
CONTINUOUS
 62
    30
 10
-60.000000059999927
 20
156.53316430753989
 30
0.0
  0
POINT
  5
1C6
  8
DEFPOINTS
  6
CONTINUOUS
 62
    30
 10
60.000000059999927
 20
156.53316430754001
 30
0.0
  0
POINT
  5
1C7
  8
DEFPOINTS
  6
CONTINUOUS
 62
    30
 10
60.000000059999927
 20
247.16242820485971
 30
0.0
  0
LINE
  5
1C8
  8
SIZE
  6
CONTINUOUS
 62
    30
 10
-89.465867810676627
 20
132.50000013249999
 30
0.0
 11
-344.94850436832212
 21
132.50000013249999
 31
0.0
  0
LINE
  5
1C9
  8
SIZE
  6
CONTINUOUS
 62
    30
 10
-89.465867810676627
 20
-132.50000013249999
 30
0.0
 11
-344.94850436832218
 21
-132.50000013249991
 31
0.0
  0
LINE
  5
1CA
  8
SIZE
  6
CONTINUOUS
 62
    30
 10
-324.94850436832201
 20
120.50000013250001
 30
0.0
 11
-324.94850436832201
 21
-120.50000013249991
 31
0.0
  0
CIRCLE
  5
1CB
  8
SIZE
  6
CONTINUOUS
 62
    30
 10
-324.94850436832201
 20
132.50000013249999
 30
0.0
 40
6.0
  0
LINE
  5
1CC
  8
SIZE
  6
CONTINUOUS
 62
    30
 10
-324.94850436832201
 20
132.50000013249999
 30
0.0
 11
-324.94850436832201
 21
120.50000013250001
 31
0.0
  0
CIRCLE
  5
1CD
  8
SIZE
  6
CONTINUOUS
 62
    30
 10
-324.94850436832218
 20
-132.50000013249991
 30
0.0
 40
6.0
  0
LINE
  5
1CE
  8
SIZE
  6
CONTINUOUS
 62
    30
 10
-324.94850436832218
 20
-132.50000013249991
 30
0.0
 11
-324.94850436832218
 21
-120.50000013249991
 31
0.0
  0
TEXT
  5
1CF
  8
SIZE
  6
CONTINUOUS
 62
    30
 10
-349.94850436832201
 20
-74.05714285714285
 30
0.0
 40
64.0
  1
265
 50
90.0
 41
0.9
 72
     1
 11
-349.94850436832201
 21
-0.0000000000000035
 31
0.0
  0
POINT
  5
1D0
  8
DEFPOINTS
  6
CONTINUOUS
 62
    30
 10
-69.465867810676613
 20
132.50000013249999
 30
0.0
  0
POINT
  5
1D1
  8
DEFPOINTS
  6
CONTINUOUS
 62
    30
 10
-69.465867810676613
 20
-132.50000013249999
 30
0.0
  0
POINT
  5
1D2
  8
DEFPOINTS
  6
CONTINUOUS
 62
    30
 10
-324.94850436832218
 20
-132.50000013249991
 30
0.0
  0
LINE
  5
1D3
  8
SIZE
  6
CONTINUOUS
 62
    30
 10
-172.60336990630751
 20
60.000000059999991
 30
0.0
 11
-217.03760085153499
 21
60.000000060000012
 31
0.0
  0
LINE
  5
1D4
  8
SIZE
  6
CONTINUOUS
 62
    30
 10
-176.53316430754001
 20
-60.000000059999977
 30
0.0
 11
-217.03760085153499
 21
-60.000000059999962
 31
0.0
  0
LINE
  5
1D5
  8
SIZE
  6
CONTINUOUS
 62
    30
 10
-197.0376008515349
 20
72.000000060000019
 30
0.0
 11
-197.0376008515349
 21
84.000000060000005
 31
0.0
  0
LINE
  5
1D6
  8
SIZE
  6
CONTINUOUS
 62
    30
 10
-197.0376008515349
 20
-72.000000059999977
 30
0.0
 11
-197.0376008515349
 21
-84.000000059999977
 31
0.0
  0
LINE
  5
1D7
  8
SIZE
  6
CONTINUOUS
 62
    30
 10
-197.0376008515349
 20
60.000000059999998
 30
0.0
 11
-197.0376008515349
 21
-60.000000059999977
 31
0.0
  0
CIRCLE
  5
1D8
  8
SIZE
  6
CONTINUOUS
 62
    30
 10
-197.0376008515349
 20
60.000000059999998
 30
0.0
 40
6.0
  0
LINE
  5
1D9
  8
SIZE
  6
CONTINUOUS
 62
    30
 10
-197.0376008515349
 20
60.000000059999998
 30
0.0
 11
-197.0376008515349
 21
72.000000059999977
 31
0.0
  0
CIRCLE
  5
1DA
  8
SIZE
  6
CONTINUOUS
 62
    30
 10
-197.0376008515349
 20
-60.000000059999977
 30
0.0
 40
6.0
  0
LINE
  5
1DB
  8
SIZE
  6
CONTINUOUS
 62
    30
 10
-197.0376008515349
 20
-60.000000059999977
 30
0.0
 11
-197.0376008515349
 21
-72.000000059999977
 31
0.0
  0
TEXT
  5
1DC
  8
SIZE
  6
CONTINUOUS
 62
    30
 10
-222.03760085153499
 20
-68.571428571428584
 30
0.0
 40
64.0
  1
120
 50
90.0
 41
0.9
 72
     1
 11
-222.03760085153499
 21
-0.0000000000000185
 31
0.0
  0
POINT
  5
1DD
  8
DEFPOINTS
  6
CONTINUOUS
 62
    30
 10
-152.60336990630751
 20
60.000000059999991
 30
0.0
  0
POINT
  5
1DE
  8
DEFPOINTS
  6
CONTINUOUS
 62
    30
 10
-156.53316430754001
 20
-60.000000059999991
 30
0.0
  0
POINT
  5
1DF
  8
DEFPOINTS
  6
CONTINUOUS
 62
    30
 10
-197.0376008515349
 20
-60.000000059999977
 30
0.0
  0
TEXT
  5
1E8
  8
ETC
  6
CONTINUOUS
 62
    61
 10
501.22503534328501
 20
182.93164077786381
 30
0.0
 40
40.0
  1
P-20WPS
 41
0.9
  0
ENDSEC
  0
EOF
