  0
SECTION
  2
HEADER
  9
$ACADVER
  1
AC1009
  9
$INSBASE
 10
0.0
 20
0.0
 30
0.0
  9
$EXTMIN
 10
-283.64344399999999
 20
-333.70198099999999
 30
0.0
  9
$EXTMAX
 10
688.41763065081398
 20
399.34421000000009
 30
0.0
  9
$LIMMIN
 10
-4200.0
 20
-2970.0
  9
$LIMMAX
 10
4200.0
 20
2970.0
  9
$ORTHOMODE
 70
     1
  9
$REGENMODE
 70
     1
  9
$FILLMODE
 70
     1
  9
$QTEXTMODE
 70
     0
  9
$MIRRTEXT
 70
     0
  9
$DRAGMODE
 70
     2
  9
$LTSCALE
 40
20.0
  9
$OSMODE
 70
    37
  9
$ATTMODE
 70
     1
  9
$TEXTSIZE
 40
64.0
  9
$TRACEWID
 40
0.05
  9
$TEXTSTYLE
  7
STANDARD
  9
$CLAYER
  8
SIZE
  9
$CELTYPE
  6
CONTINUOUS
  9
$CECOLOR
 62
     7
  9
$DIMSCALE
 40
1.0
  9
$DIMASZ
 40
2.0
  9
$DIMEXO
 40
20.0
  9
$DIMDLI
 40
200.0
  9
$DIMRND
 40
0.0
  9
$DIMDLE
 40
0.0
  9
$DIMEXE
 40
30.0
  9
$DIMTP
 40
0.0
  9
$DIMTM
 40
0.0
  9
$DIMTXT
 40
64.0
  9
$DIMCEN
 40
0.09
  9
$DIMTSZ
 40
0.0
  9
$DIMTOL
 70
     0
  9
$DIMLIM
 70
     0
  9
$DIMTIH
 70
     0
  9
$DIMTOH
 70
     0
  9
$DIMSE1
 70
     0
  9
$DIMSE2
 70
     0
  9
$DIMTAD
 70
     1
  9
$DIMZIN
 70
     8
  9
$DIMBLK
  1
DOT1
  9
$DIMASO
 70
     1
  9
$DIMSHO
 70
     0
  9
$DIMPOST
  1

  9
$DIMAPOST
  1

  9
$DIMALT
 70
     0
  9
$DIMALTD
 70
     2
  9
$DIMALTF
 40
25.399999999999999
  9
$DIMLFAC
 40
1.0
  9
$DIMTOFL
 70
     1
  9
$DIMTVP
 40
0.0
  9
$DIMTIX
 70
     1
  9
$DIMSOXD
 70
     0
  9
$DIMSAH
 70
     0
  9
$DIMBLK1
  1

  9
$DIMBLK2
  1

  9
$DIMSTYLE
  2
STANDARD
  9
$DIMCLRD
 70
     7
  9
$DIMCLRE
 70
     7
  9
$DIMCLRT
 70
     7
  9
$DIMTFAC
 40
1.0
  9
$DIMGAP
 40
0.09
  9
$LUNITS
 70
     2
  9
$LUPREC
 70
     4
  9
$SKETCHINC
 40
0.1
  9
$FILLETRAD
 40
10.0
  9
$AUNITS
 70
     1
  9
$AUPREC
 70
     3
  9
$MENU
  1
ACAD
  9
$ELEVATION
 40
0.0
  9
$PELEVATION
 40
0.0
  9
$THICKNESS
 40
0.0
  9
$LIMCHECK
 70
     1
  9
$BLIPMODE
 70
     0
  9
$CHAMFERA
 40
0.0
  9
$CHAMFERB
 40
0.0
  9
$SKPOLY
 70
     0
  9
$TDCREATE
 40
2451800.6679166672
  9
$TDUPDATE
 40
2454803.4221253479
  9
$TDINDWG
 40
0.019154375
  9
$TDUSRTIMER
 40
0.0191541898
  9
$USRTIMER
 70
     1
  9
$ANGBASE
 50
0.0
  9
$ANGDIR
 70
     0
  9
$PDMODE
 70
     3
  9
$PDSIZE
 40
-2.0
  9
$PLINEWID
 40
0.0
  9
$COORDS
 70
     1
  9
$SPLFRAME
 70
     0
  9
$SPLINETYPE
 70
     6
  9
$SPLINESEGS
 70
     8
  9
$ATTDIA
 70
     0
  9
$ATTREQ
 70
     1
  9
$HANDLING
 70
     1
  9
$HANDSEED
  5
123
  9
$SURFTAB1
 70
     6
  9
$SURFTAB2
 70
     6
  9
$SURFTYPE
 70
     6
  9
$SURFU
 70
     6
  9
$SURFV
 70
     6
  9
$UCSNAME
  2

  9
$UCSORG
 10
0.0
 20
0.0
 30
0.0
  9
$UCSXDIR
 10
1.0
 20
0.0
 30
0.0
  9
$UCSYDIR
 10
0.0
 20
1.0
 30
0.0
  9
$PUCSNAME
  2

  9
$PUCSORG
 10
0.0
 20
0.0
 30
0.0
  9
$PUCSXDIR
 10
1.0
 20
0.0
 30
0.0
  9
$PUCSYDIR
 10
0.0
 20
1.0
 30
0.0
  9
$USERI1
 70
     0
  9
$USERI2
 70
     0
  9
$USERI3
 70
     0
  9
$USERI4
 70
     0
  9
$USERI5
 70
     0
  9
$USERR1
 40
20.0
  9
$USERR2
 40
0.0
  9
$USERR3
 40
0.0
  9
$USERR4
 40
0.0
  9
$USERR5
 40
0.0
  9
$WORLDVIEW
 70
     1
  9
$SHADEDGE
 70
     3
  9
$SHADEDIF
 70
    70
  9
$TILEMODE
 70
     1
  9
$MAXACTVP
 70
    48
  9
$PLIMCHECK
 70
     0
  9
$PEXTMIN
 10
-1.0000000000000000E+020
 20
-1.0000000000000000E+020
 30
-1.0000000000000000E+020
  9
$PEXTMAX
 10
1.0000000000000000E+020
 20
1.0000000000000000E+020
 30
1.0000000000000000E+020
  9
$PLIMMIN
 10
0.0
 20
0.0
  9
$PLIMMAX
 10
12.0
 20
9.0
  9
$UNITMODE
 70
     0
  9
$VISRETAIN
 70
     0
  9
$PLINEGEN
 70
     0
  9
$PSLTSCALE
 70
     0
  0
ENDSEC
  0
SECTION
  2
TABLES
  0
TABLE
  2
VPORT
 70
     1
  0
VPORT
  2
*ACTIVE
 70
     0
 10
0.0
 20
0.0
 11
1.0
 21
1.0
 12
381.52319988935091
 22
-50.193195333389781
 13
0.0
 23
0.0
 14
400.0
 24
400.0
 15
400.0
 25
400.0
 16
0.0
 26
0.0
 36
1.0
 17
0.0
 27
0.0
 37
0.0
 40
1029.755642503135
 41
1.313669064748201
 42
50.0
 43
0.0
 44
0.0
 50
0.0
 51
0.0
 71
     0
 72
   500
 73
     1
 74
     0
 75
     0
 76
     0
 77
     0
 78
     1
  0
ENDTAB
  0
TABLE
  2
LTYPE
 70
     3
  0
LTYPE
  2
CONTINUOUS
 70
     0
  3
実線
 72
    65
 73
     0
 40
0.0
  0
LTYPE
  2
DASHDOT
 70
     0
  3
____ _ ____ _ ____ _ ____ _ ____ _ ____ _ ____
 72
    65
 73
     4
 40
5.5
 49
4.0
 49
-0.6
 49
0.3
 49
-0.6
  0
ENDTAB
  0
TABLE
  2
LAYER
 70
    12
  0
LAYER
  2
0
 70
     0
 62
     7
  6
CONTINUOUS
  0
LAYER
  2
SIZE
 70
     0
 62
    30
  6
CONTINUOUS
  0
LAYER
  2
OUTLINE
 70
     0
 62
     3
  6
CONTINUOUS
  0
LAYER
  2
DETAIL
 70
     0
 62
     5
  6
CONTINUOUS
  0
LAYER
  2
BASIS
 70
     0
 62
     6
  6
DASHDOT
  0
LAYER
  2
ARRANGE
 70
     0
 62
     1
  6
CONTINUOUS
  0
LAYER
  2
ETC
 70
     0
 62
    61
  6
CONTINUOUS
  0
LAYER
  2
DEFPOINTS
 70
     0
 62
     7
  6
CONTINUOUS
  0
LAYER
  2
FIX
 70
     0
 62
    11
  6
CONTINUOUS
  0
LAYER
  2
NOTE
 70
     0
 62
     4
  6
CONTINUOUS
  0
LAYER
  2
SERVICESPACE
 70
     0
 62
     2
  6
DASHDOT
  0
LAYER
  2
SYMBOLLINE
 70
     0
 62
    15
  6
CONTINUOUS
  0
ENDTAB
  0
TABLE
  2
STYLE
 70
     2
  0
STYLE
  2
STANDARD
 70
     0
 40
0.0
 41
0.9
 50
0.0
 71
     0
 42
64.0
  3
SIMPLEX
  4
BIGFONT
  0
STYLE
  2
ANNOTATIVE
 70
     0
 40
0.0
 41
1.0
 50
0.0
 71
     0
 42
0.2
  3
txt
  4

  0
ENDTAB
  0
TABLE
  2
VIEW
 70
     1
  0
VIEW
  2
ALL
 70
     0
 40
6374.9789810000002
 10
0.0
 20
58.115015999999997
 41
8842.1052629999976
 11
0.0
 21
0.0
 31
1.0
 12
0.0
 22
0.0
 32
0.0
 42
50.0
 43
0.0
 44
0.0
 50
0.0
 71
     0
  0
ENDTAB
  0
TABLE
  2
UCS
 70
     0
  0
ENDTAB
  0
TABLE
  2
APPID
 70
     4
  0
APPID
  2
ACAD
 70
     0
  0
APPID
  2
ACADANNOTATIVE
 70
     0
  0
APPID
  2
ACAD_MLEADERVER
 70
     0
  0
APPID
  2
ACAD_EXEMPT_FROM_CAD_STANDARDS
 70
     0
  0
ENDTAB
  0
TABLE
  2
DIMSTYLE
 70
     2
  0
DIMSTYLE
  2
STANDARD
 70
     0
  3

  4

  5

  6

  7

 40
1.0
 41
0.18
 42
0.0625
 43
0.38
 44
0.18
 45
0.0
 46
0.0
 47
0.0
 48
0.0
140
0.18
141
0.09
142
0.0
143
25.399999999999999
144
1.0
145
0.0
146
1.0
147
0.09
 71
     0
 72
     0
 73
     1
 74
     1
 75
     0
 76
     0
 77
     0
 78
     0
170
     0
171
     2
172
     0
173
     0
174
     0
175
     0
176
     7
177
     7
178
     7
  0
DIMSTYLE
  2
ANNOTATIVE
 70
     0
  3

  4

  5

  6

  7

 40
1.0
 41
0.18
 42
0.0625
 43
0.38
 44
0.18
 45
0.0
 46
0.0
 47
0.0
 48
0.0
140
0.18
141
0.09
142
0.0
143
25.399999999999999
144
1.0
145
0.0
146
1.0
147
0.09
 71
     0
 72
     0
 73
     1
 74
     1
 75
     0
 76
     0
 77
     0
 78
     0
170
     0
171
     2
172
     0
173
     0
174
     0
175
     0
176
     0
177
     0
178
     0
  0
ENDTAB
  0
ENDSEC
  0
SECTION
  2
BLOCKS
  0
BLOCK
  8
0
  2
$MODEL_SPACE
 70
     0
 10
0.0
 20
0.0
 30
0.0
  3
$MODEL_SPACE
  1

  0
ENDBLK
  5
76
  8
0
  0
BLOCK
 67
     1
  8
0
  2
$PAPER_SPACE
 70
     0
 10
0.0
 20
0.0
 30
0.0
  3
$PAPER_SPACE
  1

  0
ENDBLK
  5
72
 67
     1
  8
0
  0
BLOCK
  8
SIZE
  2
DOT1
 70
     0
 10
0.0
 20
0.0
 30
0.0
  3
DOT1
  1

  0
CIRCLE
  5
8B
  8
SIZE
  6
CONTINUOUS
 62
     8
 10
0.0
 20
0.0
 30
0.0
 40
3.0
  0
ENDBLK
  5
8C
  8
SIZE
  0
ENDSEC
  0
SECTION
  2
ENTITIES
  0
TEXT
  5
8D
  8
ETC
  6
CONTINUOUS
 62
    61
 10
338.86521399999998
 20
292.08552814719309
 30
0.0
 40
40.0
  1
システム部材
 41
0.9
  0
ARC
  5
8E
  8
DETAIL
  6
CONTINUOUS
 62
     5
 10
-129.55600000000001
 20
-7.556
 30
0.0
 40
2.4439999999999991
 50
180.0
 51
270.0
  0
ARC
  5
8F
  8
DETAIL
  6
CONTINUOUS
 62
     5
 10
129.55600000000001
 20
-7.556
 30
0.0
 40
2.4439999999999991
 50
270.0
 51
0.0
  0
LINE
  5
90
  8
DETAIL
  6
CONTINUOUS
 62
     5
 10
-132.0
 20
0.0
 30
0.0
 11
-132.0
 21
-7.556
 31
0.0
  0
LINE
  5
91
  8
DETAIL
  6
CONTINUOUS
 62
     5
 10
-115.5
 20
-10.0
 30
0.0
 11
-115.5
 21
-33.575419000000011
 31
0.0
  0
LINE
  5
92
  8
DETAIL
  6
CONTINUOUS
 62
     5
 10
132.0
 20
-7.556
 30
0.0
 11
132.0
 21
0.0
 31
0.0
  0
LINE
  5
93
  8
DETAIL
  6
CONTINUOUS
 62
     5
 10
115.5
 20
-10.0
 30
0.0
 11
115.5
 21
-33.575419000000011
 31
0.0
  0
LINE
  5
94
  8
DETAIL
  6
CONTINUOUS
 62
     5
 10
-98.500000000000014
 20
0.0
 30
0.0
 11
-98.500000000000014
 21
52.0
 31
0.0
  0
LINE
  5
95
  8
DETAIL
  6
CONTINUOUS
 62
     5
 10
98.500000000000014
 20
0.0
 30
0.0
 11
98.500000000000014
 21
52.0
 31
0.0
  0
LINE
  5
96
  8
DETAIL
  6
CONTINUOUS
 62
     5
 10
-98.500000000000014
 20
52.0
 30
0.0
 11
98.500000000000014
 21
52.0
 31
0.0
  0
LINE
  5
97
  8
DETAIL
  6
CONTINUOUS
 62
     5
 10
-129.55600000000001
 20
-10.0
 30
0.0
 11
129.55600000000001
 21
-10.0
 31
0.0
  0
LINE
  5
98
  8
DETAIL
  6
CONTINUOUS
 62
     5
 10
-132.0
 20
0.0
 30
0.0
 11
132.0
 21
0.0
 31
0.0
  0
LINE
  5
99
  8
BASIS
  6
DASHDOT
 62
     6
 10
0.0
 20
99.465151000000006
 30
0.0
 11
0.0
 21
-177.11351199999999
 31
0.0
  0
LINE
  5
9A
  8
SIZE
  6
CONTINUOUS
 62
    30
 10
313.21261299999998
 20
54.0
 30
0.0
 11
313.21261299999998
 21
175.81808899999999
 31
0.0
  0
LINE
  5
9B
  8
SIZE
  6
CONTINUOUS
 62
    30
 10
-152.36457300000001
 20
0.0
 30
0.0
 11
-217.64344399999999
 21
0.0
 31
0.0
  0
LINE
  5
9C
  8
SIZE
  6
CONTINUOUS
 62
    30
 10
-149.92057299999999
 20
-10.0
 30
0.0
 11
-217.64344399999999
 21
-10.0
 31
0.0
  0
LINE
  5
9D
  8
SIZE
  6
CONTINUOUS
 62
    30
 10
-187.64344399999999
 20
-2.0
 30
0.0
 11
-187.64344399999999
 21
-8.0
 31
0.0
  0
TEXT
  5
9E
  8
SIZE
  6
CONTINUOUS
 62
    30
 10
-219.64344399999999
 20
19.597541857142861
 30
0.0
 40
64.0
  1
10
 50
90.0
 41
0.9
 72
     1
 11
-219.64344399999999
 21
60.740398999999989
 31
0.0
  0
CIRCLE
  5
9F
  8
SIZE
  6
CONTINUOUS
 62
     8
 10
-187.64344399999999
 20
0.0
 30
0.0
 40
6.0
  0
CIRCLE
  5
A0
  8
SIZE
  6
CONTINUOUS
 62
     8
 10
-187.64344399999999
 20
-10.0
 30
0.0
 40
6.0
  0
POINT
  5
A1
  8
DEFPOINTS
  6
CONTINUOUS
 62
    30
 10
-132.36457300000001
 20
0.0
 30
0.0
  0
POINT
  5
A2
  8
DEFPOINTS
  6
CONTINUOUS
 62
    30
 10
-129.92057299999999
 20
-10.0
 30
0.0
  0
POINT
  5
A3
  8
DEFPOINTS
  6
CONTINUOUS
 62
    30
 10
-187.64344399999999
 20
-10.0
 30
0.0
  0
POINT
  5
A4
  8
ARRANGE
  6
CONTINUOUS
 62
     1
 10
0.0
 20
0.0
 30
0.0
  0
CIRCLE
  5
A5
  8
ARRANGE
  6
CONTINUOUS
 62
     1
 10
0.0
 20
0.0
 30
0.0
 40
40.0
  0
ARC
  5
A6
  8
DETAIL
  6
CONTINUOUS
 62
     5
 10
0.089799
 20
-39.440846999999998
 30
0.0
 40
115.55915299999999
 50
177.09059199999999
 51
2.909408
  0
LINE
  5
A7
  8
SIZE
  6
CONTINUOUS
 62
    30
 10
98.500000000000014
 20
72.0
 30
0.0
 11
98.500000000000014
 21
178.734904
 31
0.0
  0
LINE
  5
A8
  8
SIZE
  6
CONTINUOUS
 62
    30
 10
-98.500000000000014
 20
72.0
 30
0.0
 11
-98.500000000000014
 21
178.734904
 31
0.0
  0
LINE
  5
A9
  8
SIZE
  6
CONTINUOUS
 62
    30
 10
96.5
 20
148.734904
 30
0.0
 11
-96.5
 21
148.734904
 31
0.0
  0
TEXT
  5
AA
  8
SIZE
  6
CONTINUOUS
 62
    30
 10
-108.89142857142851
 20
180.734904
 30
0.0
 40
64.0
  1
φ197
 41
0.9
 72
     1
 11
0.0
 21
180.734904
 31
0.0
  0
CIRCLE
  5
AB
  8
SIZE
  6
CONTINUOUS
 62
     8
 10
98.500000000000014
 20
148.734904
 30
0.0
 40
6.0
  0
CIRCLE
  5
AC
  8
SIZE
  6
CONTINUOUS
 62
     8
 10
-98.500000000000014
 20
148.734904
 30
0.0
 40
6.0
  0
POINT
  5
AD
  8
DEFPOINTS
  6
CONTINUOUS
 62
    30
 10
98.500000000000014
 20
52.0
 30
0.0
  0
POINT
  5
AE
  8
DEFPOINTS
  6
CONTINUOUS
 62
    30
 10
-98.500000000000014
 20
52.0
 30
0.0
  0
POINT
  5
AF
  8
DEFPOINTS
  6
CONTINUOUS
 62
    30
 10
-98.500000000000014
 20
148.734904
 30
0.0
  0
LINE
  5
B0
  8
SIZE
  6
CONTINUOUS
 62
    30
 10
152.0
 20
0.0
 30
0.0
 11
343.21261299999998
 21
0.0
 31
0.0
  0
LINE
  5
B1
  8
SIZE
  6
CONTINUOUS
 62
    30
 10
118.5
 20
52.0
 30
0.0
 11
343.21261299999998
 21
52.0
 31
0.0
  0
LINE
  5
B2
  8
SIZE
  6
CONTINUOUS
 62
    30
 10
313.21261299999998
 20
2.0
 30
0.0
 11
313.21261299999998
 21
50.0
 31
0.0
  0
TEXT
  5
B3
  8
SIZE
  6
CONTINUOUS
 62
    30
 10
281.21261299999998
 20
76.540370571428568
 30
0.0
 40
64.0
  1
52
 50
90.0
 41
0.9
 72
     1
 11
281.21261299999998
 21
123.168942
 31
0.0
  0
CIRCLE
  5
B4
  8
SIZE
  6
CONTINUOUS
 62
     8
 10
313.21261299999998
 20
0.0
 30
0.0
 40
6.0
  0
CIRCLE
  5
B5
  8
SIZE
  6
CONTINUOUS
 62
     8
 10
313.21261299999998
 20
52.0
 30
0.0
 40
6.0
  0
POINT
  5
B6
  8
DEFPOINTS
  6
CONTINUOUS
 62
    30
 10
132.0
 20
0.0
 30
0.0
  0
POINT
  5
B7
  8
DEFPOINTS
  6
CONTINUOUS
 62
    30
 10
98.500000000000014
 20
52.0
 30
0.0
  0
POINT
  5
B8
  8
DEFPOINTS
  6
CONTINUOUS
 62
    30
 10
313.21261299999998
 20
52.0
 30
0.0
  0
LINE
  5
B9
  8
OUTLINE
  6
CONTINUOUS
 62
     3
 10
-132.0
 20
0.0
 30
0.0
 11
132.0
 21
0.0
 31
0.0
  0
LINE
  5
BA
  8
OUTLINE
  6
CONTINUOUS
 62
     3
 10
-129.55600000000001
 20
-10.0
 30
0.0
 11
129.55600000000001
 21
-10.0
 31
0.0
  0
LINE
  5
BB
  8
OUTLINE
  6
CONTINUOUS
 62
     3
 10
-98.500000000000014
 20
52.0
 30
0.0
 11
98.500000000000014
 21
52.0
 31
0.0
  0
LINE
  5
BC
  8
OUTLINE
  6
CONTINUOUS
 62
     3
 10
98.500000000000014
 20
0.0
 30
0.0
 11
98.500000000000014
 21
52.0
 31
0.0
  0
LINE
  5
BD
  8
OUTLINE
  6
CONTINUOUS
 62
     3
 10
-98.500000000000014
 20
0.0
 30
0.0
 11
-98.500000000000014
 21
52.0
 31
0.0
  0
LINE
  5
BE
  8
OUTLINE
  6
CONTINUOUS
 62
     3
 10
132.0
 20
-7.556
 30
0.0
 11
132.0
 21
0.0
 31
0.0
  0
LINE
  5
BF
  8
OUTLINE
  6
CONTINUOUS
 62
     3
 10
-132.0
 20
0.0
 30
0.0
 11
-132.0
 21
-7.556
 31
0.0
  0
ARC
  5
C0
  8
OUTLINE
  6
CONTINUOUS
 62
     3
 10
129.55600000000001
 20
-7.556
 30
0.0
 40
2.4439999999999991
 50
270.0
 51
0.0
  0
ARC
  5
C1
  8
OUTLINE
  6
CONTINUOUS
 62
     3
 10
-129.55600000000001
 20
-7.556
 30
0.0
 40
2.4439999999999991
 50
180.0
 51
270.0
  0
LINE
  5
C2
  8
OUTLINE
  6
CONTINUOUS
 62
     3
 10
-115.5
 20
-10.0
 30
0.0
 11
-115.5
 21
-33.575419000000011
 31
0.0
  0
ARC
  5
C3
  8
OUTLINE
  6
CONTINUOUS
 62
     3
 10
0.089799
 20
-39.440846999999998
 30
0.0
 40
115.55915299999999
 50
177.09059199999999
 51
2.909408
  0
LINE
  5
C4
  8
OUTLINE
  6
CONTINUOUS
 62
     3
 10
115.5
 20
-10.0
 30
0.0
 11
115.5
 21
-33.575419000000011
 31
0.0
  0
LINE
  5
C5
  8
SIZE
  6
CONTINUOUS
 62
    30
 10
152.0
 20
0.0
 30
0.0
 11
343.21261299999998
 21
0.0
 31
0.0
  0
LINE
  5
C6
  8
SIZE
  6
CONTINUOUS
 62
    30
 10
20.0
 20
-155.0
 30
0.0
 11
343.21261299999998
 21
-155.0
 31
0.0
  0
LINE
  5
C7
  8
SIZE
  6
CONTINUOUS
 62
    30
 10
313.21261299999998
 20
-2.0
 30
0.0
 11
313.21261299999998
 21
-153.0
 31
0.0
  0
TEXT
  5
C8
  8
SIZE
  6
CONTINUOUS
 62
    30
 10
289.99546500000002
 20
-146.0714285714285
 30
0.0
 40
64.0
  1
155
 50
90.0
 41
0.9
 72
     1
 11
289.99546500000002
 21
-77.5
 31
0.0
  0
CIRCLE
  5
C9
  8
SIZE
  6
CONTINUOUS
 62
     8
 10
313.21261299999998
 20
0.0
 30
0.0
 40
6.0
  0
CIRCLE
  5
CA
  8
SIZE
  6
CONTINUOUS
 62
     8
 10
313.21261299999998
 20
-155.0
 30
0.0
 40
6.0
  0
POINT
  5
CB
  8
DEFPOINTS
  6
CONTINUOUS
 62
    30
 10
132.0
 20
0.0
 30
0.0
  0
POINT
  5
CC
  8
DEFPOINTS
  6
CONTINUOUS
 62
    30
 10
0.0
 20
-155.0
 30
0.0
  0
POINT
  5
CD
  8
DEFPOINTS
  6
CONTINUOUS
 62
    30
 10
313.21261299999998
 20
-155.0
 30
0.0
  0
LINE
  5
CE
  8
SIZE
  6
CONTINUOUS
 62
    30
 10
115.5
 20
-30.0
 30
0.0
 11
115.5
 21
-333.70198099999999
 31
0.0
  0
LINE
  5
CF
  8
SIZE
  6
CONTINUOUS
 62
    30
 10
-115.5
 20
-30.0
 30
0.0
 11
-115.5
 21
-333.70198099999999
 31
0.0
  0
LINE
  5
D0
  8
SIZE
  6
CONTINUOUS
 62
    30
 10
113.5
 20
-303.70198099999999
 30
0.0
 11
-113.5
 21
-303.70198099999999
 31
0.0
  0
TEXT
  5
D1
  8
SIZE
  6
CONTINUOUS
 62
    30
 10
-120.49903671428569
 20
-271.70198099999999
 30
0.0
 40
64.0
  1
φ231
 41
0.9
 72
     1
 11
-18.464751
 21
-271.70198099999999
 31
0.0
  0
CIRCLE
  5
D2
  8
SIZE
  6
CONTINUOUS
 62
     8
 10
115.5
 20
-303.70198099999999
 30
0.0
 40
6.0
  0
CIRCLE
  5
D3
  8
SIZE
  6
CONTINUOUS
 62
     8
 10
-115.5
 20
-303.70198099999999
 30
0.0
 40
6.0
  0
POINT
  5
D4
  8
DEFPOINTS
  6
CONTINUOUS
 62
    30
 10
115.5
 20
-10.0
 30
0.0
  0
POINT
  5
D5
  8
DEFPOINTS
  6
CONTINUOUS
 62
    30
 10
-115.5
 20
-10.0
 30
0.0
  0
POINT
  5
D6
  8
DEFPOINTS
  6
CONTINUOUS
 62
    30
 10
-115.5
 20
-303.70198099999999
 30
0.0
  0
LINE
  5
D7
  8
SIZE
  6
CONTINUOUS
 62
    30
 10
132.0
 20
12.444000000000001
 30
0.0
 11
132.0
 21
304.66864099999998
 31
0.0
  0
LINE
  5
D8
  8
SIZE
  6
CONTINUOUS
 62
    30
 10
-132.0
 20
20.0
 30
0.0
 11
-132.0
 21
304.66864099999998
 31
0.0
  0
LINE
  5
D9
  8
SIZE
  6
CONTINUOUS
 62
    30
 10
130.0
 20
274.66864100000009
 30
0.0
 11
-130.0
 21
274.66864100000009
 31
0.0
  0
TEXT
  5
DA
  8
SIZE
  6
CONTINUOUS
 62
    30
 10
-132.53470842857141
 20
306.66864099999998
 30
0.0
 40
64.0
  1
φ264
 41
0.9
 72
     1
 11
-16.786137
 21
306.66864099999998
 31
0.0
  0
CIRCLE
  5
DB
  8
SIZE
  6
CONTINUOUS
 62
     8
 10
132.0
 20
274.66864100000009
 30
0.0
 40
6.0
  0
CIRCLE
  5
DC
  8
SIZE
  6
CONTINUOUS
 62
     8
 10
-132.0
 20
274.66864100000009
 30
0.0
 40
6.0
  0
POINT
  5
DD
  8
DEFPOINTS
  6
CONTINUOUS
 62
    30
 10
132.0
 20
-7.556
 30
0.0
  0
POINT
  5
DE
  8
DEFPOINTS
  6
CONTINUOUS
 62
    30
 10
-132.0
 20
0.0
 30
0.0
  0
POINT
  5
DF
  8
DEFPOINTS
  6
CONTINUOUS
 62
    30
 10
-132.0
 20
274.66864100000009
 30
0.0
  0
TEXT
  5
E0
  8
ETC
  6
CONTINUOUS
 10
343.36910699999999
 20
359.34420999999998
 30
0.0
 40
40.0
  1
P-23FA5_1
 41
0.9
  0
LINE
  5
E2
  8
SIZE
  6
CONTINUOUS
 62
    30
 10
-187.64344399999999
 20
-4.0
 30
0.0
 11
-187.64344399999999
 21
116.829386
 31
0.0
  0
TEXT
  5
E8
  8
ETC
  6
CONTINUOUS
 10
386.70334493652848
 20
229.54941634708041
 30
0.0
 40
40.0
  1
P-23FA5
 41
0.9
  0
ENDSEC
  0
EOF
