  0
SECTION
  2
HEADER
  9
$ACADVER
  1
AC1009
  9
$INSBASE
 10
0.0
 20
0.0
 30
0.0
  9
$EXTMIN
 10
-554.24650435364674
 20
-343.18541298059972
 30
-0.0015258207003583
  9
$EXTMAX
 10
757.27387600028123
 20
397.01844041354349
 30
50.000000093132272
  9
$LIMMIN
 10
-2970.0
 20
-2100.0
  9
$LIMMAX
 10
2970.0
 20
2100.0
  9
$ORTHOMODE
 70
     0
  9
$REGENMODE
 70
     1
  9
$FILLMODE
 70
     1
  9
$QTEXTMODE
 70
     0
  9
$MIRRTEXT
 70
     0
  9
$DRAGMODE
 70
     2
  9
$LTSCALE
 40
20.0
  9
$OSMODE
 70
    37
  9
$ATTMODE
 70
     1
  9
$TEXTSIZE
 40
64.0
  9
$TRACEWID
 40
0.05
  9
$TEXTSTYLE
  7
STANDARD
  9
$CLAYER
  8
SIZE
  9
$CELTYPE
  6
CONTINUOUS
  9
$CECOLOR
 62
   256
  9
$DIMSCALE
 40
1.0
  9
$DIMASZ
 40
12.0
  9
$DIMEXO
 40
20.0
  9
$DIMDLI
 40
200.0
  9
$DIMRND
 40
0.0
  9
$DIMDLE
 40
0.0
  9
$DIMEXE
 40
20.0
  9
$DIMTP
 40
0.0
  9
$DIMTM
 40
0.0
  9
$DIMTXT
 40
64.0
  9
$DIMCEN
 40
0.09
  9
$DIMTSZ
 40
0.0
  9
$DIMTOL
 70
     0
  9
$DIMLIM
 70
     0
  9
$DIMTIH
 70
     0
  9
$DIMTOH
 70
     0
  9
$DIMSE1
 70
     0
  9
$DIMSE2
 70
     0
  9
$DIMTAD
 70
     1
  9
$DIMZIN
 70
     8
  9
$DIMBLK
  1
DOT1
  9
$DIMASO
 70
     1
  9
$DIMSHO
 70
     0
  9
$DIMPOST
  1

  9
$DIMAPOST
  1

  9
$DIMALT
 70
     0
  9
$DIMALTD
 70
     2
  9
$DIMALTF
 40
25.399999999999999
  9
$DIMLFAC
 40
1.0
  9
$DIMTOFL
 70
     1
  9
$DIMTVP
 40
0.0
  9
$DIMTIX
 70
     1
  9
$DIMSOXD
 70
     0
  9
$DIMSAH
 70
     1
  9
$DIMBLK1
  1
ORIGIN
  9
$DIMBLK2
  1
ORIGIN
  9
$DIMSTYLE
  2
STANDARD
  9
$DIMCLRD
 70
     7
  9
$DIMCLRE
 70
     7
  9
$DIMCLRT
 70
     7
  9
$DIMTFAC
 40
1.0
  9
$DIMGAP
 40
25.0
  9
$LUNITS
 70
     2
  9
$LUPREC
 70
     4
  9
$SKETCHINC
 40
0.1
  9
$FILLETRAD
 40
4.0
  9
$AUNITS
 70
     1
  9
$AUPREC
 70
     3
  9
$MENU
  1
ACAD
  9
$ELEVATION
 40
0.0
  9
$PELEVATION
 40
0.0
  9
$THICKNESS
 40
50.0
  9
$LIMCHECK
 70
     0
  9
$BLIPMODE
 70
     0
  9
$CHAMFERA
 40
0.0
  9
$CHAMFERB
 40
0.0
  9
$SKPOLY
 70
     0
  9
$TDCREATE
 40
2452996.3766996758
  9
$TDUPDATE
 40
2454806.5535304509
  9
$TDINDWG
 40
0.0097542708
  9
$TDUSRTIMER
 40
0.0097540972
  9
$USRTIMER
 70
     1
  9
$ANGBASE
 50
0.0
  9
$ANGDIR
 70
     0
  9
$PDMODE
 70
     3
  9
$PDSIZE
 40
-2.0
  9
$PLINEWID
 40
0.0
  9
$COORDS
 70
     0
  9
$SPLFRAME
 70
     0
  9
$SPLINETYPE
 70
     6
  9
$SPLINESEGS
 70
     8
  9
$ATTDIA
 70
     0
  9
$ATTREQ
 70
     1
  9
$HANDLING
 70
     1
  9
$HANDSEED
  5
17C
  9
$SURFTAB1
 70
     6
  9
$SURFTAB2
 70
     6
  9
$SURFTYPE
 70
     6
  9
$SURFU
 70
     6
  9
$SURFV
 70
     6
  9
$UCSNAME
  2

  9
$UCSORG
 10
0.0
 20
0.0
 30
0.0
  9
$UCSXDIR
 10
1.0
 20
0.0
 30
0.0
  9
$UCSYDIR
 10
0.0
 20
1.0
 30
0.0
  9
$PUCSNAME
  2

  9
$PUCSORG
 10
0.0
 20
0.0
 30
0.0
  9
$PUCSXDIR
 10
1.0
 20
0.0
 30
0.0
  9
$PUCSYDIR
 10
0.0
 20
1.0
 30
0.0
  9
$USERI1
 70
     0
  9
$USERI2
 70
     0
  9
$USERI3
 70
     0
  9
$USERI4
 70
     0
  9
$USERI5
 70
     0
  9
$USERR1
 40
20.0
  9
$USERR2
 40
0.0
  9
$USERR3
 40
0.0
  9
$USERR4
 40
0.0
  9
$USERR5
 40
0.0
  9
$WORLDVIEW
 70
     1
  9
$SHADEDGE
 70
     3
  9
$SHADEDIF
 70
    70
  9
$TILEMODE
 70
     1
  9
$MAXACTVP
 70
    48
  9
$PLIMCHECK
 70
     0
  9
$PEXTMIN
 10
-1.0000000000000000E+020
 20
-1.0000000000000000E+020
 30
-1.0000000000000000E+020
  9
$PEXTMAX
 10
1.0000000000000000E+020
 20
1.0000000000000000E+020
 30
1.0000000000000000E+020
  9
$PLIMMIN
 10
0.0
 20
0.0
  9
$PLIMMAX
 10
12.0
 20
9.0
  9
$UNITMODE
 70
     0
  9
$VISRETAIN
 70
     0
  9
$PLINEGEN
 70
     0
  9
$PSLTSCALE
 70
     0
  0
ENDSEC
  0
SECTION
  2
TABLES
  0
TABLE
  2
VPORT
 70
     1
  0
VPORT
  2
*ACTIVE
 70
     0
 10
0.0
 20
0.0
 11
1.0
 21
1.0
 12
101.5136858233172
 22
26.916513716471862
 13
0.0
 23
0.0
 14
1.0
 24
1.0
 15
0.0
 25
0.0
 16
0.0
 26
0.0
 36
1.0
 17
0.0
 27
0.0
 37
0.0
 40
1007.807801327278
 41
1.3098995695839311
 42
50.0
 43
0.0
 44
0.0
 50
0.0
 51
0.0
 71
     0
 72
  1000
 73
     1
 74
     0
 75
     0
 76
     0
 77
     0
 78
     0
  0
ENDTAB
  0
TABLE
  2
LTYPE
 70
     4
  0
LTYPE
  2
CONTINUOUS
 70
     0
  3
実線
 72
    65
 73
     0
 40
0.0
  0
LTYPE
  2
DASHDOT
 70
     0
  3
____ _ ____ _ ____ _ ____ _ ____ _ ____ _ ____
 72
    65
 73
     4
 40
5.5
 49
4.0
 49
-0.6
 49
0.3
 49
-0.6
  0
LTYPE
  2
DASHED
 70
     0
  3
-- -- -- -- -- -- -- -- -- -- -- -- -- -- --
 72
    65
 73
     2
 40
0.75
 49
0.5
 49
-0.25
  0
ENDTAB
  0
TABLE
  2
LAYER
 70
    12
  0
LAYER
  2
0
 70
     0
 62
     7
  6
CONTINUOUS
  0
LAYER
  2
SIZE
 70
     0
 62
    30
  6
CONTINUOUS
  0
LAYER
  2
BASIS
 70
     0
 62
     6
  6
DASHDOT
  0
LAYER
  2
OUTLINE
 70
     0
 62
     3
  6
CONTINUOUS
  0
LAYER
  2
DETAIL
 70
     0
 62
     5
  6
CONTINUOUS
  0
LAYER
  2
ARRANGE
 70
     0
 62
     1
  6
CONTINUOUS
  0
LAYER
  2
DEFPOINTS
 70
     0
 62
     7
  6
CONTINUOUS
  0
LAYER
  2
ETC
 70
     0
 62
    61
  6
CONTINUOUS
  0
LAYER
  2
FIX
 70
     0
 62
    11
  6
CONTINUOUS
  0
LAYER
  2
NOTE
 70
     0
 62
     4
  6
CONTINUOUS
  0
LAYER
  2
SERVICESPACE
 70
     0
 62
     2
  6
DASHDOT
  0
LAYER
  2
SYMBOLLINE
 70
     0
 62
    15
  6
CONTINUOUS
  0
ENDTAB
  0
TABLE
  2
STYLE
 70
     2
  0
STYLE
  2
STANDARD
 70
     0
 40
64.0
 41
0.9
 50
0.0
 71
     0
 42
64.0
  3
SIMPLEX.shx
  4
BIGFONT.shx
  0
STYLE
  2
ANNOTATIVE
 70
     0
 40
0.0
 41
1.0
 50
0.0
 71
     0
 42
0.2
  3
txt
  4

  0
ENDTAB
  0
TABLE
  2
VIEW
 70
     1
  0
VIEW
  2
ALL
 70
     0
 40
4282.6198079999986
 10
0.0
 20
41.309903999999989
 41
5940.0
 11
0.0
 21
0.0
 31
1.0
 12
0.0
 22
0.0
 32
0.0
 42
50.0
 43
0.0
 44
0.0
 50
0.0
 71
     0
  0
ENDTAB
  0
TABLE
  2
UCS
 70
     0
  0
ENDTAB
  0
TABLE
  2
APPID
 70
     5
  0
APPID
  2
ACAD
 70
     0
  0
APPID
  2
ACADANNOTATIVE
 70
     0
  0
APPID
  2
ACAD_MLEADERVER
 70
     0
  0
APPID
  2
AUTOCAD_POSTSCRIPT_FIGURE
 70
     0
  0
APPID
  2
ACAD_EXEMPT_FROM_CAD_STANDARDS
 70
     0
  0
ENDTAB
  0
TABLE
  2
DIMSTYLE
 70
     3
  0
DIMSTYLE
  2
STANDARD
 70
     0
  3

  4

  5

  6

  7

 40
1.0
 41
0.18
 42
0.0625
 43
0.38
 44
0.18
 45
0.0
 46
0.0
 47
0.0
 48
0.0
140
0.18
141
0.09
142
0.0
143
25.399999999999999
144
1.0
145
0.0
146
1.0
147
0.09
 71
     0
 72
     0
 73
     1
 74
     1
 75
     0
 76
     0
 77
     0
 78
     0
170
     0
171
     2
172
     0
173
     0
174
     0
175
     0
176
     7
177
     7
178
     7
  0
DIMSTYLE
  2
ANNOTATIVE
 70
     0
  3

  4

  5

  6

  7

 40
1.0
 41
0.18
 42
0.0625
 43
0.38
 44
0.18
 45
0.0
 46
0.0
 47
0.0
 48
0.0
140
0.18
141
0.09
142
0.0
143
25.399999999999999
144
1.0
145
0.0
146
1.0
147
0.09
 71
     0
 72
     0
 73
     1
 74
     1
 75
     0
 76
     0
 77
     0
 78
     0
170
     0
171
     2
172
     0
173
     0
174
     0
175
     0
176
     0
177
     0
178
     0
  0
ENDTAB
  0
ENDSEC
  0
SECTION
  2
BLOCKS
  0
BLOCK
  8
0
  2
$MODEL_SPACE
 70
     0
 10
0.0
 20
0.0
 30
0.0
  3
$MODEL_SPACE
  1

  0
ENDBLK
  5
76
  8
0
  0
BLOCK
 67
     1
  8
0
  2
$PAPER_SPACE
 70
     0
 10
0.0
 20
0.0
 30
0.0
  3
$PAPER_SPACE
  1

  0
ENDBLK
  5
72
 67
     1
  8
0
  0
BLOCK
  8
0
  2
DOT1
 70
     0
 10
0.0
 20
0.0
 30
0.0
  3
DOT1
  1

  0
CIRCLE
  5
8D
  8
SIZE
  6
CONTINUOUS
 62
     7
 10
0.0
 20
0.0
 30
0.0
 40
3.0
  0
ENDBLK
  5
8E
  8
0
  0
BLOCK
  8
0
  2
_ORIGIN
 70
     0
 10
0.0
 20
0.0
 30
0.0
  3
_ORIGIN
  1

  0
CIRCLE
  5
91
  8
0
  6
CONTINUOUS
 62
     7
 10
0.0
 20
0.0
 30
0.0
 40
0.5
  0
LINE
  5
92
  8
0
  6
CONTINUOUS
 62
     7
 10
0.0
 20
0.0
 30
0.0
 11
-1.0
 21
0.0
 31
0.0
  0
ENDBLK
  5
93
  8
0
  0
ENDSEC
  0
SECTION
  2
ENTITIES
  0
TEXT
  5
94
  8
ETC
  6
CONTINUOUS
 62
    61
 10
361.829837
 20
266.22987999999998
 30
0.0
 40
40.0
  1
システム部材
 41
0.9
  0
ARC
  5
95
  8
DETAIL
  6
CONTINUOUS
 62
     5
 10
-15.265625
 20
-3.0
 30
0.0
 40
3.0
 50
90.0
 51
177.37581599999999
  0
LINE
  5
96
  8
DETAIL
  6
CONTINUOUS
 62
     5
 10
0.0
 20
0.0
 30
0.0
 11
0.0
 21
-136.20771300000001
 31
0.0
  0
ARC
  5
97
  8
DETAIL
  6
CONTINUOUS
 62
     5
 10
-576.83035499999994
 20
12.025475
 30
0.0
 40
558.766255
 50
343.89237900000001
 51
358.47319399999998
  0
LINE
  5
98
  8
DETAIL
  6
CONTINUOUS
 62
     5
 10
-14.650838
 20
-136.20771300000001
 30
0.0
 11
-40.0
 21
-143.0
 31
0.0
  0
LINE
  5
99
  8
DETAIL
  6
CONTINUOUS
 62
     5
 10
-15.265625
 20
0.0
 30
0.0
 11
0.0
 21
0.0
 31
0.0
  0
LINE
  5
9A
  8
DETAIL
  6
CONTINUOUS
 62
     5
 10
0.0
 20
-98.500000000000014
 30
0.0
 11
53.0
 21
-98.500000000000014
 31
0.0
  0
LINE
  5
9B
  8
DETAIL
  6
CONTINUOUS
 62
     5
 10
0.0
 20
98.500000000000014
 30
0.0
 11
53.0
 21
98.500000000000014
 31
0.0
  0
ARC
  5
9C
  8
DETAIL
  6
CONTINUOUS
 62
     5
 10
-45.410792000000001
 20
-104.55955299999999
 30
0.0
 40
3.0
 50
180.0
 51
277.68702300000001
  0
LINE
  5
9D
  8
DETAIL
  6
CONTINUOUS
 62
     5
 10
-48.410792000000001
 20
-104.55955299999999
 30
0.0
 11
-48.410792000000001
 21
-58.212226999999992
 31
0.0
  0
LINE
  5
9E
  8
DETAIL
  6
CONTINUOUS
 62
     5
 10
-45.009506000000002
 20
-107.532594
 30
0.0
 11
-40.353726999999992
 21
-106.90418099999999
 31
0.0
  0
ARC
  5
9F
  8
DETAIL
  6
DASHED
 62
     5
 10
-7.5558659999999991
 20
-129.5558659999999
 30
0.0
 40
2.444134
 50
180.0
 51
270.0
  0
LINE
  5
A0
  8
DETAIL
  6
DASHED
 62
     5
 10
-7.5558659999999991
 20
-132.0
 30
0.0
 11
0.0
 21
-132.0
 31
0.0
  0
ARC
  5
A1
  8
DETAIL
  6
CONTINUOUS
 62
     5
 10
-61.396625
 20
21.798912999999999
 30
0.0
 40
93.783189000000007
 50
92.397640999999993
 51
132.25045399999999
  0
LINE
  5
A2
  8
DETAIL
  6
CONTINUOUS
 62
     5
 10
-40.353726999999992
 20
-106.467342
 30
0.0
 11
-40.353726999999992
 21
-115.5
 31
0.0
  0
LINE
  5
A3
  8
DETAIL
  6
CONTINUOUS
 62
     5
 10
-40.58639999999999
 20
-115.5
 30
0.0
 11
-32.811071000000013
 21
-115.5
 31
0.0
  0
LINE
  5
A4
  8
DETAIL
  6
CONTINUOUS
 62
     5
 10
-40.58639999999999
 20
-115.0
 30
0.0
 11
-40.353726999999992
 21
-115.0
 31
0.0
  0
ARC
  5
A5
  8
DETAIL
  6
CONTINUOUS
 62
     5
 10
-7.5558659999999991
 20
129.5558659999999
 30
0.0
 40
2.444134
 50
90.0
 51
180.0
  0
LINE
  5
A6
  8
DETAIL
  6
CONTINUOUS
 62
     5
 10
-10.0
 20
129.5558659999999
 30
0.0
 11
-10.0
 21
0.0
 31
0.0
  0
LINE
  5
A7
  8
DETAIL
  6
CONTINUOUS
 62
     5
 10
-35.5
 20
115.5
 30
0.0
 11
-10.0
 21
115.5
 31
0.0
  0
LINE
  5
A8
  8
DETAIL
  6
CONTINUOUS
 62
     5
 10
-7.5558659999999991
 20
132.0
 30
0.0
 11
0.0
 21
132.0
 31
0.0
  0
LINE
  5
A9
  8
DETAIL
  6
CONTINUOUS
 62
     5
 10
0.0
 20
132.0
 30
0.0
 11
0.0
 21
0.0
 31
0.0
  0
LINE
  5
AA
  8
DETAIL
  6
CONTINUOUS
 62
     5
 10
-42.16485999999999
 20
-119.959039
 30
0.0
 11
-41.069363000000003
 21
-115.87059000000001
 31
0.0
  0
LINE
  5
AB
  8
DETAIL
  6
CONTINUOUS
 62
     5
 10
-42.647822999999988
 20
-119.829629
 30
0.0
 11
-41.552326000000001
 21
-115.741181
 31
0.0
  0
ARC
  5
AC
  8
DETAIL
  6
CONTINUOUS
 62
     5
 10
-40.58639999999999
 20
-116.0
 30
0.0
 40
0.5
 50
90.0
 51
165.0
  0
ARC
  5
AD
  8
DETAIL
  6
CONTINUOUS
 62
     5
 10
-40.58639999999999
 20
-116.0
 30
0.0
 40
1.0
 50
90.0
 51
165.0
  0
LINE
  5
AE
  8
DETAIL
  6
CONTINUOUS
 62
     5
 10
-42.16485999999999
 20
-119.959039
 30
0.0
 11
-42.647822999999988
 21
-119.829629
 31
0.0
  0
LINE
  5
AF
  8
DETAIL
  6
CONTINUOUS
 62
     5
 10
-14.650838
 20
-136.20771300000001
 30
0.0
 11
0.0
 21
-136.20771300000001
 31
0.0
  0
LINE
  5
B0
  8
BASIS
  6
DASHDOT
 62
     6
 10
-195.32087000000001
 20
0.0
 30
0.0
 11
82.713993999999985
 21
0.0
 31
0.0
  0
POINT
  5
B1
  8
ARRANGE
  6
CONTINUOUS
 62
     1
 10
0.0
 20
0.0
 30
0.0
  0
CIRCLE
  5
B2
  8
ARRANGE
  6
CONTINUOUS
 62
     1
 10
0.0
 20
0.0
 30
0.0
 40
40.0
  0
TEXT
  5
B3
  8
ETC
  6
CONTINUOUS
 62
    61
 10
364.40517199999999
 20
326.98675500000002
 30
0.0
 40
40.0
  1
P-23KFAQ5_4
 41
0.9
  0
LINE
  5
B4
  8
DETAIL
  6
CONTINUOUS
 62
     5
 10
-35.5
 20
115.5
 30
0.0
 11
-65.319999999999993
 21
115.5
 31
0.0
  0
ARC
  5
B5
  8
DETAIL
  6
CONTINUOUS
 62
     5
 10
-134.823083
 20
-97.287088999999995
 30
0.0
 40
94.914361999999997
 50
354.44959299999999
 51
84.372606000000005
  0
LINE
  5
B6
  8
DETAIL
  6
CONTINUOUS
 62
     5
 10
-155.0
 20
0.0
 30
0.0
 11
-124.515902
 21
-2.8301549999999991
 31
0.0
  0
LINE
  5
B7
  8
DETAIL
  6
DASHED
 62
     5
 10
-10.0
 20
0.0
 30
0.0
 11
-10.0
 21
-129.5558659999999
 31
0.0
  0
ARC
  5
B8
  8
DETAIL
  6
CONTINUOUS
 62
     5
 10
-33.094633000000002
 20
9.9012550000000008
 30
0.0
 40
122.3068
 50
138.32824099999999
 51
184.643418
  0
LINE
  5
B9
  8
OUTLINE
  6
CONTINUOUS
 62
     3
 10
-35.5
 20
115.5
 30
0.0
 11
-65.319999999999993
 21
115.5
 31
0.0
  0
LINE
  5
BA
  8
OUTLINE
  6
CONTINUOUS
 62
     3
 10
-14.650838
 20
-136.20771300000001
 30
0.0
 11
0.0
 21
-136.20771300000001
 31
0.0
  0
LINE
  5
BB
  8
OUTLINE
  6
CONTINUOUS
 62
     3
 10
0.0
 20
132.0
 30
0.0
 11
0.0
 21
0.0
 31
0.0
  0
LINE
  5
BC
  8
OUTLINE
  6
CONTINUOUS
 62
     3
 10
-7.5558659999999991
 20
132.0
 30
0.0
 11
0.0
 21
132.0
 31
0.0
  0
LINE
  5
BD
  8
OUTLINE
  6
CONTINUOUS
 62
     3
 10
-35.5
 20
115.5
 30
0.0
 11
-10.0
 21
115.5
 31
0.0
  0
LINE
  5
BE
  8
OUTLINE
  6
CONTINUOUS
 62
     3
 10
-10.0
 20
129.5558659999999
 30
0.0
 11
-10.0
 21
115.5
 31
0.0
  0
ARC
  5
BF
  8
OUTLINE
  6
CONTINUOUS
 62
     3
 10
-7.5558659999999991
 20
129.5558659999999
 30
0.0
 40
2.444134
 50
90.0
 51
180.0
  0
LINE
  5
C0
  8
OUTLINE
  6
CONTINUOUS
 62
     3
 10
-40.353726999999992
 20
-115.5
 30
0.0
 11
-32.811071000000013
 21
-115.5
 31
0.0
  0
LINE
  5
C1
  8
OUTLINE
  6
CONTINUOUS
 62
     3
 10
-40.353726999999992
 20
-106.467342
 30
0.0
 11
-40.353726999999992
 21
-115.5
 31
0.0
  0
LINE
  5
C2
  8
OUTLINE
  6
CONTINUOUS
 62
     3
 10
-45.009506000000002
 20
-107.532594
 30
0.0
 11
-40.353726999999992
 21
-106.90418099999999
 31
0.0
  0
LINE
  5
C3
  8
OUTLINE
  6
CONTINUOUS
 62
     3
 10
-48.410792000000001
 20
-104.55955299999999
 30
0.0
 11
-48.410792000000001
 21
-58.212226999999992
 31
0.0
  0
ARC
  5
C4
  8
OUTLINE
  6
CONTINUOUS
 62
     3
 10
-45.410792000000001
 20
-104.55955299999999
 30
0.0
 40
3.0
 50
180.0
 51
277.68702300000001
  0
LINE
  5
C5
  8
OUTLINE
  6
CONTINUOUS
 62
     3
 10
0.0
 20
98.500000000000014
 30
0.0
 11
53.0
 21
98.500000000000014
 31
0.0
  0
LINE
  5
C6
  8
OUTLINE
  6
CONTINUOUS
 62
     3
 10
0.0
 20
-98.500000000000014
 30
0.0
 11
53.0
 21
-98.500000000000014
 31
0.0
  0
LINE
  5
C7
  8
OUTLINE
  6
CONTINUOUS
 62
     3
 10
-14.650838
 20
-136.20771300000001
 30
0.0
 11
-40.0
 21
-143.0
 31
0.0
  0
LINE
  5
C8
  8
OUTLINE
  6
CONTINUOUS
 62
     3
 10
0.0
 20
0.0
 30
0.0
 11
0.0
 21
-136.20771300000001
 31
0.0
  0
LINE
  5
CA
  8
DETAIL
  6
CONTINUOUS
 62
     5
 10
53.0
 20
98.500000000000014
 30
0.0
 11
53.0
 21
-98.500000000000014
 31
0.0
  0
ARC
  5
CB
  8
OUTLINE
  6
CONTINUOUS
 62
     3
 10
-61.396625
 20
21.798912999999999
 30
0.0
 40
93.783189000000007
 50
92.397640999999993
 51
132.25045399999999
  0
ARC
  5
CC
  8
OUTLINE
  6
CONTINUOUS
 62
     3
 10
-33.094633000000002
 20
9.9012550000000008
 30
0.0
 40
122.3068
 50
138.32824099999999
 51
184.643418
  0
LINE
  5
CD
  8
OUTLINE
  6
CONTINUOUS
 62
     3
 10
-155.0
 20
0.0
 30
0.0
 11
-124.515902
 21
-2.8301549999999991
 31
0.0
  0
ARC
  5
CE
  8
OUTLINE
  6
CONTINUOUS
 62
     3
 10
-134.823083
 20
-97.287088999999995
 30
0.0
 40
94.914361999999997
 50
354.44959299999999
 51
84.372606000000005
  0
ARC
  5
CF
  8
OUTLINE
  6
CONTINUOUS
 62
     3
 10
-576.83035499999994
 20
12.025475
 30
0.0
 40
558.766255
 50
343.89237900000001
 51
346.80729700000001
  0
LINE
  5
D0
  8
SIZE
  6
CONTINUOUS
 62
    30
 10
0.0
 20
-156.20771300000001
 30
0.0
 11
0.0
 21
-336.03159499999998
 31
0.0
  0
LINE
  5
D1
  8
SIZE
  6
CONTINUOUS
 62
    30
 10
-40.0
 20
-163.0
 30
0.0
 11
-40.0
 21
-336.03159499999998
 31
0.0
  0
LINE
  5
D2
  8
SIZE
  6
CONTINUOUS
 62
    30
 10
12.0
 20
-316.0315950000001
 30
0.0
 11
24.0
 21
-316.0315950000001
 31
0.0
  0
LINE
  5
D3
  8
SIZE
  6
CONTINUOUS
 62
    30
 10
-52.0
 20
-316.0315950000001
 30
0.0
 11
-64.0
 21
-316.0315950000001
 31
0.0
  0
LINE
  5
D4
  8
SIZE
  6
CONTINUOUS
 62
    30
 10
170.50157100000001
 20
-316.0315950000001
 30
0.0
 11
0.0
 21
-316.0315950000001
 31
0.0
  0
TEXT
  5
D5
  8
SIZE
  6
CONTINUOUS
 62
    30
 10
52.244428571428571
 20
-291.0315950000001
 30
0.0
 40
64.0
  1
40
 41
0.9
 72
     1
 11
98.87299999999999
 21
-291.0315950000001
 31
0.0
  0
LINE
  5
D6
  8
SIZE
  6
CONTINUOUS
 62
    30
 10
0.0
 20
-316.0315950000001
 30
0.0
 11
-40.0
 21
-316.0315950000001
 31
0.0
  0
LINE
  5
D7
  8
SIZE
  6
CONTINUOUS
 62
    30
 10
0.0
 20
-316.0315950000001
 30
0.0
 11
-40.0
 21
-316.0315950000001
 31
0.0
  0
CIRCLE
  5
D8
  8
SIZE
  6
CONTINUOUS
 62
    30
 10
0.0
 20
-316.0315950000001
 30
0.0
 40
6.0
  0
LINE
  5
D9
  8
SIZE
  6
CONTINUOUS
 62
    30
 10
0.0
 20
-316.0315950000001
 30
0.0
 11
12.0
 21
-316.0315950000001
 31
0.0
  0
CIRCLE
  5
DA
  8
SIZE
  6
CONTINUOUS
 62
    30
 10
-40.0
 20
-316.0315950000001
 30
0.0
 40
6.0
  0
LINE
  5
DB
  8
SIZE
  6
CONTINUOUS
 62
    30
 10
-40.0
 20
-316.0315950000001
 30
0.0
 11
-52.0
 21
-316.0315950000001
 31
0.0
  0
POINT
  5
DC
  8
DEFPOINTS
  6
CONTINUOUS
 62
    30
 10
0.0
 20
-136.20771300000001
 30
0.0
  0
POINT
  5
DD
  8
DEFPOINTS
  6
CONTINUOUS
 62
    30
 10
-40.0
 20
-143.0
 30
0.0
  0
POINT
  5
DE
  8
DEFPOINTS
  6
CONTINUOUS
 62
    30
 10
-40.0
 20
-316.0315950000001
 30
0.0
  0
LINE
  5
DF
  8
SIZE
  6
CONTINUOUS
 62
    30
 10
72.0
 20
98.500000000000014
 30
0.0
 11
288.37743599999999
 21
98.500000000000014
 31
0.0
  0
LINE
  5
E0
  8
SIZE
  6
CONTINUOUS
 62
    30
 10
72.0
 20
-98.500000000000014
 30
0.0
 11
288.37743599999999
 21
-98.500000000000014
 31
0.0
  0
LINE
  5
E1
  8
SIZE
  6
CONTINUOUS
 62
    30
 10
268.37743599999999
 20
110.5
 30
0.0
 11
268.37743599999999
 21
122.5
 31
0.0
  0
LINE
  5
E2
  8
SIZE
  6
CONTINUOUS
 62
    30
 10
268.37743599999999
 20
-110.5
 30
0.0
 11
268.37743599999999
 21
-122.5
 31
0.0
  0
LINE
  5
E3
  8
SIZE
  6
CONTINUOUS
 62
    30
 10
268.37743599999999
 20
98.500000000000014
 30
0.0
 11
268.37743599999999
 21
-98.500000000000014
 31
0.0
  0
CIRCLE
  5
E4
  8
SIZE
  6
CONTINUOUS
 62
    30
 10
268.37743599999999
 20
98.500000000000014
 30
0.0
 40
6.0
  0
LINE
  5
E5
  8
SIZE
  6
CONTINUOUS
 62
    30
 10
268.37743599999999
 20
98.500000000000014
 30
0.0
 11
268.37743599999999
 21
110.5
 31
0.0
  0
CIRCLE
  5
E6
  8
SIZE
  6
CONTINUOUS
 62
    30
 10
268.37743599999999
 20
-98.500000000000014
 30
0.0
 40
6.0
  0
LINE
  5
E7
  8
SIZE
  6
CONTINUOUS
 62
    30
 10
268.37743599999999
 20
-98.500000000000014
 30
0.0
 11
268.37743599999999
 21
-110.5
 31
0.0
  0
TEXT
  5
E8
  8
SIZE
  6
CONTINUOUS
 62
    30
 10
243.37743599999999
 20
-108.89142857142851
 30
0.0
 40
64.0
  1
φ197
 50
90.0
 41
0.9
 72
     1
 11
243.37743599999999
 21
0.0
 31
0.0
  0
POINT
  5
E9
  8
DEFPOINTS
  6
CONTINUOUS
 62
    30
 10
52.0
 20
98.500000000000014
 30
0.0
  0
POINT
  5
EA
  8
DEFPOINTS
  6
CONTINUOUS
 62
    30
 10
52.0
 20
-98.500000000000014
 30
0.0
  0
POINT
  5
EB
  8
DEFPOINTS
  6
CONTINUOUS
 62
    30
 10
268.37743599999999
 20
-98.500000000000014
 30
0.0
  0
LINE
  5
EC
  8
SIZE
  6
CONTINUOUS
 62
    30
 10
53.0
 20
118.5
 30
0.0
 11
53.0
 21
327.98280499999998
 31
0.0
  0
LINE
  5
ED
  8
SIZE
  6
CONTINUOUS
 62
    30
 10
0.0
 20
152.0
 30
0.0
 11
0.0
 21
327.98280499999998
 31
0.0
  0
LINE
  5
EE
  8
SIZE
  6
CONTINUOUS
 62
    30
 10
64.0
 20
307.98280499999998
 30
0.0
 11
76.0
 21
307.98280499999998
 31
0.0
  0
LINE
  5
EF
  8
SIZE
  6
CONTINUOUS
 62
    30
 10
-12.0
 20
307.98280499999998
 30
0.0
 11
-24.0
 21
307.98280499999998
 31
0.0
  0
LINE
  5
F0
  8
SIZE
  6
CONTINUOUS
 62
    30
 10
227.57961
 20
307.98280499999998
 30
0.0
 11
53.0
 21
307.98280499999998
 31
0.0
  0
TEXT
  5
F1
  8
SIZE
  6
CONTINUOUS
 62
    30
 10
109.32246657142851
 20
332.98280499999998
 30
0.0
 40
64.0
  1
53
 41
0.9
 72
     1
 11
155.95103800000001
 21
332.98280499999998
 31
0.0
  0
LINE
  5
F2
  8
SIZE
  6
CONTINUOUS
 62
    30
 10
52.0
 20
307.98280499999998
 30
0.0
 11
0.0
 21
307.98280499999998
 31
0.0
  0
LINE
  5
F3
  8
SIZE
  6
CONTINUOUS
 62
    30
 10
53.0
 20
307.98280499999998
 30
0.0
 11
0.0
 21
307.98280499999998
 31
0.0
  0
CIRCLE
  5
F4
  8
SIZE
  6
CONTINUOUS
 62
    30
 10
53.0
 20
307.98280499999998
 30
0.0
 40
6.0
  0
CIRCLE
  5
F6
  8
SIZE
  6
CONTINUOUS
 62
    30
 10
0.0
 20
307.98280499999998
 30
0.0
 40
6.0
  0
LINE
  5
F7
  8
SIZE
  6
CONTINUOUS
 62
    30
 10
0.0
 20
307.98280499999998
 30
0.0
 11
-12.0
 21
307.98280499999998
 31
0.0
  0
POINT
  5
F8
  8
DEFPOINTS
  6
CONTINUOUS
 62
    30
 10
52.0
 20
98.500000000000014
 30
0.0
  0
POINT
  5
F9
  8
DEFPOINTS
  6
CONTINUOUS
 62
    30
 10
0.0
 20
132.0
 30
0.0
  0
POINT
  5
FA
  8
DEFPOINTS
  6
CONTINUOUS
 62
    30
 10
0.0
 20
307.98280499999998
 30
0.0
  0
LINE
  5
FB
  8
SIZE
  6
CONTINUOUS
 62
    30
 10
0.0
 20
152.0
 30
0.0
 11
0.0
 21
327.98280499999998
 31
0.0
  0
LINE
  5
FC
  8
SIZE
  6
CONTINUOUS
 62
    30
 10
-155.0
 20
20.0
 30
0.0
 11
-155.0
 21
327.98280499999998
 31
0.0
  0
LINE
  5
FD
  8
SIZE
  6
CONTINUOUS
 62
    30
 10
12.0
 20
307.98280499999998
 30
0.0
 11
24.0
 21
307.98280499999998
 31
0.0
  0
LINE
  5
FE
  8
SIZE
  6
CONTINUOUS
 62
    30
 10
-167.0
 20
307.98280499999998
 30
0.0
 11
-179.0
 21
307.98280499999998
 31
0.0
  0
LINE
  5
FF
  8
SIZE
  6
CONTINUOUS
 62
    30
 10
0.0
 20
307.98280499999998
 30
0.0
 11
-155.0
 21
307.98280499999998
 31
0.0
  0
CIRCLE
  5
100
  8
SIZE
  6
CONTINUOUS
 62
    30
 10
0.0
 20
307.98280499999998
 30
0.0
 40
6.0
  0
LINE
  5
101
  8
SIZE
  6
CONTINUOUS
 62
    30
 10
0.0
 20
307.98280499999998
 30
0.0
 11
12.0
 21
307.98280499999998
 31
0.0
  0
CIRCLE
  5
102
  8
SIZE
  6
CONTINUOUS
 62
    30
 10
-155.0
 20
307.98280499999998
 30
0.0
 40
6.0
  0
LINE
  5
103
  8
SIZE
  6
CONTINUOUS
 62
    30
 10
-155.0
 20
307.98280499999998
 30
0.0
 11
-167.0
 21
307.98280499999998
 31
0.0
  0
TEXT
  5
104
  8
SIZE
  6
CONTINUOUS
 62
    30
 10
-146.0714285714285
 20
332.98280499999998
 30
0.0
 40
64.0
  1
155
 41
0.9
 72
     1
 11
-77.5
 21
332.98280499999998
 31
0.0
  0
POINT
  5
105
  8
DEFPOINTS
  6
CONTINUOUS
 62
    30
 10
0.0
 20
132.0
 30
0.0
  0
POINT
  5
106
  8
DEFPOINTS
  6
CONTINUOUS
 62
    30
 10
-155.0
 20
0.0
 30
0.0
  0
POINT
  5
107
  8
DEFPOINTS
  6
CONTINUOUS
 62
    30
 10
-155.0
 20
307.98280499999998
 30
0.0
  0
LINE
  5
108
  8
SIZE
  6
CONTINUOUS
 62
    30
 10
0.0
 20
152.0
 30
0.0
 11
0.0
 21
211.650328
 31
0.0
  0
LINE
  5
109
  8
SIZE
  6
CONTINUOUS
 62
    30
 10
-10.0
 20
149.55586600000001
 30
0.0
 11
-10.0
 21
211.650328
 31
0.0
  0
LINE
  5
10A
  8
SIZE
  6
CONTINUOUS
 62
    30
 10
12.0
 20
191.650328
 30
0.0
 11
24.0
 21
191.650328
 31
0.0
  0
LINE
  5
10B
  8
SIZE
  6
CONTINUOUS
 62
    30
 10
-22.0
 20
191.650328
 30
0.0
 11
-34.0
 21
191.650328
 31
0.0
  0
LINE
  5
10C
  8
SIZE
  6
CONTINUOUS
 62
    30
 10
215.95367999999999
 20
191.650328
 30
0.0
 11
0.0
 21
191.650328
 31
0.0
  0
TEXT
  5
10D
  8
SIZE
  6
CONTINUOUS
 62
    30
 10
108.6679658571428
 20
216.650328
 30
0.0
 40
64.0
  1
10
 41
0.9
 72
     1
 11
149.810823
 21
216.650328
 31
0.0
  0
LINE
  5
10E
  8
SIZE
  6
CONTINUOUS
 62
    30
 10
0.0
 20
191.650328
 30
0.0
 11
-10.0
 21
191.650328
 31
0.0
  0
LINE
  5
10F
  8
SIZE
  6
CONTINUOUS
 62
    30
 10
0.0
 20
191.650328
 30
0.0
 11
-10.0
 21
191.650328
 31
0.0
  0
CIRCLE
  5
110
  8
SIZE
  6
CONTINUOUS
 62
    30
 10
0.0
 20
191.650328
 30
0.0
 40
6.0
  0
LINE
  5
111
  8
SIZE
  6
CONTINUOUS
 62
    30
 10
0.0
 20
191.650328
 30
0.0
 11
12.0
 21
191.650328
 31
0.0
  0
CIRCLE
  5
112
  8
SIZE
  6
CONTINUOUS
 62
    30
 10
-10.0
 20
191.650328
 30
0.0
 40
6.0
  0
LINE
  5
113
  8
SIZE
  6
CONTINUOUS
 62
    30
 10
-10.0
 20
191.650328
 30
0.0
 11
-22.0
 21
191.650328
 31
0.0
  0
POINT
  5
114
  8
DEFPOINTS
  6
CONTINUOUS
 62
    30
 10
0.0
 20
132.0
 30
0.0
  0
POINT
  5
115
  8
DEFPOINTS
  6
CONTINUOUS
 62
    30
 10
-10.0
 20
129.5558659999999
 30
0.0
  0
POINT
  5
116
  8
DEFPOINTS
  6
CONTINUOUS
 62
    30
 10
-10.0
 20
191.650328
 30
0.0
  0
LINE
  5
117
  8
SIZE
  6
CONTINUOUS
 62
    30
 10
-60.0
 20
-143.0
 30
0.0
 11
-224.56204199999999
 21
-143.0
 31
0.0
  0
LINE
  5
118
  8
SIZE
  6
CONTINUOUS
 62
    30
 10
-175.0
 20
0.0
 30
0.0
 11
-224.56204199999999
 21
0.0
 31
0.0
  0
LINE
  5
119
  8
SIZE
  6
CONTINUOUS
 62
    30
 10
-204.56204199999999
 20
-131.0
 30
0.0
 11
-204.56204199999999
 21
-12.0
 31
0.0
  0
LINE
  5
11A
  8
SIZE
  6
CONTINUOUS
 62
    30
 10
-204.56204199999999
 20
-343.08328799999998
 30
0.0
 11
-204.56204199999999
 21
-143.0
 31
0.0
  0
TEXT
  5
11B
  8
SIZE
  6
CONTINUOUS
 62
    30
 10
-229.56204199999999
 20
-318.08328757142851
 30
0.0
 40
64.0
  1
143
 50
90.0
 41
0.9
 72
     1
 11
-229.56204199999999
 21
-249.51185899999999
 31
0.0
  0
CIRCLE
  5
11C
  8
SIZE
  6
CONTINUOUS
 62
    30
 10
-204.56204199999999
 20
-143.0
 30
0.0
 40
6.0
  0
LINE
  5
11D
  8
SIZE
  6
CONTINUOUS
 62
    30
 10
-204.56204199999999
 20
-143.0
 30
0.0
 11
-204.56204199999999
 21
-131.0
 31
0.0
  0
CIRCLE
  5
11E
  8
SIZE
  6
CONTINUOUS
 62
    30
 10
-204.56204199999999
 20
0.0
 30
0.0
 40
6.0
  0
LINE
  5
11F
  8
SIZE
  6
CONTINUOUS
 62
    30
 10
-204.56204199999999
 20
0.0
 30
0.0
 11
-204.56204199999999
 21
-12.0
 31
0.0
  0
POINT
  5
120
  8
DEFPOINTS
  6
CONTINUOUS
 62
    30
 10
-40.0
 20
-143.0
 30
0.0
  0
POINT
  5
121
  8
DEFPOINTS
  6
CONTINUOUS
 62
    30
 10
-155.0
 20
0.0
 30
0.0
  0
POINT
  5
122
  8
DEFPOINTS
  6
CONTINUOUS
 62
    30
 10
-204.56204199999999
 20
0.0
 30
0.0
  0
LINE
  5
123
  8
SIZE
  6
CONTINUOUS
 62
    30
 10
-30.0
 20
115.5
 30
0.0
 11
-346.93498
 21
115.5
 31
0.0
  0
LINE
  5
124
  8
SIZE
  6
CONTINUOUS
 62
    30
 10
-52.811070999999991
 20
-115.5
 30
0.0
 11
-346.93498
 21
-115.5
 31
0.0
  0
LINE
  5
125
  8
SIZE
  6
CONTINUOUS
 62
    30
 10
-326.93498
 20
103.5
 30
0.0
 11
-326.93498
 21
-103.5
 31
0.0
  0
CIRCLE
  5
126
  8
SIZE
  6
CONTINUOUS
 62
    30
 10
-326.93498
 20
115.5
 30
0.0
 40
6.0
  0
LINE
  5
127
  8
SIZE
  6
CONTINUOUS
 62
    30
 10
-326.93498
 20
115.5
 30
0.0
 11
-326.93498
 21
103.5
 31
0.0
  0
CIRCLE
  5
128
  8
SIZE
  6
CONTINUOUS
 62
    30
 10
-326.93498
 20
-115.5
 30
0.0
 40
6.0
  0
LINE
  5
129
  8
SIZE
  6
CONTINUOUS
 62
    30
 10
-326.93498
 20
-115.5
 30
0.0
 11
-326.93498
 21
-103.5
 31
0.0
  0
TEXT
  5
12A
  8
SIZE
  6
CONTINUOUS
 62
    30
 10
-351.93498
 20
-102.0342857142857
 30
0.0
 40
64.0
  1
φ231
 50
90.0
 41
0.9
 72
     1
 11
-351.93498
 21
0.0
 31
0.0
  0
POINT
  5
12B
  8
DEFPOINTS
  6
CONTINUOUS
 62
    30
 10
-10.0
 20
115.5
 30
0.0
  0
POINT
  5
12C
  8
DEFPOINTS
  6
CONTINUOUS
 62
    30
 10
-32.811071000000013
 20
-115.5
 30
0.0
  0
POINT
  5
12D
  8
DEFPOINTS
  6
CONTINUOUS
 62
    30
 10
-326.93498
 20
-115.5
 30
0.0
  0
LINE
  5
12E
  8
SIZE
  6
CONTINUOUS
 62
    30
 10
-27.555866000000002
 20
132.0
 30
0.0
 11
-484.87395299999997
 21
132.0
 31
0.0
  0
LINE
  5
12F
  8
SIZE
  6
CONTINUOUS
 62
    30
 10
-20.0
 20
-132.0
 30
0.0
 11
-484.87395299999997
 21
-132.0
 31
0.0
  0
LINE
  5
130
  8
SIZE
  6
CONTINUOUS
 62
    30
 10
-464.87395299999997
 20
120.0
 30
0.0
 11
-464.87395299999997
 21
-120.0
 31
0.0
  0
CIRCLE
  5
131
  8
SIZE
  6
CONTINUOUS
 62
    30
 10
-464.87395299999997
 20
132.0
 30
0.0
 40
6.0
  0
LINE
  5
132
  8
SIZE
  6
CONTINUOUS
 62
    30
 10
-464.87395299999997
 20
132.0
 30
0.0
 11
-464.87395299999997
 21
120.0
 31
0.0
  0
CIRCLE
  5
133
  8
SIZE
  6
CONTINUOUS
 62
    30
 10
-464.87395299999997
 20
-132.0
 30
0.0
 40
6.0
  0
LINE
  5
134
  8
SIZE
  6
CONTINUOUS
 62
    30
 10
-464.87395299999997
 20
-132.0
 30
0.0
 11
-464.87395299999997
 21
-120.0
 31
0.0
  0
TEXT
  5
135
  8
SIZE
  6
CONTINUOUS
 62
    30
 10
-489.87395299999997
 20
-115.7485714285714
 30
0.0
 40
64.0
  1
φ264
 50
90.0
 41
0.9
 72
     1
 11
-489.87395299999997
 21
0.0
 31
0.0
  0
POINT
  5
136
  8
DEFPOINTS
  6
CONTINUOUS
 62
    30
 10
-7.5558659999999991
 20
132.0
 30
0.0
  0
POINT
  5
137
  8
DEFPOINTS
  6
CONTINUOUS
 62
    30
 10
0.0
 20
-132.0
 30
0.0
  0
POINT
  5
138
  8
DEFPOINTS
  6
CONTINUOUS
 62
    30
 10
-464.87395299999997
 20
-132.0
 30
0.0
  0
LINE
  5
140
  8
OUTLINE
  6
CONTINUOUS
 39
50.0
 10
53.0
 20
98.500000000000014
 30
0.0
 11
53.0
 21
-98.500000000000014
 31
0.0
  0
ENDSEC
  0
EOF
