  0
SECTION
  2
HEADER
  9
$ACADVER
  1
AC1009
  9
$INSBASE
 10
0.0
 20
0.0
 30
0.0
  9
$EXTMIN
 10
-297.29002212091649
 20
-332.93150671866169
 30
-0.0030518556252446
  9
$EXTMAX
 10
735.97413232314102
 20
421.37146778564232
 30
50.003052088470113
  9
$LIMMIN
 10
-2970.0
 20
-2100.0
  9
$LIMMAX
 10
2970.0
 20
2100.0
  9
$ORTHOMODE
 70
     1
  9
$REGENMODE
 70
     1
  9
$FILLMODE
 70
     1
  9
$QTEXTMODE
 70
     0
  9
$MIRRTEXT
 70
     0
  9
$DRAGMODE
 70
     2
  9
$LTSCALE
 40
20.0
  9
$OSMODE
 70
    37
  9
$ATTMODE
 70
     1
  9
$TEXTSIZE
 40
64.0
  9
$TRACEWID
 40
0.05
  9
$TEXTSTYLE
  7
STANDARD
  9
$CLAYER
  8
SIZE
  9
$CELTYPE
  6
CONTINUOUS
  9
$CECOLOR
 62
     7
  9
$DIMSCALE
 40
1.0
  9
$DIMASZ
 40
12.0
  9
$DIMEXO
 40
20.0
  9
$DIMDLI
 40
200.0
  9
$DIMRND
 40
0.0
  9
$DIMDLE
 40
0.0
  9
$DIMEXE
 40
20.0
  9
$DIMTP
 40
0.0
  9
$DIMTM
 40
0.0
  9
$DIMTXT
 40
64.0
  9
$DIMCEN
 40
0.09
  9
$DIMTSZ
 40
0.0
  9
$DIMTOL
 70
     0
  9
$DIMLIM
 70
     0
  9
$DIMTIH
 70
     0
  9
$DIMTOH
 70
     0
  9
$DIMSE1
 70
     0
  9
$DIMSE2
 70
     0
  9
$DIMTAD
 70
     1
  9
$DIMZIN
 70
     8
  9
$DIMBLK
  1
DOT1
  9
$DIMASO
 70
     1
  9
$DIMSHO
 70
     0
  9
$DIMPOST
  1

  9
$DIMAPOST
  1

  9
$DIMALT
 70
     0
  9
$DIMALTD
 70
     2
  9
$DIMALTF
 40
25.399999999999999
  9
$DIMLFAC
 40
1.0
  9
$DIMTOFL
 70
     1
  9
$DIMTVP
 40
0.0
  9
$DIMTIX
 70
     1
  9
$DIMSOXD
 70
     0
  9
$DIMSAH
 70
     1
  9
$DIMBLK1
  1
ORIGIN
  9
$DIMBLK2
  1
ORIGIN
  9
$DIMSTYLE
  2
STANDARD
  9
$DIMCLRD
 70
     7
  9
$DIMCLRE
 70
     7
  9
$DIMCLRT
 70
     7
  9
$DIMTFAC
 40
1.0
  9
$DIMGAP
 40
25.0
  9
$LUNITS
 70
     2
  9
$LUPREC
 70
     4
  9
$SKETCHINC
 40
0.1
  9
$FILLETRAD
 40
4.0
  9
$AUNITS
 70
     1
  9
$AUPREC
 70
     3
  9
$MENU
  1
ACAD
  9
$ELEVATION
 40
0.0
  9
$PELEVATION
 40
0.0
  9
$THICKNESS
 40
50.0
  9
$LIMCHECK
 70
     0
  9
$BLIPMODE
 70
     0
  9
$CHAMFERA
 40
0.0
  9
$CHAMFERB
 40
0.0
  9
$SKPOLY
 70
     0
  9
$TDCREATE
 40
2452994.6879997919
  9
$TDUPDATE
 40
2454806.5603291318
  9
$TDINDWG
 40
0.0265528472
  9
$TDUSRTIMER
 40
0.0265528472
  9
$USRTIMER
 70
     1
  9
$ANGBASE
 50
0.0
  9
$ANGDIR
 70
     0
  9
$PDMODE
 70
     3
  9
$PDSIZE
 40
-2.0
  9
$PLINEWID
 40
0.0
  9
$COORDS
 70
     0
  9
$SPLFRAME
 70
     0
  9
$SPLINETYPE
 70
     6
  9
$SPLINESEGS
 70
     8
  9
$ATTDIA
 70
     0
  9
$ATTREQ
 70
     1
  9
$HANDLING
 70
     1
  9
$HANDSEED
  5
144
  9
$SURFTAB1
 70
     6
  9
$SURFTAB2
 70
     6
  9
$SURFTYPE
 70
     6
  9
$SURFU
 70
     6
  9
$SURFV
 70
     6
  9
$UCSNAME
  2

  9
$UCSORG
 10
0.0
 20
0.0
 30
0.0
  9
$UCSXDIR
 10
1.0
 20
0.0
 30
0.0
  9
$UCSYDIR
 10
0.0
 20
1.0
 30
0.0
  9
$PUCSNAME
  2

  9
$PUCSORG
 10
0.0
 20
0.0
 30
0.0
  9
$PUCSXDIR
 10
1.0
 20
0.0
 30
0.0
  9
$PUCSYDIR
 10
0.0
 20
1.0
 30
0.0
  9
$USERI1
 70
     0
  9
$USERI2
 70
     0
  9
$USERI3
 70
     0
  9
$USERI4
 70
     0
  9
$USERI5
 70
     0
  9
$USERR1
 40
20.0
  9
$USERR2
 40
0.0
  9
$USERR3
 40
0.0
  9
$USERR4
 40
0.0
  9
$USERR5
 40
0.0
  9
$WORLDVIEW
 70
     1
  9
$SHADEDGE
 70
     3
  9
$SHADEDIF
 70
    70
  9
$TILEMODE
 70
     1
  9
$MAXACTVP
 70
    48
  9
$PLIMCHECK
 70
     0
  9
$PEXTMIN
 10
-1.0000000000000000E+020
 20
-1.0000000000000000E+020
 30
-1.0000000000000000E+020
  9
$PEXTMAX
 10
1.0000000000000000E+020
 20
1.0000000000000000E+020
 30
1.0000000000000000E+020
  9
$PLIMMIN
 10
0.0
 20
0.0
  9
$PLIMMAX
 10
12.0
 20
9.0
  9
$UNITMODE
 70
     0
  9
$VISRETAIN
 70
     0
  9
$PLINEGEN
 70
     0
  9
$PSLTSCALE
 70
     0
  0
ENDSEC
  0
SECTION
  2
TABLES
  0
TABLE
  2
VPORT
 70
     1
  0
VPORT
  2
*ACTIVE
 70
     0
 10
0.0
 20
0.0
 11
1.0
 21
1.0
 12
271.64310125556972
 22
59.612866270757991
 13
0.0
 23
0.0
 14
1.0
 24
1.0
 15
0.0
 25
0.0
 16
0.0
 26
0.0
 36
1.0
 17
0.0
 27
0.0
 37
0.0
 40
891.75053009480837
 41
1.3098995695839311
 42
50.0
 43
0.0
 44
0.0
 50
0.0
 51
0.0
 71
     0
 72
  1000
 73
     1
 74
     0
 75
     0
 76
     0
 77
     0
 78
     0
  0
ENDTAB
  0
TABLE
  2
LTYPE
 70
     2
  0
LTYPE
  2
CONTINUOUS
 70
     0
  3
実線
 72
    65
 73
     0
 40
0.0
  0
LTYPE
  2
DASHDOT
 70
     0
  3
____ _ ____ _ ____ _ ____ _ ____ _ ____ _ ____
 72
    65
 73
     4
 40
5.5
 49
4.0
 49
-0.6
 49
0.3
 49
-0.6
  0
ENDTAB
  0
TABLE
  2
LAYER
 70
    12
  0
LAYER
  2
0
 70
     4
 62
     7
  6
CONTINUOUS
  0
LAYER
  2
ETC
 70
     4
 62
    61
  6
CONTINUOUS
  0
LAYER
  2
BASIS
 70
     4
 62
     6
  6
DASHDOT
  0
LAYER
  2
OUTLINE
 70
     4
 62
     3
  6
CONTINUOUS
  0
LAYER
  2
DETAIL
 70
     4
 62
     5
  6
CONTINUOUS
  0
LAYER
  2
SIZE
 70
     0
 62
    30
  6
CONTINUOUS
  0
LAYER
  2
ARRANGE
 70
     4
 62
     1
  6
CONTINUOUS
  0
LAYER
  2
DEFPOINTS
 70
     4
 62
     7
  6
CONTINUOUS
  0
LAYER
  2
FIX
 70
     4
 62
    11
  6
CONTINUOUS
  0
LAYER
  2
NOTE
 70
     4
 62
     4
  6
CONTINUOUS
  0
LAYER
  2
SERVICESPACE
 70
     4
 62
     2
  6
DASHDOT
  0
LAYER
  2
SYMBOLLINE
 70
     4
 62
    15
  6
CONTINUOUS
  0
ENDTAB
  0
TABLE
  2
STYLE
 70
     2
  0
STYLE
  2
STANDARD
 70
     0
 40
64.0
 41
0.9
 50
0.0
 71
     0
 42
64.0
  3
SIMPLEX.shx
  4
BIGFONT.shx
  0
STYLE
  2
ANNOTATIVE
 70
     0
 40
0.0
 41
1.0
 50
0.0
 71
     0
 42
0.2
  3
txt
  4

  0
ENDTAB
  0
TABLE
  2
VIEW
 70
     1
  0
VIEW
  2
ALL
 70
     0
 40
4282.6198079999986
 10
0.0
 20
41.309903999999989
 41
5940.0
 11
0.0
 21
0.0
 31
1.0
 12
0.0
 22
0.0
 32
0.0
 42
50.0
 43
0.0
 44
0.0
 50
0.0
 71
     0
  0
ENDTAB
  0
TABLE
  2
UCS
 70
     0
  0
ENDTAB
  0
TABLE
  2
APPID
 70
     4
  0
APPID
  2
ACAD
 70
     0
  0
APPID
  2
ACADANNOTATIVE
 70
     0
  0
APPID
  2
ACAD_MLEADERVER
 70
     0
  0
APPID
  2
AUTOCAD_POSTSCRIPT_FIGURE
 70
     0
  0
ENDTAB
  0
TABLE
  2
DIMSTYLE
 70
     2
  0
DIMSTYLE
  2
STANDARD
 70
     0
  3

  4

  5

  6

  7

 40
1.0
 41
0.18
 42
0.0625
 43
0.38
 44
0.18
 45
0.0
 46
0.0
 47
0.0
 48
0.0
140
0.18
141
0.09
142
0.0
143
25.399999999999999
144
1.0
145
0.0
146
1.0
147
0.09
 71
     0
 72
     0
 73
     1
 74
     1
 75
     0
 76
     0
 77
     0
 78
     0
170
     0
171
     2
172
     0
173
     0
174
     0
175
     0
176
     7
177
     7
178
     7
  0
DIMSTYLE
  2
ANNOTATIVE
 70
     0
  3

  4

  5

  6

  7

 40
1.0
 41
0.18
 42
0.0625
 43
0.38
 44
0.18
 45
0.0
 46
0.0
 47
0.0
 48
0.0
140
0.18
141
0.09
142
0.0
143
25.399999999999999
144
1.0
145
0.0
146
1.0
147
0.09
 71
     0
 72
     0
 73
     1
 74
     1
 75
     0
 76
     0
 77
     0
 78
     0
170
     0
171
     2
172
     0
173
     0
174
     0
175
     0
176
     0
177
     0
178
     0
  0
ENDTAB
  0
ENDSEC
  0
SECTION
  2
BLOCKS
  0
BLOCK
  8
0
  2
$MODEL_SPACE
 70
     0
 10
0.0
 20
0.0
 30
0.0
  3
$MODEL_SPACE
  1

  0
ENDBLK
  5
76
  8
0
  0
BLOCK
 67
     1
  8
0
  2
$PAPER_SPACE
 70
     0
 10
0.0
 20
0.0
 30
0.0
  3
$PAPER_SPACE
  1

  0
ENDBLK
  5
72
 67
     1
  8
0
  0
BLOCK
  8
0
  2
DOT1
 70
     0
 10
0.0
 20
0.0
 30
0.0
  3
DOT1
  1

  0
CIRCLE
  5
8C
  8
SIZE
  6
CONTINUOUS
 62
     7
 10
0.0
 20
0.0
 30
0.0
 40
3.0
  0
ENDBLK
  5
8D
  8
0
  0
BLOCK
  8
0
  2
_ORIGIN
 70
     0
 10
0.0
 20
0.0
 30
0.0
  3
_ORIGIN
  1

  0
CIRCLE
  5
90
  8
0
  6
CONTINUOUS
 62
     7
 10
0.0
 20
0.0
 30
0.0
 40
0.5
  0
LINE
  5
91
  8
0
  6
CONTINUOUS
 62
     7
 10
0.0
 20
0.0
 30
0.0
 11
-1.0
 21
0.0
 31
0.0
  0
ENDBLK
  5
92
  8
0
  0
ENDSEC
  0
SECTION
  2
ENTITIES
  0
TEXT
  5
93
  8
ETC
  6
CONTINUOUS
 62
    61
 10
338.86521399999998
 20
319.44185800000002
 30
0.0
 40
40.0
  1
システム部材
 41
0.9
  0
LINE
  5
94
  8
DETAIL
  6
CONTINUOUS
 62
     5
 10
-115.5
 20
-24.663540999999999
 30
0.0
 11
-115.5
 21
-33.575690000000002
 31
0.0
  0
LINE
  5
95
  8
DETAIL
  6
CONTINUOUS
 62
     5
 10
115.5
 20
-24.663540999999999
 30
0.0
 11
115.5
 21
-33.575690000000002
 31
0.0
  0
LINE
  5
96
  8
DETAIL
  6
CONTINUOUS
 62
     5
 10
-132.0
 20
0.0
 30
0.0
 11
132.0
 21
0.0
 31
0.0
  0
LINE
  5
97
  8
BASIS
  6
DASHDOT
 62
     6
 10
0.0
 20
99.465151000000006
 30
0.0
 11
0.0
 21
-177.11351199999999
 31
0.0
  0
POINT
  5
98
  8
ARRANGE
  6
CONTINUOUS
 62
     1
 10
0.0
 20
0.0
 30
0.0
  0
CIRCLE
  5
99
  8
ARRANGE
  6
CONTINUOUS
 62
     1
 10
0.0
 20
0.0
 30
0.0
 40
40.0
  0
TEXT
  5
9A
  8
ETC
  6
CONTINUOUS
 62
    61
 10
346.696394
 20
381.34970800000002
 30
0.0
 40
40.0
  1
P-23KFAQ5_6
 41
0.9
  0
LINE
  5
9B
  8
DETAIL
  6
CONTINUOUS
 62
     5
 10
98.500000000000014
 20
0.0
 30
0.0
 11
98.500000000000014
 21
53.0
 31
0.0
  0
LINE
  5
9C
  8
DETAIL
  6
CONTINUOUS
 62
     5
 10
-98.500000000000014
 20
0.0
 30
0.0
 11
-98.500000000000014
 21
53.0
 31
0.0
  0
LINE
  5
9D
  8
DETAIL
  6
CONTINUOUS
 62
     5
 10
-98.500000000000014
 20
53.0
 30
0.0
 11
98.500000000000014
 21
53.0
 31
0.0
  0
LINE
  5
9E
  8
DETAIL
  6
CONTINUOUS
 62
     5
 10
-137.0
 20
0.0
 30
0.0
 11
-137.0
 21
-18.262478999999999
 31
0.0
  0
LINE
  5
9F
  8
DETAIL
  6
CONTINUOUS
 62
     5
 10
-132.0
 20
0.0
 30
0.0
 11
-137.0
 21
0.0
 31
0.0
  0
LINE
  5
A0
  8
DETAIL
  6
CONTINUOUS
 62
     5
 10
137.0
 20
0.0
 30
0.0
 11
137.0
 21
-18.262478999999999
 31
0.0
  0
LINE
  5
A1
  8
DETAIL
  6
CONTINUOUS
 62
     5
 10
132.0
 20
0.0
 30
0.0
 11
137.0
 21
0.0
 31
0.0
  0
ARC
  5
A2
  8
DETAIL
  6
CONTINUOUS
 62
     5
 10
0.0
 20
402.58772799999991
 30
0.0
 40
442.58772800000003
 50
251.968299
 51
270.0
  0
ARC
  5
A3
  8
DETAIL
  6
CONTINUOUS
 62
     5
 10
0.0
 20
402.58772799999991
 30
0.0
 40
442.58772800000003
 50
270.0
 51
288.031701
  0
LINE
  5
A4
  8
SIZE
  6
CONTINUOUS
 62
    30
 10
115.5
 20
-53.575690000000002
 30
0.0
 11
115.5
 21
-332.73607500000003
 31
0.0
  0
LINE
  5
A5
  8
SIZE
  6
CONTINUOUS
 62
    30
 10
-115.5
 20
-53.575690000000002
 30
0.0
 11
-115.5
 21
-332.73607500000003
 31
0.0
  0
LINE
  5
A6
  8
SIZE
  6
CONTINUOUS
 62
    30
 10
103.5
 20
-312.73607500000003
 30
0.0
 11
-103.5
 21
-312.73607500000003
 31
0.0
  0
CIRCLE
  5
A7
  8
SIZE
  6
CONTINUOUS
 62
    30
 10
115.5
 20
-312.73607500000003
 30
0.0
 40
6.0
  0
LINE
  5
A8
  8
SIZE
  6
CONTINUOUS
 62
    30
 10
115.5
 20
-312.73607500000003
 30
0.0
 11
103.5
 21
-312.73607500000003
 31
0.0
  0
CIRCLE
  5
A9
  8
SIZE
  6
CONTINUOUS
 62
    30
 10
-115.5
 20
-312.73607500000003
 30
0.0
 40
6.0
  0
LINE
  5
AA
  8
SIZE
  6
CONTINUOUS
 62
    30
 10
-115.5
 20
-312.73607500000003
 30
0.0
 11
-103.5
 21
-312.73607500000003
 31
0.0
  0
TEXT
  5
AB
  8
SIZE
  6
CONTINUOUS
 62
    30
 10
-102.0342857142857
 20
-287.73607500000003
 30
0.0
 40
64.0
  1
φ231
 41
0.9
 72
     1
 11
0.0
 21
-287.73607500000003
 31
0.0
  0
POINT
  5
AC
  8
DEFPOINTS
  6
CONTINUOUS
 62
    30
 10
115.5
 20
-33.575690000000002
 30
0.0
  0
POINT
  5
AD
  8
DEFPOINTS
  6
CONTINUOUS
 62
    30
 10
-115.5
 20
-33.575690000000002
 30
0.0
  0
POINT
  5
AE
  8
DEFPOINTS
  6
CONTINUOUS
 62
    30
 10
-115.5
 20
-312.73607500000003
 30
0.0
  0
ARC
  5
AF
  8
DETAIL
  6
CONTINUOUS
 62
     5
 10
0.0
 20
-39.35547600000001
 30
0.0
 40
115.644524
 50
177.13522699999999
 51
2.8647729999999991
  0
LINE
  5
B0
  8
SIZE
  6
CONTINUOUS
 62
    30
 10
157.0
 20
0.0
 30
0.0
 11
345.93571900000001
 21
0.0
 31
0.0
  0
LINE
  5
B1
  8
SIZE
  6
CONTINUOUS
 62
    30
 10
20.0
 20
-155.0
 30
0.0
 11
345.93571900000001
 21
-155.0
 31
0.0
  0
LINE
  5
B2
  8
SIZE
  6
CONTINUOUS
 62
    30
 10
325.93571900000001
 20
12.0
 30
0.0
 11
325.93571900000001
 21
24.0
 31
0.0
  0
LINE
  5
B3
  8
SIZE
  6
CONTINUOUS
 62
    30
 10
325.93571900000001
 20
-167.0
 30
0.0
 11
325.93571900000001
 21
-179.0
 31
0.0
  0
LINE
  5
B4
  8
SIZE
  6
CONTINUOUS
 62
    30
 10
325.93571900000001
 20
0.0
 30
0.0
 11
325.93571900000001
 21
-155.0
 31
0.0
  0
CIRCLE
  5
B5
  8
SIZE
  6
CONTINUOUS
 62
    30
 10
325.93571900000001
 20
0.0
 30
0.0
 40
6.0
  0
LINE
  5
B6
  8
SIZE
  6
CONTINUOUS
 62
    30
 10
325.93571900000001
 20
0.0
 30
0.0
 11
325.93571900000001
 21
12.0
 31
0.0
  0
CIRCLE
  5
B7
  8
SIZE
  6
CONTINUOUS
 62
    30
 10
325.93571900000001
 20
-155.0
 30
0.0
 40
6.0
  0
LINE
  5
B8
  8
SIZE
  6
CONTINUOUS
 62
    30
 10
325.93571900000001
 20
-155.0
 30
0.0
 11
325.93571900000001
 21
-167.0
 31
0.0
  0
TEXT
  5
B9
  8
SIZE
  6
CONTINUOUS
 62
    30
 10
300.93571900000001
 20
-146.0714285714285
 30
0.0
 40
64.0
  1
155
 50
90.0
 41
0.9
 72
     1
 11
300.93571900000001
 21
-77.5
 31
0.0
  0
POINT
  5
BA
  8
DEFPOINTS
  6
CONTINUOUS
 62
    30
 10
137.0
 20
0.0
 30
0.0
  0
POINT
  5
BB
  8
DEFPOINTS
  6
CONTINUOUS
 62
    30
 10
0.0
 20
-155.0
 30
0.0
  0
POINT
  5
BC
  8
DEFPOINTS
  6
CONTINUOUS
 62
    30
 10
325.93571900000001
 20
-155.0
 30
0.0
  0
LINE
  5
BD
  8
SIZE
  6
CONTINUOUS
 62
    30
 10
157.0
 20
0.0
 30
0.0
 11
345.93571900000001
 21
0.0
 31
0.0
  0
LINE
  5
BE
  8
SIZE
  6
CONTINUOUS
 62
    30
 10
118.5
 20
53.0
 30
0.0
 11
345.93571900000001
 21
53.0
 31
0.0
  0
LINE
  5
BF
  8
SIZE
  6
CONTINUOUS
 62
    30
 10
325.93571900000001
 20
-12.0
 30
0.0
 11
325.93571900000001
 21
-24.0
 31
0.0
  0
LINE
  5
C0
  8
SIZE
  6
CONTINUOUS
 62
    30
 10
325.93571900000001
 20
64.0
 30
0.0
 11
325.93571900000001
 21
76.0
 31
0.0
  0
LINE
  5
C1
  8
SIZE
  6
CONTINUOUS
 62
    30
 10
325.93571900000001
 20
223.21428800000001
 30
0.0
 11
325.93571900000001
 21
53.0
 31
0.0
  0
TEXT
  5
C2
  8
SIZE
  6
CONTINUOUS
 62
    30
 10
300.93571900000001
 20
104.9571445714285
 30
0.0
 40
64.0
  1
53
 50
90.0
 41
0.9
 72
     1
 11
300.93571900000001
 21
151.58571599999999
 31
0.0
  0
LINE
  5
C3
  8
SIZE
  6
CONTINUOUS
 62
    30
 10
325.93571900000001
 20
0.0
 30
0.0
 11
325.93571900000001
 21
52.0
 31
0.0
  0
LINE
  5
C4
  8
SIZE
  6
CONTINUOUS
 62
    30
 10
325.93571900000001
 20
0.0
 30
0.0
 11
325.93571900000001
 21
53.0
 31
0.0
  0
CIRCLE
  5
C5
  8
SIZE
  6
CONTINUOUS
 62
    30
 10
325.93571900000001
 20
0.0
 30
0.0
 40
6.0
  0
LINE
  5
C6
  8
SIZE
  6
CONTINUOUS
 62
    30
 10
325.93571900000001
 20
0.0
 30
0.0
 11
325.93571900000001
 21
-12.0
 31
0.0
  0
CIRCLE
  5
C7
  8
SIZE
  6
CONTINUOUS
 62
    30
 10
325.93571900000001
 20
53.0
 30
0.0
 40
6.0
  0
POINT
  5
C9
  8
DEFPOINTS
  6
CONTINUOUS
 62
    30
 10
137.0
 20
0.0
 30
0.0
  0
POINT
  5
CA
  8
DEFPOINTS
  6
CONTINUOUS
 62
    30
 10
98.500000000000014
 20
52.0
 30
0.0
  0
POINT
  5
CB
  8
DEFPOINTS
  6
CONTINUOUS
 62
    30
 10
325.93571900000001
 20
52.0
 30
0.0
  0
LINE
  5
CC
  8
SIZE
  6
CONTINUOUS
 62
    30
 10
-152.0
 20
0.0
 30
0.0
 11
-230.56993800000001
 21
0.0
 31
0.0
  0
LINE
  5
CD
  8
SIZE
  6
CONTINUOUS
 62
    30
 10
-20.0
 20
-40.0
 30
0.0
 11
-230.56993800000001
 21
-40.0
 31
0.0
  0
LINE
  5
CE
  8
SIZE
  6
CONTINUOUS
 62
    30
 10
-210.56993800000001
 20
12.0
 30
0.0
 11
-210.56993800000001
 21
24.0
 31
0.0
  0
LINE
  5
CF
  8
SIZE
  6
CONTINUOUS
 62
    30
 10
-210.56993800000001
 20
-52.0
 30
0.0
 11
-210.56993800000001
 21
-64.0
 31
0.0
  0
TEXT
  5
D0
  8
SIZE
  6
CONTINUOUS
 62
    30
 10
-232.929475
 20
18.489037571428579
 30
0.0
 40
64.0
  1
40
 50
90.0
 41
0.9
 72
     1
 11
-232.929475
 21
65.117609000000002
 31
0.0
  0
LINE
  5
D1
  8
SIZE
  6
CONTINUOUS
 62
    30
 10
-210.56993800000001
 20
0.0
 30
0.0
 11
-210.56993800000001
 21
-40.0
 31
0.0
  0
LINE
  5
D2
  8
SIZE
  6
CONTINUOUS
 62
    30
 10
-210.56993800000001
 20
0.0
 30
0.0
 11
-210.56993800000001
 21
-40.0
 31
0.0
  0
CIRCLE
  5
D3
  8
SIZE
  6
CONTINUOUS
 62
    30
 10
-210.56993800000001
 20
0.0
 30
0.0
 40
6.0
  0
LINE
  5
D4
  8
SIZE
  6
CONTINUOUS
 62
    30
 10
-210.56993800000001
 20
0.0
 30
0.0
 11
-210.56993800000001
 21
12.0
 31
0.0
  0
CIRCLE
  5
D5
  8
SIZE
  6
CONTINUOUS
 62
    30
 10
-210.56993800000001
 20
-40.0
 30
0.0
 40
6.0
  0
LINE
  5
D6
  8
SIZE
  6
CONTINUOUS
 62
    30
 10
-210.56993800000001
 20
-40.0
 30
0.0
 11
-210.56993800000001
 21
-52.0
 31
0.0
  0
POINT
  5
D7
  8
DEFPOINTS
  6
CONTINUOUS
 62
    30
 10
-132.0
 20
0.0
 30
0.0
  0
POINT
  5
D8
  8
DEFPOINTS
  6
CONTINUOUS
 62
    30
 10
0.0
 20
-40.0
 30
0.0
  0
POINT
  5
D9
  8
DEFPOINTS
  6
CONTINUOUS
 62
    30
 10
-210.56993800000001
 20
-40.0
 30
0.0
  0
LINE
  5
DA
  8
SIZE
  6
CONTINUOUS
 62
    30
 10
98.500000000000014
 20
72.0
 30
0.0
 11
98.500000000000014
 21
168.20292599999999
 31
0.0
  0
LINE
  5
DB
  8
SIZE
  6
CONTINUOUS
 62
    30
 10
-98.500000000000014
 20
72.0
 30
0.0
 11
-98.500000000000014
 21
168.20292599999999
 31
0.0
  0
LINE
  5
DC
  8
SIZE
  6
CONTINUOUS
 62
    30
 10
110.5
 20
148.20292599999999
 30
0.0
 11
122.5
 21
148.20292599999999
 31
0.0
  0
LINE
  5
DD
  8
SIZE
  6
CONTINUOUS
 62
    30
 10
-110.5
 20
148.20292599999999
 30
0.0
 11
-122.5
 21
148.20292599999999
 31
0.0
  0
LINE
  5
DE
  8
SIZE
  6
CONTINUOUS
 62
    30
 10
98.500000000000014
 20
148.20292599999999
 30
0.0
 11
-98.500000000000014
 21
148.20292599999999
 31
0.0
  0
CIRCLE
  5
DF
  8
SIZE
  6
CONTINUOUS
 62
    30
 10
98.500000000000014
 20
148.20292599999999
 30
0.0
 40
6.0
  0
LINE
  5
E0
  8
SIZE
  6
CONTINUOUS
 62
    30
 10
98.500000000000014
 20
148.20292599999999
 30
0.0
 11
110.5
 21
148.20292599999999
 31
0.0
  0
CIRCLE
  5
E1
  8
SIZE
  6
CONTINUOUS
 62
    30
 10
-98.500000000000014
 20
148.20292599999999
 30
0.0
 40
6.0
  0
LINE
  5
E2
  8
SIZE
  6
CONTINUOUS
 62
    30
 10
-98.500000000000014
 20
148.20292599999999
 30
0.0
 11
-110.5
 21
148.20292599999999
 31
0.0
  0
TEXT
  5
E3
  8
SIZE
  6
CONTINUOUS
 62
    30
 10
-108.89142857142851
 20
173.20292599999999
 30
0.0
 40
64.0
  1
φ197
 41
0.9
 72
     1
 11
0.0
 21
173.20292599999999
 31
0.0
  0
POINT
  5
E4
  8
DEFPOINTS
  6
CONTINUOUS
 62
    30
 10
98.500000000000014
 20
52.0
 30
0.0
  0
POINT
  5
E5
  8
DEFPOINTS
  6
CONTINUOUS
 62
    30
 10
-98.500000000000014
 20
52.0
 30
0.0
  0
POINT
  5
E6
  8
DEFPOINTS
  6
CONTINUOUS
 62
    30
 10
-98.500000000000014
 20
148.20292599999999
 30
0.0
  0
LINE
  5
E7
  8
SIZE
  6
CONTINUOUS
 62
    30
 10
137.0
 20
20.0
 30
0.0
 11
137.0
 21
290.93591600000002
 31
0.0
  0
LINE
  5
E8
  8
SIZE
  6
CONTINUOUS
 62
    30
 10
-137.0
 20
20.0
 30
0.0
 11
-137.0
 21
290.93591600000002
 31
0.0
  0
LINE
  5
E9
  8
SIZE
  6
CONTINUOUS
 62
    30
 10
125.0
 20
270.93591600000002
 30
0.0
 11
-125.0
 21
270.93591600000002
 31
0.0
  0
CIRCLE
  5
EA
  8
SIZE
  6
CONTINUOUS
 62
    30
 10
137.0
 20
270.93591600000002
 30
0.0
 40
6.0
  0
LINE
  5
EB
  8
SIZE
  6
CONTINUOUS
 62
    30
 10
137.0
 20
270.93591600000002
 30
0.0
 11
125.0
 21
270.93591600000002
 31
0.0
  0
CIRCLE
  5
EC
  8
SIZE
  6
CONTINUOUS
 62
    30
 10
-137.0
 20
270.93591600000002
 30
0.0
 40
6.0
  0
LINE
  5
ED
  8
SIZE
  6
CONTINUOUS
 62
    30
 10
-137.0
 20
270.93591600000002
 30
0.0
 11
-125.0
 21
270.93591600000002
 31
0.0
  0
TEXT
  5
EE
  8
SIZE
  6
CONTINUOUS
 62
    30
 10
-75.428571428571416
 20
295.93591600000002
 30
0.0
 40
64.0
  1
274
 41
0.9
 72
     1
 11
0.0
 21
295.93591600000002
 31
0.0
  0
POINT
  5
EF
  8
DEFPOINTS
  6
CONTINUOUS
 62
    30
 10
137.0
 20
0.0
 30
0.0
  0
POINT
  5
F0
  8
DEFPOINTS
  6
CONTINUOUS
 62
    30
 10
-137.0
 20
0.0
 30
0.0
  0
POINT
  5
F1
  8
DEFPOINTS
  6
CONTINUOUS
 62
    30
 10
-137.0
 20
270.93591600000002
 30
0.0
  0
ARC
  5
F2
  8
DETAIL
  6
CONTINUOUS
 62
     5
 10
-25.583210999999999
 20
-77.999129999999994
 30
0.0
 40
68.731065999999984
 50
139.05740700000001
 51
146.85659899999999
  0
ARC
  5
F3
  8
DETAIL
  6
CONTINUOUS
 62
     5
 10
-35.40401
 20
-72.298886999999993
 30
0.0
 40
57.394633999999989
 50
146.26106899999999
 51
179.546863
  0
ARC
  5
F4
  8
DETAIL
  6
CONTINUOUS
 62
     5
 10
-35.40401
 20
-71.391058999999998
 30
0.0
 40
57.394633999999989
 50
180.45313699999991
 51
213.73893100000001
  0
ARC
  5
F5
  8
DETAIL
  6
CONTINUOUS
 62
     5
 10
-21.085846
 20
-62.186408999999998
 30
0.0
 40
74.414237
 50
213.50942900000001
 51
232.889872
  0
ARC
  5
F6
  8
DETAIL
  6
CONTINUOUS
 62
     5
 10
-8.5975099999999998
 20
-45.882236999999989
 30
0.0
 40
94.951346999999984
 50
232.81621899999999
 51
249.28003200000001
  0
ARC
  5
F7
  8
DETAIL
  6
CONTINUOUS
 62
     5
 10
-1.5864359999999991
 20
-27.27805
 30
0.0
 40
114.83275500000001
 50
249.292294
 51
270.16752300000002
  0
ARC
  5
F8
  8
DETAIL
  6
CONTINUOUS
 62
     5
 10
-0.9149360000000001
 20
-27.27805
 30
0.0
 40
114.83275500000001
 50
269.83247699999998
 51
290.70770599999997
  0
ARC
  5
F9
  8
DETAIL
  6
CONTINUOUS
 62
     5
 10
6.0961379999999989
 20
-45.882236999999989
 30
0.0
 40
94.951346999999984
 50
290.71996799999999
 51
307.18378100000001
  0
ARC
  5
FA
  8
DETAIL
  6
CONTINUOUS
 62
     5
 10
18.584474
 20
-62.186408999999998
 30
0.0
 40
74.414237
 50
307.11012799999997
 51
326.49057099999999
  0
ARC
  5
FB
  8
DETAIL
  6
CONTINUOUS
 62
     5
 10
32.902638000000003
 20
-71.391058999999998
 30
0.0
 40
57.394633999999989
 50
326.26106900000002
 51
359.54686299999997
  0
ARC
  5
FC
  8
DETAIL
  6
CONTINUOUS
 62
     5
 10
32.902638000000003
 20
-72.298886999999993
 30
0.0
 40
57.394633999999989
 50
0.453137
 51
33.738931000000001
  0
ARC
  5
FD
  8
DETAIL
  6
CONTINUOUS
 62
     5
 10
57.278353000000003
 20
-52.392392999999998
 30
0.0
 40
26.24190200000001
 50
27.140896000000001
 51
46.521338999999998
  0
ARC
  5
FE
  8
OUTLINE
  6
CONTINUOUS
 62
     3
 10
0.0
 20
402.58772799999991
 30
0.0
 40
442.58772800000003
 50
270.0
 51
288.031701
  0
ARC
  5
FF
  8
OUTLINE
  6
CONTINUOUS
 62
     3
 10
0.0
 20
-39.35547600000001
 30
0.0
 40
115.644524
 50
177.13522699999999
 51
2.8647729999999991
  0
LINE
  5
100
  8
OUTLINE
  6
CONTINUOUS
 62
     3
 10
-98.500000000000014
 20
53.0
 30
0.0
 11
98.500000000000014
 21
53.0
 31
0.0
  0
LINE
  5
101
  8
OUTLINE
  6
CONTINUOUS
 62
     3
 10
-132.0
 20
0.0
 30
0.0
 11
132.0
 21
0.0
 31
0.0
  0
LINE
  5
102
  8
OUTLINE
  6
CONTINUOUS
 62
     3
 10
-98.500000000000014
 20
0.0
 30
0.0
 11
-98.500000000000014
 21
53.0
 31
0.0
  0
ARC
  5
103
  8
OUTLINE
  6
CONTINUOUS
 62
     3
 10
0.0
 20
402.58772799999991
 30
0.0
 40
442.58772800000003
 50
251.968299
 51
270.0
  0
LINE
  5
104
  8
OUTLINE
  6
CONTINUOUS
 62
     3
 10
-132.0
 20
0.0
 30
0.0
 11
-137.0
 21
0.0
 31
0.0
  0
LINE
  5
105
  8
OUTLINE
  6
CONTINUOUS
 62
     3
 10
-137.0
 20
0.0
 30
0.0
 11
-137.0
 21
-18.262478999999999
 31
0.0
  0
LINE
  5
106
  8
OUTLINE
  6
CONTINUOUS
 62
     3
 10
-115.5
 20
-24.663540999999999
 30
0.0
 11
-115.5
 21
-33.575690000000002
 31
0.0
  0
LINE
  5
107
  8
OUTLINE
  6
CONTINUOUS
 62
     3
 10
98.500000000000014
 20
0.0
 30
0.0
 11
98.500000000000014
 21
53.0
 31
0.0
  0
LINE
  5
108
  8
OUTLINE
  6
CONTINUOUS
 62
     3
 10
115.5
 20
-24.663540999999999
 30
0.0
 11
115.5
 21
-33.575690000000002
 31
0.0
  0
LINE
  5
109
  8
OUTLINE
  6
CONTINUOUS
 62
     3
 10
132.0
 20
0.0
 30
0.0
 11
137.0
 21
0.0
 31
0.0
  0
LINE
  5
10A
  8
OUTLINE
  6
CONTINUOUS
 62
     3
 10
137.0
 20
0.0
 30
0.0
 11
137.0
 21
-18.262478999999999
 31
0.0
  0
LINE
  5
10B
  8
SIZE
  6
CONTINUOUS
 62
    30
 39
50.0
 10
-210.56993800000001
 20
24.0
 30
0.0
 11
-210.56993800000001
 21
115.66070999999999
 31
0.0
  0
ENDSEC
  0
EOF
