  0
SECTION
  2
HEADER
  9
$ACADVER
  1
AC1009
  9
$INSBASE
 10
0.0
 20
0.0
 30
0.0
  9
$EXTMIN
 10
-358.99241899999998
 20
-186.92505499999999
 30
0.0
  9
$EXTMAX
 10
885.62169256805043
 20
533.3468519999999
 30
0.0
  9
$LIMMIN
 10
-2970.0
 20
-2100.0
  9
$LIMMAX
 10
2970.0
 20
2100.0
  9
$ORTHOMODE
 70
     1
  9
$REGENMODE
 70
     0
  9
$FILLMODE
 70
     1
  9
$QTEXTMODE
 70
     0
  9
$MIRRTEXT
 70
     0
  9
$DRAGMODE
 70
     2
  9
$LTSCALE
 40
20.0
  9
$OSMODE
 70
    41
  9
$ATTMODE
 70
     1
  9
$TEXTSIZE
 40
64.0
  9
$TRACEWID
 40
0.05
  9
$TEXTSTYLE
  7
STANDARD
  9
$CLAYER
  8
SIZE
  9
$CELTYPE
  6
CONTINUOUS
  9
$CECOLOR
 62
    30
  9
$DIMSCALE
 40
1.0
  9
$DIMASZ
 40
12.0
  9
$DIMEXO
 40
20.0
  9
$DIMDLI
 40
200.0
  9
$DIMRND
 40
0.0
  9
$DIMDLE
 40
0.0
  9
$DIMEXE
 40
20.0
  9
$DIMTP
 40
0.0
  9
$DIMTM
 40
0.0
  9
$DIMTXT
 40
64.0
  9
$DIMCEN
 40
0.09
  9
$DIMTSZ
 40
0.0
  9
$DIMTOL
 70
     0
  9
$DIMLIM
 70
     0
  9
$DIMTIH
 70
     0
  9
$DIMTOH
 70
     0
  9
$DIMSE1
 70
     0
  9
$DIMSE2
 70
     0
  9
$DIMTAD
 70
     1
  9
$DIMZIN
 70
     8
  9
$DIMBLK
  1
DOT1
  9
$DIMASO
 70
     1
  9
$DIMSHO
 70
     0
  9
$DIMPOST
  1

  9
$DIMAPOST
  1

  9
$DIMALT
 70
     0
  9
$DIMALTD
 70
     2
  9
$DIMALTF
 40
25.399999999999999
  9
$DIMLFAC
 40
1.0
  9
$DIMTOFL
 70
     1
  9
$DIMTVP
 40
0.0
  9
$DIMTIX
 70
     1
  9
$DIMSOXD
 70
     0
  9
$DIMSAH
 70
     1
  9
$DIMBLK1
  1
ORIGIN
  9
$DIMBLK2
  1
ORIGIN
  9
$DIMSTYLE
  2
STANDARD
  9
$DIMCLRD
 70
     7
  9
$DIMCLRE
 70
     7
  9
$DIMCLRT
 70
     7
  9
$DIMTFAC
 40
1.0
  9
$DIMGAP
 40
25.0
  9
$LUNITS
 70
     2
  9
$LUPREC
 70
     4
  9
$SKETCHINC
 40
0.1
  9
$FILLETRAD
 40
4.0
  9
$AUNITS
 70
     1
  9
$AUPREC
 70
     3
  9
$MENU
  1
ACAD
  9
$ELEVATION
 40
0.0
  9
$PELEVATION
 40
0.0
  9
$THICKNESS
 40
50.0
  9
$LIMCHECK
 70
     0
  9
$BLIPMODE
 70
     0
  9
$CHAMFERA
 40
0.0
  9
$CHAMFERB
 40
0.0
  9
$SKPOLY
 70
     0
  9
$TDCREATE
 40
2452992.7096926379
  9
$TDUPDATE
 40
2453460.3820292591
  9
$TDINDWG
 40
0.0200468519
  9
$TDUSRTIMER
 40
0.0200466782
  9
$USRTIMER
 70
     1
  9
$ANGBASE
 50
0.0
  9
$ANGDIR
 70
     0
  9
$PDMODE
 70
     3
  9
$PDSIZE
 40
-2.0
  9
$PLINEWID
 40
0.0
  9
$COORDS
 70
     2
  9
$SPLFRAME
 70
     0
  9
$SPLINETYPE
 70
     6
  9
$SPLINESEGS
 70
     8
  9
$ATTDIA
 70
     0
  9
$ATTREQ
 70
     1
  9
$HANDLING
 70
 22529
  9
$HANDSEED
  5
18E
  9
$SURFTAB1
 70
     6
  9
$SURFTAB2
 70
     6
  9
$SURFTYPE
 70
     6
  9
$SURFU
 70
     6
  9
$SURFV
 70
     6
  9
$UCSNAME
  2

  9
$UCSORG
 10
0.0
 20
0.0
 30
0.0
  9
$UCSXDIR
 10
1.0
 20
0.0
 30
0.0
  9
$UCSYDIR
 10
0.0
 20
1.0
 30
0.0
  9
$PUCSNAME
  2

  9
$PUCSORG
 10
0.0
 20
0.0
 30
0.0
  9
$PUCSXDIR
 10
1.0
 20
0.0
 30
0.0
  9
$PUCSYDIR
 10
0.0
 20
1.0
 30
0.0
  9
$USERI1
 70
     0
  9
$USERI2
 70
     0
  9
$USERI3
 70
     0
  9
$USERI4
 70
     0
  9
$USERI5
 70
     0
  9
$USERR1
 40
20.0
  9
$USERR2
 40
0.0
  9
$USERR3
 40
0.0
  9
$USERR4
 40
0.0
  9
$USERR5
 40
0.0
  9
$WORLDVIEW
 70
     1
  9
$SHADEDGE
 70
     3
  9
$SHADEDIF
 70
    70
  9
$TILEMODE
 70
     1
  9
$MAXACTVP
 70
    48
  9
$PLIMCHECK
 70
     0
  9
$PEXTMIN
 10
-1.0000000000000000E+020
 20
-1.0000000000000000E+020
 30
-1.0000000000000000E+020
  9
$PEXTMAX
 10
1.0000000000000000E+020
 20
1.0000000000000000E+020
 30
1.0000000000000000E+020
  9
$PLIMMIN
 10
0.0
 20
0.0
  9
$PLIMMAX
 10
12.0
 20
9.0
  9
$UNITMODE
 70
     0
  9
$VISRETAIN
 70
     0
  9
$PLINEGEN
 70
     0
  9
$PSLTSCALE
 70
     0
  0
ENDSEC
  0
SECTION
  2
TABLES
  0
TABLE
  2
VPORT
 70
     5
  0
VPORT
  2
*ACTIVE
 70
     0
 10
0.0
 20
0.0
 11
1.0
 21
1.0
 12
226.49944133822061
 22
122.19216628193119
 13
0.0
 23
0.0
 14
1.0
 24
1.0
 15
0.0
 25
0.0
 16
0.0
 26
0.0
 36
1.0
 17
0.0
 27
0.0
 37
0.0
 40
1032.3152230013959
 41
1.4423558897243101
 42
50.0
 43
0.0
 44
0.0
 50
0.0
 51
0.0
 71
     0
 72
  1000
 73
     1
 74
     0
 75
     0
 76
     0
 77
     0
 78
     0
  0
ENDTAB
  0
TABLE
  2
LTYPE
 70
     2
  0
LTYPE
  2
CONTINUOUS
 70
     0
  3
実線
 72
    65
 73
     0
 40
0.0
  0
LTYPE
  2
DASHDOT
 70
     0
  3
____ _ ____ _ ____ _ ____ _ ____ _ ____ _ ____
 72
    65
 73
     4
 40
5.5
 49
4.0
 49
-0.6
 49
0.3
 49
-0.6
  0
ENDTAB
  0
TABLE
  2
LAYER
 70
    12
  0
LAYER
  2
0
 70
     0
 62
     7
  6
CONTINUOUS
  0
LAYER
  2
SIZE
 70
     0
 62
    30
  6
CONTINUOUS
  0
LAYER
  2
BASIS
 70
     0
 62
     6
  6
DASHDOT
  0
LAYER
  2
OUTLINE
 70
     0
 62
     3
  6
CONTINUOUS
  0
LAYER
  2
DETAIL
 70
     0
 62
     5
  6
CONTINUOUS
  0
LAYER
  2
ARRANGE
 70
     0
 62
     1
  6
CONTINUOUS
  0
LAYER
  2
DEFPOINTS
 70
     0
 62
     7
  6
CONTINUOUS
  0
LAYER
  2
ETC
 70
     0
 62
    61
  6
CONTINUOUS
  0
LAYER
  2
FIX
 70
     0
 62
    11
  6
CONTINUOUS
  0
LAYER
  2
NOTE
 70
     0
 62
     4
  6
CONTINUOUS
  0
LAYER
  2
SERVICESPACE
 70
     0
 62
     2
  6
DASHDOT
  0
LAYER
  2
SYMBOLLINE
 70
     0
 62
    15
  6
CONTINUOUS
  0
ENDTAB
  0
TABLE
  2
STYLE
 70
     1
  0
STYLE
  2
STANDARD
 70
     0
 40
64.0
 41
0.9
 50
0.0
 71
     0
 42
64.0
  3
SIMPLEX.shx
  4
BIGFONT.shx
  0
ENDTAB
  0
TABLE
  2
VIEW
 70
     1
  0
VIEW
  2
ALL
 70
     0
 40
4282.6198079999986
 10
0.0
 20
41.309903999999989
 41
5940.0
 11
0.0
 21
0.0
 31
1.0
 12
0.0
 22
0.0
 32
0.0
 42
50.0
 43
0.0
 44
0.0
 50
0.0
 71
     0
  0
ENDTAB
  0
TABLE
  2
UCS
 70
     0
  0
ENDTAB
  0
TABLE
  2
APPID
 70
     2
  0
APPID
  2
ACAD
 70
     0
  0
APPID
  2
AUTOCAD_POSTSCRIPT_FIGURE
 70
     0
  0
ENDTAB
  0
TABLE
  2
DIMSTYLE
 70
     1
  0
DIMSTYLE
  2
STANDARD
 70
     0
  3

  4

  5

  6

  7

 40
1.0
 41
0.18
 42
0.0625
 43
0.38
 44
0.18
 45
0.0
 46
0.0
 47
0.0
 48
0.0
140
0.18
141
0.09
142
0.0
143
25.399999999999999
144
1.0
145
0.0
146
1.0
147
0.09
 71
     0
 72
     0
 73
     1
 74
     1
 75
     0
 76
     0
 77
     0
 78
     0
170
     0
171
     2
172
     0
173
     0
174
     0
175
     0
176
     7
177
     7
178
     7
  0
ENDTAB
  0
ENDSEC
  0
SECTION
  2
BLOCKS
  0
BLOCK
  8
0
  2
$MODEL_SPACE
 70
     0
 10
0.0
 20
0.0
 30
0.0
  3
$MODEL_SPACE
  1

  0
ENDBLK
  5
20
  8
0
  0
BLOCK
 67
     1
  8
0
  2
$PAPER_SPACE
 70
     0
 10
0.0
 20
0.0
 30
0.0
  3
$PAPER_SPACE
  1

  0
ENDBLK
  5
1C
 67
     1
  8
0
  0
BLOCK
  8
0
  2
DOT1
 70
     0
 10
0.0
 20
0.0
 30
0.0
  3
DOT1
  1

  0
CIRCLE
  5
36
  8
SIZE
  6
CONTINUOUS
 62
     7
 10
0.0
 20
0.0
 30
0.0
 40
3.0
  0
ENDBLK
  5
37
  8
0
  0
BLOCK
  8
0
  2
_ORIGIN
 70
     0
 10
0.0
 20
0.0
 30
0.0
  3
_ORIGIN
  1

  0
CIRCLE
  5
3A
  8
0
  6
CONTINUOUS
 62
     7
 10
0.0
 20
0.0
 30
0.0
 40
0.5
  0
LINE
  5
3B
  8
0
  6
CONTINUOUS
 62
     7
 10
0.0
 20
0.0
 30
0.0
 11
-1.0
 21
0.0
 31
0.0
  0
ENDBLK
  5
3C
  8
0
  0
ENDSEC
  0
SECTION
  2
ENTITIES
  0
ARC
  5
3E
  8
DETAIL
  6
CONTINUOUS
 62
     5
 10
0.0
 20
0.0
 30
0.0
 40
133.73179799999991
 50
180.0
 51
0.0
  0
LINE
  5
3F
  8
DETAIL
  6
CONTINUOUS
 62
     5
 10
-32.863110999999989
 20
-92.856156999999996
 30
0.0
 11
-32.863110999999989
 21
0.016585
 31
0.0
  0
LINE
  5
40
  8
DETAIL
  6
CONTINUOUS
 62
     5
 10
-33.466825
 20
-92.640281000000002
 30
0.0
 11
-33.466825
 21
0.016292
 31
0.0
  0
LINE
  5
41
  8
DETAIL
  6
CONTINUOUS
 62
     5
 10
-54.578194999999987
 20
-81.996771999999993
 30
0.0
 11
-54.578194999999987
 21
-0.056815
 31
0.0
  0
LINE
  5
42
  8
DETAIL
  6
CONTINUOUS
 62
     5
 10
-55.181907999999993
 20
-81.591708999999994
 30
0.0
 11
-55.181907999999993
 21
-0.065731
 31
0.0
  0
LINE
  5
43
  8
DETAIL
  6
CONTINUOUS
 62
     5
 10
-76.896991999999983
 20
-61.555686999999992
 30
0.0
 11
-76.896991999999983
 21
-1.622047999999999
 31
0.0
  0
LINE
  5
44
  8
DETAIL
  6
CONTINUOUS
 62
     5
 10
-76.293278999999984
 20
-62.302371999999998
 30
0.0
 11
-76.293278999999984
 21
-1.5265919999999991
 31
0.0
  0
LINE
  5
45
  8
DETAIL
  6
CONTINUOUS
 62
     5
 10
-65.145251000000002
 20
-0.330282
 30
0.0
 11
-65.145251000000002
 21
-73.880620999999991
 31
0.0
  0
LINE
  5
46
  8
DETAIL
  6
CONTINUOUS
 62
     5
 10
-43.430168000000002
 20
0.008948
 30
0.0
 11
-43.430168000000002
 21
-88.408543000000009
 31
0.0
  0
LINE
  5
47
  8
DETAIL
  6
CONTINUOUS
 62
     5
 10
-11.148028
 20
-97.867110999999994
 30
0.0
 11
-11.148028
 21
0.012541
 31
0.0
  0
LINE
  5
48
  8
DETAIL
  6
CONTINUOUS
 62
     5
 10
-11.751741000000001
 20
-97.796454999999995
 30
0.0
 11
-11.751741000000001
 21
0.013063
 31
0.0
  0
LINE
  5
49
  8
DETAIL
  6
CONTINUOUS
 62
     5
 10
-21.715084000000001
 20
0.01828
 30
0.0
 11
-21.715084000000001
 21
-96.076559000000003
 31
0.0
  0
LINE
  5
4A
  8
DETAIL
  6
CONTINUOUS
 62
     5
 10
0.0
 20
0.0
 30
0.0
 11
-11.148028
 21
0.009673
 31
0.0
  0
LINE
  5
4B
  8
DETAIL
  6
CONTINUOUS
 62
     5
 10
-130.0
 20
0.0
 30
0.0
 11
-135.0
 21
0.0
 31
0.0
  0
LINE
  5
4C
  8
DETAIL
  6
CONTINUOUS
 62
     5
 10
130.0
 20
0.0
 30
0.0
 11
135.0
 21
0.0
 31
0.0
  0
LINE
  5
4D
  8
BASIS
  6
DASHDOT
 62
     6
 10
197.49087199999991
 20
0.0
 30
0.0
 11
-198.37132500000001
 21
0.0
 31
0.0
  0
LINE
  5
4E
  8
BASIS
  6
DASHDOT
 62
     6
 10
0.0
 20
184.127272
 30
0.0
 11
0.0
 21
-186.92505499999999
 31
0.0
  0
POINT
  5
4F
  8
ARRANGE
  6
CONTINUOUS
 62
     1
 10
0.0
 20
0.0
 30
0.0
  0
CIRCLE
  5
50
  8
ARRANGE
  6
CONTINUOUS
 62
     1
 10
0.0
 20
0.0
 30
0.0
 40
40.0
  0
ARC
  5
52
  8
DETAIL
  6
CONTINUOUS
 62
     5
 10
0.0
 20
-5.8723400000000003
 30
0.0
 40
135.12765999999999
 50
177.5092709999999
 51
2.4907289999999991
  0
LINE
  5
53
  8
SIZE
  6
CONTINUOUS
 62
    30
 10
-218.37132500000001
 20
0.0
 30
0.0
 11
-289.99241899999993
 21
0.0
 31
0.0
  0
LINE
  5
54
  8
SIZE
  6
CONTINUOUS
 62
    30
 10
-20.0
 20
-141.0
 30
0.0
 11
-289.99241899999993
 21
-141.0
 31
0.0
  0
LINE
  5
57
  8
SIZE
  6
CONTINUOUS
 62
    30
 10
-269.99241899999993
 20
0.0
 30
0.0
 11
-269.99241899999993
 21
-141.0
 31
0.0
  0
CIRCLE
  5
58
  8
SIZE
  6
CONTINUOUS
 62
    30
 10
-269.99241899999993
 20
0.0
 30
0.0
 40
6.0
  0
CIRCLE
  5
5A
  8
SIZE
  6
CONTINUOUS
 62
    30
 10
-269.99241899999993
 20
-141.0
 30
0.0
 40
6.0
  0
TEXT
  5
5C
  8
SIZE
  6
CONTINUOUS
 62
    30
 10
-294.99241899999993
 20
-126.7285714285714
 30
0.0
 40
64.0
  1
141
 50
90.0
 41
0.9
 72
     1
 11
-294.99241899999993
 21
-70.5
 31
0.0
  0
POINT
  5
5D
  8
DEFPOINTS
  6
CONTINUOUS
 62
    30
 10
-198.37132500000001
 20
0.0
 30
0.0
  0
POINT
  5
5E
  8
DEFPOINTS
  6
CONTINUOUS
 62
    30
 10
0.0
 20
-141.0
 30
0.0
  0
POINT
  5
5F
  8
DEFPOINTS
  6
CONTINUOUS
 62
    30
 10
-269.99241899999993
 20
-141.0
 30
0.0
  0
CIRCLE
  5
60
  8
DETAIL
  6
CONTINUOUS
 62
     5
 10
0.0
 20
0.0
 30
0.0
 40
130.0
  0
LINE
  5
61
  8
SIZE
  6
CONTINUOUS
 62
    30
 10
130.0
 20
20.0
 30
0.0
 11
130.0
 21
348.84256099999999
 31
0.0
  0
LINE
  5
62
  8
SIZE
  6
CONTINUOUS
 62
    30
 10
-130.0
 20
20.0
 30
0.0
 11
-130.0
 21
348.84256099999999
 31
0.0
  0
LINE
  5
63
  8
SIZE
  6
CONTINUOUS
 62
    30
 10
118.0
 20
328.84256099999988
 30
0.0
 11
-118.0
 21
328.84256099999988
 31
0.0
  0
CIRCLE
  5
64
  8
SIZE
  6
CONTINUOUS
 62
    30
 10
130.0
 20
328.84256099999988
 30
0.0
 40
6.0
  0
LINE
  5
65
  8
SIZE
  6
CONTINUOUS
 62
    30
 10
130.0
 20
328.84256099999988
 30
0.0
 11
118.0
 21
328.84256099999988
 31
0.0
  0
CIRCLE
  5
66
  8
SIZE
  6
CONTINUOUS
 62
    30
 10
-130.0
 20
328.84256099999988
 30
0.0
 40
6.0
  0
LINE
  5
67
  8
SIZE
  6
CONTINUOUS
 62
    30
 10
-130.0
 20
328.84256099999988
 30
0.0
 11
-118.0
 21
328.84256099999988
 31
0.0
  0
TEXT
  5
68
  8
SIZE
  6
CONTINUOUS
 62
    30
 10
-114.3771428571428
 20
353.84256099999988
 30
0.0
 40
64.0
  1
φ260
 41
0.9
 72
     1
 11
0.0
 21
353.84256099999988
 31
0.0
  0
POINT
  5
69
  8
DEFPOINTS
  6
CONTINUOUS
 62
    30
 10
130.0
 20
0.0
 30
0.0
  0
POINT
  5
6A
  8
DEFPOINTS
  6
CONTINUOUS
 62
    30
 10
-130.0
 20
0.0
 30
0.0
  0
POINT
  5
6B
  8
DEFPOINTS
  6
CONTINUOUS
 62
    30
 10
-130.0
 20
328.84256099999988
 30
0.0
  0
LINE
  5
6C
  8
SIZE
  6
CONTINUOUS
 62
    30
 10
135.0
 20
20.0
 30
0.0
 11
135.0
 21
464.3468519999999
 31
0.0
  0
LINE
  5
6D
  8
SIZE
  6
CONTINUOUS
 62
    30
 10
-135.0
 20
20.0
 30
0.0
 11
-135.0
 21
464.3468519999999
 31
0.0
  0
LINE
  5
6E
  8
SIZE
  6
CONTINUOUS
 62
    30
 10
123.0
 20
444.3468519999999
 30
0.0
 11
-123.0
 21
444.3468519999999
 31
0.0
  0
CIRCLE
  5
6F
  8
SIZE
  6
CONTINUOUS
 62
    30
 10
135.0
 20
444.3468519999999
 30
0.0
 40
6.0
  0
LINE
  5
70
  8
SIZE
  6
CONTINUOUS
 62
    30
 10
135.0
 20
444.3468519999999
 30
0.0
 11
123.0
 21
444.3468519999999
 31
0.0
  0
CIRCLE
  5
71
  8
SIZE
  6
CONTINUOUS
 62
    30
 10
-135.0
 20
444.3468519999999
 30
0.0
 40
6.0
  0
LINE
  5
72
  8
SIZE
  6
CONTINUOUS
 62
    30
 10
-135.0
 20
444.3468519999999
 30
0.0
 11
-123.0
 21
444.3468519999999
 31
0.0
  0
TEXT
  5
73
  8
SIZE
  6
CONTINUOUS
 62
    30
 10
-74.05714285714285
 20
469.3468519999999
 30
0.0
 40
64.0
  1
270
 41
0.9
 72
     1
 11
0.0
 21
469.3468519999999
 31
0.0
  0
POINT
  5
74
  8
DEFPOINTS
  6
CONTINUOUS
 62
    30
 10
135.0
 20
0.0
 30
0.0
  0
POINT
  5
75
  8
DEFPOINTS
  6
CONTINUOUS
 62
    30
 10
-135.0
 20
0.0
 30
0.0
  0
POINT
  5
76
  8
DEFPOINTS
  6
CONTINUOUS
 62
    30
 10
-135.0
 20
444.3468519999999
 30
0.0
  0
ARC
  5
77
  8
OUTLINE
  6
CONTINUOUS
 62
     3
 10
0.0
 20
0.0
 30
0.0
 40
130.0
 50
0.0
 51
180.0
  0
ARC
  5
78
  8
OUTLINE
  6
CONTINUOUS
 62
     3
 10
0.0
 20
-5.8723400000000003
 30
0.0
 40
135.12765999999999
 50
177.5092709999999
 51
2.4907289999999991
  0
LINE
  5
79
  8
OUTLINE
  6
CONTINUOUS
 62
     3
 10
-130.0
 20
0.0
 30
0.0
 11
-135.0
 21
0.0
 31
0.0
  0
LINE
  5
7A
  8
OUTLINE
  6
CONTINUOUS
 62
     3
 10
130.0
 20
0.0
 30
0.0
 11
135.0
 21
0.0
 31
0.0
  0
LINE
  5
7B
  8
DETAIL
  6
CONTINUOUS
 62
     5
 10
0.0
 20
0.0
 30
0.0
 11
0.0
 21
-98.500000000000014
 31
0.0
  0
LINE
  5
7C
  8
DETAIL
  6
CONTINUOUS
 62
     5
 10
-11.148028
 20
97.867110999999994
 30
0.0
 11
-11.148028
 21
-0.012541
 31
0.0
  0
LINE
  5
7D
  8
DETAIL
  6
CONTINUOUS
 62
     5
 10
-11.751741000000001
 20
97.796454999999995
 30
0.0
 11
-11.751741000000001
 21
-0.013063
 31
0.0
  0
LINE
  5
7E
  8
DETAIL
  6
CONTINUOUS
 62
     5
 10
-21.715084000000001
 20
-0.01828
 30
0.0
 11
-21.715084000000001
 21
96.076559000000003
 31
0.0
  0
LINE
  5
7F
  8
DETAIL
  6
CONTINUOUS
 62
     5
 10
-32.863110999999989
 20
92.856156999999996
 30
0.0
 11
-32.863110999999989
 21
-0.016585
 31
0.0
  0
LINE
  5
80
  8
DETAIL
  6
CONTINUOUS
 62
     5
 10
-33.466825
 20
92.640281000000002
 30
0.0
 11
-33.466825
 21
-0.016292
 31
0.0
  0
LINE
  5
81
  8
DETAIL
  6
CONTINUOUS
 62
     5
 10
-43.430168000000002
 20
-0.008948
 30
0.0
 11
-43.430168000000002
 21
88.408543000000009
 31
0.0
  0
LINE
  5
82
  8
DETAIL
  6
CONTINUOUS
 62
     5
 10
0.0
 20
0.0
 30
0.0
 11
0.0
 21
98.500000000000014
 31
0.0
  0
LINE
  5
83
  8
DETAIL
  6
CONTINUOUS
 62
     5
 10
-65.145251000000002
 20
-0.330282
 30
0.0
 11
-65.145251000000002
 21
73.880620999999991
 31
0.0
  0
LINE
  5
84
  8
DETAIL
  6
CONTINUOUS
 62
     5
 10
-76.896991999999983
 20
61.555686999999992
 30
0.0
 11
-76.896991999999983
 21
-1.640981
 31
0.0
  0
LINE
  5
85
  8
DETAIL
  6
CONTINUOUS
 62
     5
 10
-76.293278999999984
 20
62.302371999999998
 30
0.0
 11
-76.293278999999984
 21
-1.542249999999999
 31
0.0
  0
LINE
  5
86
  8
DETAIL
  6
CONTINUOUS
 62
     5
 10
-54.578194999999987
 20
81.996771999999993
 30
0.0
 11
-54.578194999999987
 21
-0.061251
 31
0.0
  0
LINE
  5
87
  8
DETAIL
  6
CONTINUOUS
 62
     5
 10
-55.181907999999993
 20
81.591708999999994
 30
0.0
 11
-55.181907999999993
 21
-0.06953
 31
0.0
  0
LINE
  5
88
  8
DETAIL
  6
CONTINUOUS
 62
     5
 10
-87.663562999999996
 20
-1.3675360000000001
 30
0.0
 11
-91.211970999999991
 21
-1.9478369999999989
 31
0.0
  0
LINE
  5
89
  8
DETAIL
  6
CONTINUOUS
 62
     5
 10
-91.211970999999991
 20
-1.9478369999999989
 30
0.0
 11
-91.211970999999991
 21
-1.9478369999999989
 31
0.0
  0
LINE
  5
8A
  8
DETAIL
  6
CONTINUOUS
 62
     5
 10
-91.211970999999991
 20
-1.9478369999999989
 30
0.0
 11
-94.450312999999994
 21
-2.6353879999999998
 31
0.0
  0
LINE
  5
8B
  8
DETAIL
  6
CONTINUOUS
 62
     5
 10
-94.450312999999994
 20
-2.6353879999999998
 30
0.0
 11
-97.414385999999993
 21
-3.4322129999999991
 31
0.0
  0
LINE
  5
8C
  8
DETAIL
  6
CONTINUOUS
 62
     5
 10
-97.414385999999993
 20
-3.4322129999999991
 30
0.0
 11
-97.414385999999993
 21
-3.4322129999999991
 31
0.0
  0
LINE
  5
8D
  8
DETAIL
  6
CONTINUOUS
 62
     5
 10
-97.414385999999993
 20
-3.4322129999999991
 30
0.0
 11
-98.357068999999996
 21
-3.7443930000000001
 31
0.0
  0
LINE
  5
8E
  8
DETAIL
  6
CONTINUOUS
 62
     5
 10
-88.714799999999997
 20
-1.3662199999999991
 30
0.0
 11
-92.141777999999988
 21
-1.9478369999999989
 31
0.0
  0
LINE
  5
8F
  8
DETAIL
  6
CONTINUOUS
 62
     5
 10
-92.141777999999988
 20
-1.9478369999999989
 30
0.0
 11
-92.141777999999988
 21
-1.9478369999999989
 31
0.0
  0
LINE
  5
90
  8
DETAIL
  6
CONTINUOUS
 62
     5
 10
-92.141777999999988
 20
-1.9478369999999989
 30
0.0
 11
-95.322840999999997
 21
-2.635740999999999
 31
0.0
  0
LINE
  5
91
  8
DETAIL
  6
CONTINUOUS
 62
     5
 10
-95.322840999999997
 20
-2.635740999999999
 30
0.0
 11
-98.277034
 21
-3.4322129999999991
 31
0.0
  0
LINE
  5
92
  8
DETAIL
  6
CONTINUOUS
 62
     5
 10
-98.277034
 20
-3.4322129999999991
 30
0.0
 11
-98.277034
 21
-3.4322129999999991
 31
0.0
  0
LINE
  5
93
  8
DETAIL
  6
CONTINUOUS
 62
     5
 10
-98.277034
 20
-3.4322129999999991
 30
0.0
 11
-98.368876999999998
 21
-3.46286
 31
0.0
  0
LINE
  5
94
  8
DETAIL
  6
CONTINUOUS
 62
     5
 10
-67.620531
 20
-0.027852
 30
0.0
 11
-71.629372000000004
 21
-0.071761
 31
0.0
  0
LINE
  5
95
  8
DETAIL
  6
CONTINUOUS
 62
     5
 10
-71.629372000000004
 20
-0.071761
 30
0.0
 11
-76.167929000000001
 21
-0.243217
 31
0.0
  0
LINE
  5
96
  8
DETAIL
  6
CONTINUOUS
 62
     5
 10
-76.167929000000001
 20
-0.243217
 30
0.0
 11
-76.167929000000001
 21
-0.243217
 31
0.0
  0
LINE
  5
97
  8
DETAIL
  6
CONTINUOUS
 62
     5
 10
-76.167929000000001
 20
-0.243217
 30
0.0
 11
-80.594261000000003
 21
-0.5153870000000002
 31
0.0
  0
LINE
  5
98
  8
DETAIL
  6
CONTINUOUS
 62
     5
 10
-80.594261000000003
 20
-0.5153870000000002
 30
0.0
 11
-84.891503
 21
-0.8892339999999999
 31
0.0
  0
LINE
  5
99
  8
DETAIL
  6
CONTINUOUS
 62
     5
 10
-84.891503
 20
-0.8892339999999999
 30
0.0
 11
-84.891503
 21
-0.8892339999999999
 31
0.0
  0
LINE
  5
9A
  8
DETAIL
  6
CONTINUOUS
 62
     5
 10
-84.891503
 20
-0.8892339999999999
 30
0.0
 11
-88.714799999999997
 21
-1.3662199999999991
 31
0.0
  0
LINE
  5
9B
  8
DETAIL
  6
CONTINUOUS
 62
     5
 10
-88.714799999999997
 20
-1.3662199999999991
 30
0.0
 11
-88.731900999999993
 21
-1.3691219999999991
 31
0.0
  0
LINE
  5
9C
  8
DETAIL
  6
CONTINUOUS
 62
     5
 10
-67.620531
 20
-0.06953
 30
0.0
 11
-69.101756000000009
 21
-0.089842
 31
0.0
  0
LINE
  5
9D
  8
DETAIL
  6
CONTINUOUS
 62
     5
 10
-69.101756000000009
 20
-0.089842
 30
0.0
 11
-75.001167000000009
 21
-0.243217
 31
0.0
  0
LINE
  5
9E
  8
DETAIL
  6
CONTINUOUS
 62
     5
 10
-75.001167000000009
 20
-0.243217
 30
0.0
 11
-75.001167000000009
 21
-0.243217
 31
0.0
  0
LINE
  5
9F
  8
DETAIL
  6
CONTINUOUS
 62
     5
 10
-75.001167000000009
 20
-0.243217
 30
0.0
 11
-79.800510000000003
 21
-0.510474
 31
0.0
  0
LINE
  5
A0
  8
DETAIL
  6
CONTINUOUS
 62
     5
 10
-79.800510000000003
 20
-0.510474
 30
0.0
 11
-83.867378999999985
 21
-0.8892339999999999
 31
0.0
  0
LINE
  5
A1
  8
DETAIL
  6
CONTINUOUS
 62
     5
 10
-83.867378999999985
 20
-0.8892339999999999
 30
0.0
 11
-83.867378999999985
 21
-0.8892339999999999
 31
0.0
  0
LINE
  5
A2
  8
DETAIL
  6
CONTINUOUS
 62
     5
 10
-83.867378999999985
 20
-0.8892339999999999
 30
0.0
 11
-87.663562999999996
 21
-1.3675360000000001
 31
0.0
  0
LINE
  5
A3
  8
DETAIL
  6
CONTINUOUS
 62
     5
 10
-87.663562999999996
 20
-1.3675360000000001
 30
0.0
 11
-88.731900999999993
 21
-1.542249999999999
 31
0.0
  0
LINE
  5
A4
  8
DETAIL
  6
CONTINUOUS
 62
     5
 10
-11.751741000000001
 20
0.010197
 30
0.0
 11
-20.845876000000001
 21
0.018088
 31
0.0
  0
LINE
  5
A5
  8
DETAIL
  6
CONTINUOUS
 62
     5
 10
-20.845876000000001
 20
0.018088
 30
0.0
 11
-32.863110999999989
 21
0.011011
 31
0.0
  0
LINE
  5
A6
  8
DETAIL
  6
CONTINUOUS
 62
     5
 10
-33.466825
 20
0.010655
 30
0.0
 11
-51.561015000000012
 21
0.0
 31
0.0
  0
LINE
  5
A7
  8
DETAIL
  6
CONTINUOUS
 62
     5
 10
-51.561015000000012
 20
0.0
 30
0.0
 11
-51.561015000000012
 21
0.0
 31
0.0
  0
LINE
  5
A8
  8
DETAIL
  6
CONTINUOUS
 62
     5
 10
-51.561015000000012
 20
0.0
 30
0.0
 11
-52.19630999999999
 21
-0.000846
 31
0.0
  0
LINE
  5
A9
  8
DETAIL
  6
CONTINUOUS
 62
     5
 10
-52.19630999999999
 20
-0.000846
 30
0.0
 11
-52.822403000000001
 21
-0.002008
 31
0.0
  0
LINE
  5
AA
  8
DETAIL
  6
CONTINUOUS
 62
     5
 10
-52.822403000000001
 20
-0.002008
 30
0.0
 11
-52.822403000000001
 21
-0.002008
 31
0.0
  0
LINE
  5
AB
  8
DETAIL
  6
CONTINUOUS
 62
     5
 10
-52.822403000000001
 20
-0.002008
 30
0.0
 11
-54.578194999999987
 21
-0.021239
 31
0.0
  0
LINE
  5
AC
  8
DETAIL
  6
CONTINUOUS
 62
     5
 10
0.0
 20
0.0
 30
0.0
 11
11.148028
 21
0.009673
 31
0.0
  0
LINE
  5
AD
  8
SIZE
  6
CONTINUOUS
 62
    30
 10
98.500000000000014
 20
20.0
 30
0.0
 11
98.500000000000014
 21
232.38974400000001
 31
0.0
  0
LINE
  5
AE
  8
SIZE
  6
CONTINUOUS
 62
    30
 10
-98.500000000000014
 20
20.0
 30
0.0
 11
-98.500000000000014
 21
232.38974400000001
 31
0.0
  0
LINE
  5
B1
  8
SIZE
  6
CONTINUOUS
 62
    30
 10
98.500000000000014
 20
212.38974399999989
 30
0.0
 11
-98.500000000000014
 21
212.38974399999989
 31
0.0
  0
CIRCLE
  5
B2
  8
SIZE
  6
CONTINUOUS
 62
    30
 10
98.500000000000014
 20
212.38974399999989
 30
0.0
 40
6.0
  0
CIRCLE
  5
B4
  8
SIZE
  6
CONTINUOUS
 62
    30
 10
-98.500000000000014
 20
212.38974399999989
 30
0.0
 40
6.0
  0
TEXT
  5
B6
  8
SIZE
  6
CONTINUOUS
 62
    30
 10
-108.89142857142851
 20
237.38974399999989
 30
0.0
 40
64.0
  1
φ197
 41
0.9
 72
     1
 11
0.0
 21
237.38974399999989
 31
0.0
  0
POINT
  5
B7
  8
DEFPOINTS
  6
CONTINUOUS
 62
    30
 10
98.500000000000014
 20
0.0
 30
0.0
  0
POINT
  5
B8
  8
DEFPOINTS
  6
CONTINUOUS
 62
    30
 10
-98.500000000000014
 20
0.0
 30
0.0
  0
POINT
  5
B9
  8
DEFPOINTS
  6
CONTINUOUS
 62
    30
 10
-98.500000000000014
 20
212.38974399999989
 30
0.0
  0
CIRCLE
  5
BA
  8
DETAIL
  6
CONTINUOUS
 62
     5
 10
0.0
 20
0.0
 30
0.0
 40
98.500000000000014
  0
LINE
  5
BB
  8
DETAIL
  6
CONTINUOUS
 62
     5
 10
-86.860334999999978
 20
-0.6133390000000001
 30
0.0
 11
-86.860334999999978
 21
-46.449243000000003
 31
0.0
  0
LINE
  5
BC
  8
DETAIL
  6
CONTINUOUS
 62
     5
 10
-86.860334999999978
 20
-0.6133390000000001
 30
0.0
 11
-86.860334999999978
 21
46.449243000000003
 31
0.0
  0
LINE
  5
BD
  8
DETAIL
  6
CONTINUOUS
 62
     5
 10
-98.008363000000003
 20
-9.8290810000000004
 30
0.0
 11
-98.008363000000003
 21
-2.7573400000000001
 31
0.0
  0
LINE
  5
BE
  8
DETAIL
  6
CONTINUOUS
 62
     5
 10
-98.008363000000003
 20
9.8290810000000004
 30
0.0
 11
-98.008363000000003
 21
-2.772997999999999
 31
0.0
  0
LINE
  5
BF
  8
DETAIL
  6
CONTINUOUS
 62
     5
 10
-54.578194999999987
 20
-0.056815
 30
0.0
 11
-67.620531
 21
-0.06953
 31
0.0
  0
LINE
  5
C0
  8
DETAIL
  6
CONTINUOUS
 62
     5
 10
0.0
 20
0.0
 30
0.0
 11
-11.148028
 21
0.009673
 31
0.0
  0
LINE
  5
C1
  8
DETAIL
  6
CONTINUOUS
 62
     5
 10
76.896991999999983
 20
61.555686999999992
 30
0.0
 11
76.896991999999983
 21
-1.640981
 31
0.0
  0
LINE
  5
C2
  8
DETAIL
  6
CONTINUOUS
 62
     5
 10
76.293278999999984
 20
62.302371999999998
 30
0.0
 11
76.293278999999984
 21
-1.542249999999999
 31
0.0
  0
LINE
  5
C3
  8
DETAIL
  6
CONTINUOUS
 62
     5
 10
11.148028
 20
-97.867110999999994
 30
0.0
 11
11.148028
 21
0.012541
 31
0.0
  0
LINE
  5
C4
  8
DETAIL
  6
CONTINUOUS
 62
     5
 10
11.751741000000001
 20
-97.796454999999995
 30
0.0
 11
11.751741000000001
 21
0.013063
 31
0.0
  0
LINE
  5
C5
  8
DETAIL
  6
CONTINUOUS
 62
     5
 10
21.715084000000001
 20
0.01828
 30
0.0
 11
21.715084000000001
 21
-96.076559000000003
 31
0.0
  0
LINE
  5
C6
  8
DETAIL
  6
CONTINUOUS
 62
     5
 10
32.863110999999989
 20
-92.856156999999996
 30
0.0
 11
32.863110999999989
 21
0.016585
 31
0.0
  0
LINE
  5
C7
  8
DETAIL
  6
CONTINUOUS
 62
     5
 10
33.466825
 20
-92.640281000000002
 30
0.0
 11
33.466825
 21
0.016292
 31
0.0
  0
LINE
  5
C8
  8
DETAIL
  6
CONTINUOUS
 62
     5
 10
43.430168000000002
 20
0.008948
 30
0.0
 11
43.430168000000002
 21
-88.408543000000009
 31
0.0
  0
LINE
  5
C9
  8
DETAIL
  6
CONTINUOUS
 62
     5
 10
86.860334999999978
 20
-0.6133390000000001
 30
0.0
 11
86.860334999999978
 21
46.449243000000003
 31
0.0
  0
LINE
  5
CA
  8
DETAIL
  6
CONTINUOUS
 62
     5
 10
33.466825
 20
0.010655
 30
0.0
 11
51.561015000000012
 21
0.0
 31
0.0
  0
LINE
  5
CB
  8
DETAIL
  6
CONTINUOUS
 62
     5
 10
51.561015000000012
 20
0.0
 30
0.0
 11
51.561015000000012
 21
0.0
 31
0.0
  0
LINE
  5
CC
  8
DETAIL
  6
CONTINUOUS
 62
     5
 10
51.561015000000012
 20
0.0
 30
0.0
 11
52.19630999999999
 21
-0.000846
 31
0.0
  0
LINE
  5
CD
  8
DETAIL
  6
CONTINUOUS
 62
     5
 10
52.19630999999999
 20
-0.000846
 30
0.0
 11
52.822403000000001
 21
-0.002008
 31
0.0
  0
LINE
  5
CE
  8
DETAIL
  6
CONTINUOUS
 62
     5
 10
52.822403000000001
 20
-0.002008
 30
0.0
 11
52.822403000000001
 21
-0.002008
 31
0.0
  0
LINE
  5
CF
  8
DETAIL
  6
CONTINUOUS
 62
     5
 10
52.822403000000001
 20
-0.002008
 30
0.0
 11
54.578194999999987
 21
-0.021239
 31
0.0
  0
LINE
  5
D0
  8
DETAIL
  6
CONTINUOUS
 62
     5
 10
0.0
 20
0.0
 30
0.0
 11
11.148028
 21
0.009673
 31
0.0
  0
LINE
  5
D1
  8
DETAIL
  6
CONTINUOUS
 62
     5
 10
0.0
 20
0.0
 30
0.0
 11
0.0
 21
-98.500000000000014
 31
0.0
  0
LINE
  5
D2
  8
DETAIL
  6
CONTINUOUS
 62
     5
 10
54.578194999999987
 20
-0.056815
 30
0.0
 11
67.620531
 21
-0.06953
 31
0.0
  0
LINE
  5
D3
  8
DETAIL
  6
CONTINUOUS
 62
     5
 10
65.145251000000002
 20
-0.330282
 30
0.0
 11
65.145251000000002
 21
-73.880620999999991
 31
0.0
  0
LINE
  5
D4
  8
DETAIL
  6
CONTINUOUS
 62
     5
 10
76.293278999999984
 20
-62.302371999999998
 30
0.0
 11
76.293278999999984
 21
-1.5265919999999991
 31
0.0
  0
LINE
  5
D5
  8
DETAIL
  6
CONTINUOUS
 62
     5
 10
76.896991999999983
 20
-61.555686999999992
 30
0.0
 11
76.896991999999983
 21
-1.622047999999999
 31
0.0
  0
LINE
  5
D6
  8
DETAIL
  6
CONTINUOUS
 62
     5
 10
86.860334999999978
 20
-0.6133390000000001
 30
0.0
 11
86.860334999999978
 21
-46.449243000000003
 31
0.0
  0
LINE
  5
D7
  8
DETAIL
  6
CONTINUOUS
 62
     5
 10
67.620531
 20
-0.027852
 30
0.0
 11
71.629372000000004
 21
-0.071761
 31
0.0
  0
LINE
  5
D8
  8
DETAIL
  6
CONTINUOUS
 62
     5
 10
71.629372000000004
 20
-0.071761
 30
0.0
 11
76.167929000000001
 21
-0.243217
 31
0.0
  0
LINE
  5
D9
  8
DETAIL
  6
CONTINUOUS
 62
     5
 10
76.167929000000001
 20
-0.243217
 30
0.0
 11
76.167929000000001
 21
-0.243217
 31
0.0
  0
LINE
  5
DA
  8
DETAIL
  6
CONTINUOUS
 62
     5
 10
76.167929000000001
 20
-0.243217
 30
0.0
 11
80.594261000000003
 21
-0.5153870000000002
 31
0.0
  0
LINE
  5
DB
  8
DETAIL
  6
CONTINUOUS
 62
     5
 10
80.594261000000003
 20
-0.5153870000000002
 30
0.0
 11
84.891503
 21
-0.8892339999999999
 31
0.0
  0
LINE
  5
DC
  8
DETAIL
  6
CONTINUOUS
 62
     5
 10
84.891503
 20
-0.8892339999999999
 30
0.0
 11
84.891503
 21
-0.8892339999999999
 31
0.0
  0
LINE
  5
DD
  8
DETAIL
  6
CONTINUOUS
 62
     5
 10
84.891503
 20
-0.8892339999999999
 30
0.0
 11
88.714799999999997
 21
-1.3662199999999991
 31
0.0
  0
LINE
  5
DE
  8
DETAIL
  6
CONTINUOUS
 62
     5
 10
88.714799999999997
 20
-1.3662199999999991
 30
0.0
 11
88.731900999999993
 21
-1.3691219999999991
 31
0.0
  0
LINE
  5
DF
  8
DETAIL
  6
CONTINUOUS
 62
     5
 10
67.620531
 20
-0.06953
 30
0.0
 11
69.101756000000009
 21
-0.089842
 31
0.0
  0
LINE
  5
E0
  8
DETAIL
  6
CONTINUOUS
 62
     5
 10
69.101756000000009
 20
-0.089842
 30
0.0
 11
75.001167000000009
 21
-0.243217
 31
0.0
  0
LINE
  5
E1
  8
DETAIL
  6
CONTINUOUS
 62
     5
 10
75.001167000000009
 20
-0.243217
 30
0.0
 11
75.001167000000009
 21
-0.243217
 31
0.0
  0
LINE
  5
E2
  8
DETAIL
  6
CONTINUOUS
 62
     5
 10
75.001167000000009
 20
-0.243217
 30
0.0
 11
79.800510000000003
 21
-0.510474
 31
0.0
  0
LINE
  5
E3
  8
DETAIL
  6
CONTINUOUS
 62
     5
 10
79.800510000000003
 20
-0.510474
 30
0.0
 11
83.867378999999985
 21
-0.8892339999999999
 31
0.0
  0
LINE
  5
E4
  8
DETAIL
  6
CONTINUOUS
 62
     5
 10
83.867378999999985
 20
-0.8892339999999999
 30
0.0
 11
83.867378999999985
 21
-0.8892339999999999
 31
0.0
  0
LINE
  5
E5
  8
DETAIL
  6
CONTINUOUS
 62
     5
 10
83.867378999999985
 20
-0.8892339999999999
 30
0.0
 11
87.663562999999996
 21
-1.3675360000000001
 31
0.0
  0
LINE
  5
E6
  8
DETAIL
  6
CONTINUOUS
 62
     5
 10
87.663562999999996
 20
-1.3675360000000001
 30
0.0
 11
88.731900999999993
 21
-1.542249999999999
 31
0.0
  0
LINE
  5
E7
  8
DETAIL
  6
CONTINUOUS
 62
     5
 10
54.578194999999987
 20
-81.996771999999993
 30
0.0
 11
54.578194999999987
 21
-0.056815
 31
0.0
  0
LINE
  5
E8
  8
DETAIL
  6
CONTINUOUS
 62
     5
 10
55.181907999999993
 20
-81.591708999999994
 30
0.0
 11
55.181907999999993
 21
-0.065731
 31
0.0
  0
LINE
  5
E9
  8
DETAIL
  6
CONTINUOUS
 62
     5
 10
11.751741000000001
 20
0.010197
 30
0.0
 11
20.845876000000001
 21
0.018088
 31
0.0
  0
LINE
  5
EA
  8
DETAIL
  6
CONTINUOUS
 62
     5
 10
20.845876000000001
 20
0.018088
 30
0.0
 11
32.863110999999989
 21
0.011011
 31
0.0
  0
LINE
  5
EB
  8
DETAIL
  6
CONTINUOUS
 62
     5
 10
0.0
 20
0.0
 30
0.0
 11
0.0
 21
98.500000000000014
 31
0.0
  0
LINE
  5
EC
  8
DETAIL
  6
CONTINUOUS
 62
     5
 10
11.148028
 20
97.867110999999994
 30
0.0
 11
11.148028
 21
-0.012541
 31
0.0
  0
LINE
  5
ED
  8
DETAIL
  6
CONTINUOUS
 62
     5
 10
11.751741000000001
 20
97.796454999999995
 30
0.0
 11
11.751741000000001
 21
-0.013063
 31
0.0
  0
LINE
  5
EE
  8
DETAIL
  6
CONTINUOUS
 62
     5
 10
21.715084000000001
 20
-0.01828
 30
0.0
 11
21.715084000000001
 21
96.076559000000003
 31
0.0
  0
LINE
  5
EF
  8
DETAIL
  6
CONTINUOUS
 62
     5
 10
32.863110999999989
 20
92.856156999999996
 30
0.0
 11
32.863110999999989
 21
-0.016585
 31
0.0
  0
LINE
  5
F0
  8
DETAIL
  6
CONTINUOUS
 62
     5
 10
33.466825
 20
92.640281000000002
 30
0.0
 11
33.466825
 21
-0.016292
 31
0.0
  0
LINE
  5
F1
  8
DETAIL
  6
CONTINUOUS
 62
     5
 10
43.430168000000002
 20
-0.008948
 30
0.0
 11
43.430168000000002
 21
88.408543000000009
 31
0.0
  0
LINE
  5
F2
  8
DETAIL
  6
CONTINUOUS
 62
     5
 10
54.578194999999987
 20
81.996771999999993
 30
0.0
 11
54.578194999999987
 21
-0.061251
 31
0.0
  0
LINE
  5
F3
  8
DETAIL
  6
CONTINUOUS
 62
     5
 10
55.181907999999993
 20
81.591708999999994
 30
0.0
 11
55.181907999999993
 21
-0.06953
 31
0.0
  0
LINE
  5
F4
  8
DETAIL
  6
CONTINUOUS
 62
     5
 10
65.145251000000002
 20
-0.330282
 30
0.0
 11
65.145251000000002
 21
73.880620999999991
 31
0.0
  0
LINE
  5
F5
  8
DETAIL
  6
CONTINUOUS
 62
     5
 10
98.008363000000003
 20
9.8290810000000004
 30
0.0
 11
98.008363000000003
 21
-2.772997999999999
 31
0.0
  0
LINE
  5
F6
  8
DETAIL
  6
CONTINUOUS
 62
     5
 10
98.008363000000003
 20
-9.8290810000000004
 30
0.0
 11
98.008363000000003
 21
-2.7573400000000001
 31
0.0
  0
LINE
  5
F7
  8
DETAIL
  6
CONTINUOUS
 62
     5
 10
88.714799999999997
 20
-1.3662199999999991
 30
0.0
 11
92.141777999999988
 21
-1.9478369999999989
 31
0.0
  0
LINE
  5
F8
  8
DETAIL
  6
CONTINUOUS
 62
     5
 10
92.141777999999988
 20
-1.9478369999999989
 30
0.0
 11
92.141777999999988
 21
-1.9478369999999989
 31
0.0
  0
LINE
  5
F9
  8
DETAIL
  6
CONTINUOUS
 62
     5
 10
92.141777999999988
 20
-1.9478369999999989
 30
0.0
 11
95.322840999999997
 21
-2.635740999999999
 31
0.0
  0
LINE
  5
FA
  8
DETAIL
  6
CONTINUOUS
 62
     5
 10
95.322840999999997
 20
-2.635740999999999
 30
0.0
 11
98.277034
 21
-3.4322129999999991
 31
0.0
  0
LINE
  5
FB
  8
DETAIL
  6
CONTINUOUS
 62
     5
 10
98.277034
 20
-3.4322129999999991
 30
0.0
 11
98.277034
 21
-3.4322129999999991
 31
0.0
  0
LINE
  5
FC
  8
DETAIL
  6
CONTINUOUS
 62
     5
 10
98.277034
 20
-3.4322129999999991
 30
0.0
 11
98.368876999999998
 21
-3.46286
 31
0.0
  0
LINE
  5
FD
  8
DETAIL
  6
CONTINUOUS
 62
     5
 10
87.663562999999996
 20
-1.3675360000000001
 30
0.0
 11
91.211970999999991
 21
-1.9478369999999989
 31
0.0
  0
LINE
  5
FE
  8
DETAIL
  6
CONTINUOUS
 62
     5
 10
91.211970999999991
 20
-1.9478369999999989
 30
0.0
 11
91.211970999999991
 21
-1.9478369999999989
 31
0.0
  0
LINE
  5
FF
  8
DETAIL
  6
CONTINUOUS
 62
     5
 10
91.211970999999991
 20
-1.9478369999999989
 30
0.0
 11
94.450312999999994
 21
-2.6353879999999998
 31
0.0
  0
LINE
  5
100
  8
DETAIL
  6
CONTINUOUS
 62
     5
 10
94.450312999999994
 20
-2.6353879999999998
 30
0.0
 11
97.414385999999993
 21
-3.4322129999999991
 31
0.0
  0
LINE
  5
101
  8
DETAIL
  6
CONTINUOUS
 62
     5
 10
97.414385999999993
 20
-3.4322129999999991
 30
0.0
 11
97.414385999999993
 21
-3.4322129999999991
 31
0.0
  0
LINE
  5
102
  8
DETAIL
  6
CONTINUOUS
 62
     5
 10
97.414385999999993
 20
-3.4322129999999991
 30
0.0
 11
98.357068999999996
 21
-3.7443930000000001
 31
0.0
  0
TEXT
  5
10B
  8
ETC
  6
CONTINUOUS
 62
    61
 10
265.73597828233568
 20
444.03353296401531
 30
0.0
 40
64.0
  1
P-23KFSQ5_3
 41
0.9
  0
TEXT
  5
10C
  8
ETC
  6
CONTINUOUS
 62
    61
 10
257.90479728233572
 20
346.38342496401509
 30
0.0
 40
64.0
  1
システム部材
 41
0.9
  0
TEXT
  5
10D
  8
ETC
  6
CONTINUOUS
 62
    61
 10
371.47787553791181
 20
257.18858217357371
 30
0.0
 40
50.0
  1
P-23KFSQ5
 41
0.9
  0
ENDSEC
  0
EOF
