  0
SECTION
  2
HEADER
  9
$ACADVER
  1
AC1009
  9
$INSBASE
 10
0.0
 20
0.0
 30
0.0
  9
$EXTMIN
 10
-357.99540699999989
 20
-326.69026200000002
 30
0.0
  9
$EXTMAX
 10
822.44825811245767
 20
464.06337504669079
 30
0.0
  9
$LIMMIN
 10
-4200.0
 20
-2970.0
  9
$LIMMAX
 10
4200.0
 20
2970.0
  9
$ORTHOMODE
 70
     1
  9
$REGENMODE
 70
     0
  9
$FILLMODE
 70
     1
  9
$QTEXTMODE
 70
     0
  9
$MIRRTEXT
 70
     0
  9
$DRAGMODE
 70
     2
  9
$LTSCALE
 40
20.0
  9
$OSMODE
 70
    37
  9
$ATTMODE
 70
     1
  9
$TEXTSIZE
 40
64.0
  9
$TRACEWID
 40
0.05
  9
$TEXTSTYLE
  7
STANDARD
  9
$CLAYER
  8
SIZE
  9
$CELTYPE
  6
CONTINUOUS
  9
$CECOLOR
 62
    30
  9
$DIMSCALE
 40
1.0
  9
$DIMASZ
 40
2.0
  9
$DIMEXO
 40
20.0
  9
$DIMDLI
 40
200.0
  9
$DIMRND
 40
0.0
  9
$DIMDLE
 40
0.0
  9
$DIMEXE
 40
30.0
  9
$DIMTP
 40
0.0
  9
$DIMTM
 40
0.0
  9
$DIMTXT
 40
64.0
  9
$DIMCEN
 40
0.09
  9
$DIMTSZ
 40
0.0
  9
$DIMTOL
 70
     0
  9
$DIMLIM
 70
     0
  9
$DIMTIH
 70
     0
  9
$DIMTOH
 70
     0
  9
$DIMSE1
 70
     0
  9
$DIMSE2
 70
     0
  9
$DIMTAD
 70
     1
  9
$DIMZIN
 70
     8
  9
$DIMBLK
  1

  9
$DIMASO
 70
     1
  9
$DIMSHO
 70
     0
  9
$DIMPOST
  1

  9
$DIMAPOST
  1

  9
$DIMALT
 70
     0
  9
$DIMALTD
 70
     2
  9
$DIMALTF
 40
25.399999999999999
  9
$DIMLFAC
 40
1.0
  9
$DIMTOFL
 70
     1
  9
$DIMTVP
 40
0.0
  9
$DIMTIX
 70
     1
  9
$DIMSOXD
 70
     0
  9
$DIMSAH
 70
     0
  9
$DIMBLK1
  1

  9
$DIMBLK2
  1

  9
$DIMSTYLE
  2
STANDARD
  9
$DIMCLRD
 70
     0
  9
$DIMCLRE
 70
     0
  9
$DIMCLRT
 70
     0
  9
$DIMTFAC
 40
1.0
  9
$DIMGAP
 40
0.09
  9
$LUNITS
 70
     2
  9
$LUPREC
 70
     4
  9
$SKETCHINC
 40
0.1
  9
$FILLETRAD
 40
0.9724
  9
$AUNITS
 70
     1
  9
$AUPREC
 70
     3
  9
$MENU
  1
ACAD
  9
$ELEVATION
 40
0.0
  9
$PELEVATION
 40
0.0
  9
$THICKNESS
 40
0.0
  9
$LIMCHECK
 70
     1
  9
$BLIPMODE
 70
     0
  9
$CHAMFERA
 40
0.0
  9
$CHAMFERB
 40
0.0
  9
$SKPOLY
 70
     0
  9
$TDCREATE
 40
2451794.6491435179
  9
$TDUPDATE
 40
2454812.3995557758
  9
$TDINDWG
 40
0.0020484259
  9
$TDUSRTIMER
 40
0.0020484259
  9
$USRTIMER
 70
     1
  9
$ANGBASE
 50
0.0
  9
$ANGDIR
 70
     0
  9
$PDMODE
 70
     3
  9
$PDSIZE
 40
-2.0
  9
$PLINEWID
 40
0.0
  9
$COORDS
 70
     0
  9
$SPLFRAME
 70
     0
  9
$SPLINETYPE
 70
     6
  9
$SPLINESEGS
 70
     8
  9
$ATTDIA
 70
     0
  9
$ATTREQ
 70
     1
  9
$HANDLING
 70
     1
  9
$HANDSEED
  5
1AC
  9
$SURFTAB1
 70
     6
  9
$SURFTAB2
 70
     6
  9
$SURFTYPE
 70
     6
  9
$SURFU
 70
     6
  9
$SURFV
 70
     6
  9
$UCSNAME
  2

  9
$UCSORG
 10
0.0
 20
0.0
 30
0.0
  9
$UCSXDIR
 10
1.0
 20
0.0
 30
0.0
  9
$UCSYDIR
 10
0.0
 20
1.0
 30
0.0
  9
$PUCSNAME
  2

  9
$PUCSORG
 10
0.0
 20
0.0
 30
0.0
  9
$PUCSXDIR
 10
1.0
 20
0.0
 30
0.0
  9
$PUCSYDIR
 10
0.0
 20
1.0
 30
0.0
  9
$USERI1
 70
     0
  9
$USERI2
 70
     0
  9
$USERI3
 70
     0
  9
$USERI4
 70
     0
  9
$USERI5
 70
     0
  9
$USERR1
 40
20.0
  9
$USERR2
 40
0.0
  9
$USERR3
 40
0.0
  9
$USERR4
 40
0.0
  9
$USERR5
 40
0.0
  9
$WORLDVIEW
 70
     1
  9
$SHADEDGE
 70
     3
  9
$SHADEDIF
 70
    70
  9
$TILEMODE
 70
     1
  9
$MAXACTVP
 70
    64
  9
$PLIMCHECK
 70
     0
  9
$PEXTMIN
 10
1.0000000000000000E+020
 20
1.0000000000000000E+020
 30
1.0000000000000000E+020
  9
$PEXTMAX
 10
-1.0000000000000000E+020
 20
-1.0000000000000000E+020
 30
-1.0000000000000000E+020
  9
$PLIMMIN
 10
0.0
 20
0.0
  9
$PLIMMAX
 10
12.0
 20
9.0
  9
$UNITMODE
 70
     0
  9
$VISRETAIN
 70
     1
  9
$PLINEGEN
 70
     0
  9
$PSLTSCALE
 70
     1
  0
ENDSEC
  0
SECTION
  2
TABLES
  0
TABLE
  2
VPORT
 70
     1
  0
VPORT
  2
*ACTIVE
 70
     0
 10
0.0
 20
0.0
 11
1.0
 21
1.0
 12
313.77595094011667
 22
59.128716256701857
 13
0.0
 23
0.0
 14
400.0
 24
400.0
 15
400.0
 25
400.0
 16
0.0
 26
0.0
 36
1.0
 17
0.0
 27
0.0
 37
0.0
 40
1078.684836660972
 41
1.3098995695839311
 42
50.0
 43
0.0
 44
0.0
 50
0.0
 51
0.0
 71
     0
 72
   500
 73
     1
 74
     0
 75
     0
 76
     0
 77
     0
 78
     0
  0
ENDTAB
  0
TABLE
  2
LTYPE
 70
     7
  0
LTYPE
  2
CONTINUOUS
 70
     0
  3
実線
 72
    65
 73
     0
 40
0.0
  0
LTYPE
  2
DOT
 70
     0
  3
...............................................
 72
    65
 73
     2
 40
0.8
 49
0.5
 49
-0.3
  0
LTYPE
  2
DASHED
 70
     0
  3
_ _ _ _ _ _ _ _ _ _ _ _ _ _ _ _ _ _ _ _ _ _ _
 72
    65
 73
     2
 40
2.0
 49
1.1999999999999991
 49
-0.8
  0
LTYPE
  2
DASHDOT
 70
     0
  3
____ _ ____ _ ____ _ ____ _ ____ _ ____ _ ____
 72
    65
 73
     4
 40
5.5
 49
4.0
 49
-0.6
 49
0.3
 49
-0.6
  0
LTYPE
  2
DASHDOT1
 70
     0
  3
____ _ ____ _ ____ _ ____ _ ____ _ ____ _ ____
 72
    65
 73
     4
 40
2.0
 49
1.5
 49
-0.2
 49
0.1
 49
-0.2
  0
LTYPE
  2
DIVIDE
 70
     0
  3
_____ _ _ _____ _ _ _____ _ _ _____ _ _ ____
 72
    65
 73
     6
 40
6.4000000000000004
 49
4.0
 49
-0.6
 49
0.3
 49
-0.6
 49
0.3
 49
-0.6
  0
LTYPE
  2
DIVIDE1
 70
     0
  3
_____ _ _ _____ _ _ _____ _ _ _____ _ _ ____
 72
    65
 73
     6
 40
3.2000000000000002
 49
2.0
 49
-0.3
 49
0.15
 49
-0.3
 49
0.15
 49
-0.3
  0
ENDTAB
  0
TABLE
  2
LAYER
 70
    12
  0
LAYER
  2
0
 70
     0
 62
     7
  6
CONTINUOUS
  0
LAYER
  2
SIZE
 70
     0
 62
    30
  6
CONTINUOUS
  0
LAYER
  2
OUTLINE
 70
     0
 62
     3
  6
CONTINUOUS
  0
LAYER
  2
DETAIL
 70
     0
 62
     5
  6
CONTINUOUS
  0
LAYER
  2
BASIS
 70
     0
 62
     6
  6
DASHDOT
  0
LAYER
  2
ARRANGE
 70
     0
 62
     1
  6
CONTINUOUS
  0
LAYER
  2
DEFPOINTS
 70
     0
 62
     7
  6
CONTINUOUS
  0
LAYER
  2
ETC
 70
     0
 62
    61
  6
CONTINUOUS
  0
LAYER
  2
NOTE
 70
     0
 62
     4
  6
CONTINUOUS
  0
LAYER
  2
FIX
 70
     0
 62
    11
  6
CONTINUOUS
  0
LAYER
  2
SERVICESPACE
 70
     0
 62
     2
  6
DASHDOT
  0
LAYER
  2
SYMBOLLINE
 70
     0
 62
    15
  6
CONTINUOUS
  0
ENDTAB
  0
TABLE
  2
STYLE
 70
     2
  0
STYLE
  2
STANDARD
 70
     0
 40
0.0
 41
0.9
 50
0.0
 71
     0
 42
64.0
  3
SIMPLEX
  4
BIGFONT
  0
STYLE
  2
ANNOTATIVE
 70
     0
 40
0.0
 41
1.0
 50
0.0
 71
     0
 42
0.2
  3
txt
  4

  0
ENDTAB
  0
TABLE
  2
VIEW
 70
     1
  0
VIEW
  2
ALL
 70
     0
 40
6374.9789810000002
 10
0.0
 20
58.11501599999999
 41
8842.1052629999976
 11
0.0
 21
0.0
 31
1.0
 12
0.0
 22
0.0
 32
0.0
 42
50.0
 43
0.0
 44
0.0
 50
0.0
 71
     0
  0
ENDTAB
  0
TABLE
  2
UCS
 70
     0
  0
ENDTAB
  0
TABLE
  2
APPID
 70
     3
  0
APPID
  2
ACAD
 70
     0
  0
APPID
  2
ACADANNOTATIVE
 70
     0
  0
APPID
  2
ACAD_MLEADERVER
 70
     0
  0
ENDTAB
  0
TABLE
  2
DIMSTYLE
 70
     2
  0
DIMSTYLE
  2
STANDARD
 70
     0
  3

  4

  5

  6

  7

 40
1.0
 41
0.18
 42
0.0625
 43
0.38
 44
0.18
 45
0.0
 46
0.0
 47
0.0
 48
0.0
140
0.18
141
0.09
142
0.0
143
25.399999999999999
144
1.0
145
0.0
146
1.0
147
0.09
 71
     0
 72
     0
 73
     1
 74
     1
 75
     0
 76
     0
 77
     0
 78
     0
170
     0
171
     2
172
     0
173
     0
174
     0
175
     0
176
     0
177
     0
178
     0
  0
DIMSTYLE
  2
ANNOTATIVE
 70
     0
  3

  4

  5

  6

  7

 40
1.0
 41
0.18
 42
0.0625
 43
0.38
 44
0.18
 45
0.0
 46
0.0
 47
0.0
 48
0.0
140
0.18
141
0.09
142
0.0
143
25.399999999999999
144
1.0
145
0.0
146
1.0
147
0.09
 71
     0
 72
     0
 73
     1
 74
     1
 75
     0
 76
     0
 77
     0
 78
     0
170
     0
171
     2
172
     0
173
     0
174
     0
175
     0
176
     0
177
     0
178
     0
  0
ENDTAB
  0
ENDSEC
  0
SECTION
  2
BLOCKS
  0
BLOCK
  8
0
  2
$MODEL_SPACE
 70
     0
 10
0.0
 20
0.0
 30
0.0
  3
$MODEL_SPACE
  1

  0
ENDBLK
  5
158
  8
0
  0
BLOCK
 67
     1
  8
0
  2
$PAPER_SPACE
 70
     0
 10
0.0
 20
0.0
 30
0.0
  3
$PAPER_SPACE
  1

  0
ENDBLK
  5
154
 67
     1
  8
0
  0
ENDSEC
  0
SECTION
  2
ENTITIES
  0
POINT
  5
38
  8
ARRANGE
  6
CONTINUOUS
 62
     1
 10
0.0
 20
0.0
 30
0.0
  0
CIRCLE
  5
39
  8
ARRANGE
  6
CONTINUOUS
 62
     1
 10
0.0
 20
0.0
 30
0.0
 40
40.0
  0
LINE
  5
3A
  8
DETAIL
  6
CONTINUOUS
 62
     5
 10
0.0
 20
98.500000000000014
 30
0.0
 11
76.0
 21
98.500000000000014
 31
0.0
  0
LINE
  5
3B
  8
DETAIL
  6
CONTINUOUS
 62
     5
 10
76.0
 20
98.500000000000014
 30
0.0
 11
76.0
 21
-98.500000000000014
 31
0.0
  0
LINE
  5
3C
  8
DETAIL
  6
CONTINUOUS
 62
     5
 10
0.0
 20
0.0
 30
0.0
 11
0.0
 21
132.4999999999998
 31
0.0
  0
LINE
  5
3D
  8
DETAIL
  6
CONTINUOUS
 62
     5
 10
-45.0
 20
0.0
 30
0.0
 11
-45.0
 21
111.3819949999999
 31
0.0
  0
LINE
  5
3E
  8
DETAIL
  6
CONTINUOUS
 62
     5
 10
-10.0
 20
-0.100799
 30
0.0
 11
-10.0
 21
129.943961
 31
0.0
  0
ARC
  5
3F
  8
DETAIL
  6
CONTINUOUS
 62
     5
 10
-42.381995000000003
 20
111.3819949999999
 30
0.0
 40
2.6180050000000001
 50
90.0
 51
180.0
  0
ARC
  5
40
  8
DETAIL
  6
CONTINUOUS
 62
     5
 10
-12.24400399999999
 20
116.14320499999999
 30
0.0
 40
2.2440039999999981
 50
270.0
 51
0.0
  0
LINE
  5
41
  8
DETAIL
  6
CONTINUOUS
 62
     5
 10
-12.24400399999999
 20
113.89920100000001
 30
0.0
 11
-42.381995000000003
 21
114.0
 31
0.0
  0
LINE
  5
42
  8
DETAIL
  6
CONTINUOUS
 62
     5
 10
-7.8456839999999977
 20
132.18617299999991
 30
0.0
 11
0.0
 21
132.4999999999998
 31
0.0
  0
ARC
  5
43
  8
DETAIL
  6
CONTINUOUS
 62
     5
 10
-7.7559959999999979
 20
129.943961
 30
0.0
 40
2.2440039999999981
 50
92.290609999999987
 51
180.0
  0
LINE
  5
44
  8
DETAIL
  6
CONTINUOUS
 62
     5
 10
0.0
 20
-98.500000000000014
 30
0.0
 11
76.0
 21
-98.500000000000014
 31
0.0
  0
LINE
  5
45
  8
BASIS
  6
DASHDOT
 62
     6
 10
136.25193200000001
 20
0.0
 30
0.0
 11
-70.277181999999996
 21
0.0
 31
0.0
  0
LINE
  5
46
  8
SIZE
  6
CONTINUOUS
 62
    30
 10
54.0
 20
309.69426499999992
 30
0.0
 11
185.89429799999991
 21
309.69426499999992
 31
0.0
  0
LINE
  5
47
  8
SIZE
  6
CONTINUOUS
 62
    30
 10
-47.0
 20
309.69426499999992
 30
0.0
 11
-159.65054900000001
 21
309.69426499999992
 31
0.0
  0
LINE
  5
48
  8
SIZE
  6
CONTINUOUS
 62
    30
 10
-10.0
 20
183.18488999999991
 30
0.0
 11
-158.56180900000001
 21
183.18488999999991
 31
0.0
  0
ARC
  5
49
  8
DETAIL
  6
CONTINUOUS
 62
     5
 10
-7.7559959999999979
 20
-129.943961
 30
0.0
 40
2.2440039999999981
 50
180.0
 51
267.70938999999998
  0
LINE
  5
4A
  8
DETAIL
  6
CONTINUOUS
 62
     5
 10
-7.8456839999999977
 20
-132.18617299999991
 30
0.0
 11
0.0
 21
-132.4999999999998
 31
0.0
  0
LINE
  5
4B
  8
DETAIL
  6
CONTINUOUS
 62
     5
 10
-12.24400399999999
 20
-113.89920100000001
 30
0.0
 11
-42.381995000000003
 21
-114.0
 31
0.0
  0
ARC
  5
4C
  8
DETAIL
  6
CONTINUOUS
 62
     5
 10
-12.24400399999999
 20
-116.14320499999999
 30
0.0
 40
2.2440039999999981
 50
0.0
 51
90.0
  0
ARC
  5
4D
  8
DETAIL
  6
CONTINUOUS
 62
     5
 10
-42.381995000000003
 20
-111.3819949999999
 30
0.0
 40
2.6180050000000001
 50
180.0
 51
270.0
  0
LINE
  5
4E
  8
DETAIL
  6
CONTINUOUS
 62
     5
 10
-10.0
 20
0.100799
 30
0.0
 11
-10.0
 21
-129.943961
 31
0.0
  0
LINE
  5
4F
  8
DETAIL
  6
CONTINUOUS
 62
     5
 10
-45.0
 20
0.0
 30
0.0
 11
-45.0
 21
-111.3819949999999
 31
0.0
  0
LINE
  5
50
  8
DETAIL
  6
CONTINUOUS
 62
     5
 10
0.0
 20
0.0
 30
0.0
 11
0.0
 21
-132.4999999999998
 31
0.0
  0
LINE
  5
51
  8
DETAIL
  6
CONTINUOUS
 62
     5
 10
70.66842800000002
 20
98.500000000000014
 30
0.0
 11
75.027600000000007
 21
98.500000000000014
 31
0.0
  0
LINE
  5
52
  8
SIZE
  6
CONTINUOUS
 62
    30
 10
223.504817
 20
-96.5
 30
0.0
 11
223.504817
 21
-326.69026200000002
 31
0.0
  0
LINE
  5
54
  8
OUTLINE
  6
CONTINUOUS
 62
     3
 10
0.0
 20
0.0
 30
0.0
 11
0.0
 21
-132.4999999999998
 31
0.0
  0
LINE
  5
55
  8
OUTLINE
  6
CONTINUOUS
 62
     3
 10
-45.0
 20
0.0
 30
0.0
 11
-45.0
 21
-111.3819949999999
 31
0.0
  0
LINE
  5
56
  8
OUTLINE
  6
CONTINUOUS
 62
     3
 10
-10.0
 20
0.100799
 30
0.0
 11
-10.0
 21
-129.943961
 31
0.0
  0
ARC
  5
57
  8
OUTLINE
  6
CONTINUOUS
 62
     3
 10
-42.381995000000003
 20
-111.3819949999999
 30
0.0
 40
2.6180050000000001
 50
180.0
 51
270.0
  0
ARC
  5
58
  8
OUTLINE
  6
CONTINUOUS
 62
     3
 10
-12.24400399999999
 20
-116.14320499999999
 30
0.0
 40
2.2440039999999981
 50
0.0
 51
90.0
  0
LINE
  5
59
  8
OUTLINE
  6
CONTINUOUS
 62
     3
 10
-12.24400399999999
 20
-113.89920100000001
 30
0.0
 11
-42.381995000000003
 21
-114.0
 31
0.0
  0
LINE
  5
5A
  8
OUTLINE
  6
CONTINUOUS
 62
     3
 10
-7.8456839999999977
 20
-132.18617299999991
 30
0.0
 11
0.0
 21
-132.4999999999998
 31
0.0
  0
ARC
  5
5B
  8
OUTLINE
  6
CONTINUOUS
 62
     3
 10
-7.7559959999999979
 20
-129.943961
 30
0.0
 40
2.2440039999999981
 50
180.0
 51
267.70938999999998
  0
ARC
  5
5C
  8
OUTLINE
  6
CONTINUOUS
 62
     3
 10
-7.7559959999999979
 20
129.943961
 30
0.0
 40
2.2440039999999981
 50
92.290609999999987
 51
180.0
  0
LINE
  5
5D
  8
OUTLINE
  6
CONTINUOUS
 62
     3
 10
-7.8456839999999977
 20
132.18617299999991
 30
0.0
 11
0.0
 21
132.4999999999998
 31
0.0
  0
LINE
  5
5E
  8
OUTLINE
  6
CONTINUOUS
 62
     3
 10
-12.24400399999999
 20
113.89920100000001
 30
0.0
 11
-42.381995000000003
 21
114.0
 31
0.0
  0
ARC
  5
5F
  8
OUTLINE
  6
CONTINUOUS
 62
     3
 10
-12.24400399999999
 20
116.14320499999999
 30
0.0
 40
2.2440039999999981
 50
270.0
 51
0.0
  0
ARC
  5
60
  8
OUTLINE
  6
CONTINUOUS
 62
     3
 10
-42.381995000000003
 20
111.3819949999999
 30
0.0
 40
2.6180050000000001
 50
90.0
 51
180.0
  0
LINE
  5
61
  8
OUTLINE
  6
CONTINUOUS
 62
     3
 10
-10.0
 20
-0.100799
 30
0.0
 11
-10.0
 21
129.943961
 31
0.0
  0
LINE
  5
62
  8
OUTLINE
  6
CONTINUOUS
 62
     3
 10
-45.0
 20
0.0
 30
0.0
 11
-45.0
 21
111.3819949999999
 31
0.0
  0
LINE
  5
63
  8
OUTLINE
  6
CONTINUOUS
 62
     3
 10
0.0
 20
0.0
 30
0.0
 11
0.0
 21
132.4999999999998
 31
0.0
  0
LINE
  5
64
  8
OUTLINE
  6
CONTINUOUS
 62
     3
 10
0.0
 20
-98.500000000000014
 30
0.0
 11
76.0
 21
-98.500000000000014
 31
0.0
  0
LINE
  5
65
  8
OUTLINE
  6
CONTINUOUS
 62
     3
 10
76.0
 20
98.500000000000014
 30
0.0
 11
76.0
 21
-98.500000000000014
 31
0.0
  0
LINE
  5
66
  8
OUTLINE
  6
CONTINUOUS
 62
     3
 10
0.0
 20
98.500000000000014
 30
0.0
 11
76.0
 21
98.500000000000014
 31
0.0
  0
LINE
  5
67
  8
SIZE
  6
BYBLOCK
 62
    30
 10
96.0
 20
98.500000000000014
 30
0.0
 11
253.504817
 21
98.500000000000014
 31
0.0
  0
LINE
  5
68
  8
SIZE
  6
BYBLOCK
 62
    30
 10
96.0
 20
-98.500000000000014
 30
0.0
 11
253.504817
 21
-98.500000000000014
 31
0.0
  0
LINE
  5
69
  8
SIZE
  6
BYBLOCK
 62
    30
 10
223.504817
 20
96.5
 30
0.0
 11
223.504817
 21
0.0
 31
0.0
  0
LINE
  5
6A
  8
SIZE
  6
BYBLOCK
 62
    30
 10
223.504817
 20
-96.5
 30
0.0
 11
223.504817
 21
0.0
 31
0.0
  0
TEXT
  5
6B
  8
SIZE
  6
BYBLOCK
 62
    30
 10
191.504817
 20
-326.65133600000001
 30
0.0
 40
64.0
  1
φ197
 50
90.0
 41
0.9
  0
LINE
  5
6C
  8
SIZE
  6
BYBLOCK
 62
    30
 10
0.0
 20
152.5
 30
0.0
 11
0.0
 21
339.69426499999992
 31
0.0
  0
LINE
  5
6D
  8
SIZE
  6
BYBLOCK
 62
    30
 10
76.0
 20
118.5
 30
0.0
 11
76.0
 21
339.69426499999992
 31
0.0
  0
LINE
  5
6E
  8
SIZE
  6
BYBLOCK
 62
    30
 10
78.0
 20
309.69426499999992
 30
0.0
 11
80.0
 21
309.69426499999992
 31
0.0
  0
LINE
  5
6F
  8
SIZE
  6
BYBLOCK
 62
    30
 10
-2.0
 20
309.69426499999992
 30
0.0
 11
-4.0
 21
309.69426499999992
 31
0.0
  0
LINE
  5
70
  8
SIZE
  6
BYBLOCK
 62
    30
 10
76.0
 20
309.69426499999992
 30
0.0
 11
0.0
 21
309.69426499999992
 31
0.0
  0
TEXT
  5
71
  8
SIZE
  6
BYBLOCK
 62
    30
 10
88.642649000000006
 20
341.69426499999992
 30
0.0
 40
64.0
  1
76
 41
0.9
  0
LINE
  5
72
  8
SIZE
  6
BYBLOCK
 62
    30
 10
-20.0
 20
132.4999999999998
 30
0.0
 11
-291.995407
 21
132.4999999999998
 31
0.0
  0
LINE
  5
73
  8
SIZE
  6
BYBLOCK
 62
    30
 10
-20.0
 20
-132.4999999999998
 30
0.0
 11
-291.995407
 21
-132.4999999999998
 31
0.0
  0
LINE
  5
74
  8
SIZE
  6
BYBLOCK
 62
    30
 10
-261.99540699999989
 20
130.4999999999998
 30
0.0
 11
-261.99540699999989
 21
0.0
 31
0.0
  0
LINE
  5
75
  8
SIZE
  6
BYBLOCK
 62
    30
 10
-261.99540699999989
 20
-130.4999999999998
 30
0.0
 11
-261.99540699999989
 21
0.0
 31
0.0
  0
TEXT
  5
76
  8
SIZE
  6
BYBLOCK
 62
    30
 10
-293.995407
 20
-102.31925799999991
 30
0.0
 40
64.0
  1
φ265
 50
90.0
 41
0.9
  0
LINE
  5
77
  8
SIZE
  6
BYBLOCK
 62
    30
 10
-62.381995000000003
 20
114.0
 30
0.0
 11
-160.7614209999999
 21
114.0
 31
0.0
  0
LINE
  5
78
  8
SIZE
  6
BYBLOCK
 62
    30
 10
-62.381995000000003
 20
-114.0
 30
0.0
 11
-160.7614209999999
 21
-114.0
 31
0.0
  0
LINE
  5
79
  8
SIZE
  6
BYBLOCK
 62
    30
 10
-130.7614209999999
 20
112.0
 30
0.0
 11
-130.7614209999999
 21
0.0
 31
0.0
  0
LINE
  5
7A
  8
SIZE
  6
BYBLOCK
 62
    30
 10
-130.7614209999999
 20
-112.0
 30
0.0
 11
-130.7614209999999
 21
0.0
 31
0.0
  0
TEXT
  5
7B
  8
SIZE
  6
BYBLOCK
 62
    30
 10
-162.7614209999999
 20
-102.31925799999991
 30
0.0
 40
64.0
  1
φ228
 50
90.0
 41
0.9
  0
LINE
  5
7C
  8
SIZE
  6
BYBLOCK
 62
    30
 10
0.0
 20
152.5
 30
0.0
 11
0.0
 21
339.69426499999992
 31
0.0
  0
LINE
  5
7D
  8
SIZE
  6
BYBLOCK
 62
    30
 10
-45.0
 20
131.3819949999999
 30
0.0
 11
-45.0
 21
339.69426499999992
 31
0.0
  0
LINE
  5
7E
  8
SIZE
  6
BYBLOCK
 62
    30
 10
-47.0
 20
309.69426499999992
 30
0.0
 11
-49.0
 21
309.69426499999992
 31
0.0
  0
LINE
  5
7F
  8
SIZE
  6
BYBLOCK
 62
    30
 10
2.0
 20
309.69426499999992
 30
0.0
 11
4.0
 21
309.69426499999992
 31
0.0
  0
LINE
  5
80
  8
SIZE
  6
BYBLOCK
 62
    30
 10
-45.0
 20
309.69426499999992
 30
0.0
 11
0.0
 21
309.69426499999992
 31
0.0
  0
TEXT
  5
81
  8
SIZE
  6
BYBLOCK
 62
    30
 10
-156.7942399999998
 20
341.69426499999992
 30
0.0
 40
64.0
  1
45
 41
0.9
  0
LINE
  5
82
  8
SIZE
  6
BYBLOCK
 62
    30
 10
-10.0
 20
149.943961
 30
0.0
 11
-10.0
 21
213.18489
 31
0.0
  0
LINE
  5
83
  8
SIZE
  6
BYBLOCK
 62
    30
 10
0.0
 20
152.5
 30
0.0
 11
0.0
 21
213.18489
 31
0.0
  0
LINE
  5
84
  8
SIZE
  6
BYBLOCK
 62
    30
 10
2.0
 20
183.18488999999991
 30
0.0
 11
4.0
 21
183.18488999999991
 31
0.0
  0
LINE
  5
85
  8
SIZE
  6
BYBLOCK
 62
    30
 10
-12.0
 20
183.18488999999991
 30
0.0
 11
-14.0
 21
183.18488999999991
 31
0.0
  0
LINE
  5
86
  8
SIZE
  6
BYBLOCK
 62
    30
 10
0.0
 20
183.18488999999991
 30
0.0
 11
-10.0
 21
183.18488999999991
 31
0.0
  0
TEXT
  5
87
  8
SIZE
  6
BYBLOCK
 62
    30
 10
-145.470147
 20
215.18489
 30
0.0
 40
64.0
  1
10
 41
0.9
  0
CIRCLE
  5
88
  8
SIZE
  6
CONTINUOUS
 62
    30
 10
-10.0
 20
183.18488999999991
 30
0.0
 40
6.0
  0
CIRCLE
  5
89
  8
SIZE
  6
CONTINUOUS
 62
    30
 10
0.0
 20
183.18488999999991
 30
0.0
 40
6.0
  0
CIRCLE
  5
8A
  8
SIZE
  6
CONTINUOUS
 62
    30
 10
0.0
 20
309.69426499999992
 30
0.0
 40
6.0
  0
CIRCLE
  5
8B
  8
SIZE
  6
CONTINUOUS
 62
    30
 10
-45.0
 20
309.69426499999992
 30
0.0
 40
6.0
  0
CIRCLE
  5
8C
  8
SIZE
  6
CONTINUOUS
 62
    30
 10
-130.7614209999999
 20
-114.0
 30
0.0
 40
6.0
  0
CIRCLE
  5
8D
  8
SIZE
  6
CONTINUOUS
 62
    30
 10
-130.7614209999999
 20
114.0
 30
0.0
 40
6.0
  0
CIRCLE
  5
8E
  8
SIZE
  6
CONTINUOUS
 62
    30
 10
-261.99540699999989
 20
-132.4999999999998
 30
0.0
 40
6.0
  0
CIRCLE
  5
8F
  8
SIZE
  6
CONTINUOUS
 62
    30
 10
-261.99540699999989
 20
132.4999999999998
 30
0.0
 40
6.0
  0
CIRCLE
  5
90
  8
SIZE
  6
CONTINUOUS
 62
    30
 10
0.0
 20
309.69426499999992
 30
0.0
 40
6.0
  0
CIRCLE
  5
91
  8
SIZE
  6
CONTINUOUS
 62
    30
 10
76.0
 20
309.69426499999992
 30
0.0
 40
6.0
  0
CIRCLE
  5
92
  8
SIZE
  6
CONTINUOUS
 62
    30
 10
223.504817
 20
-98.500000000000014
 30
0.0
 40
6.0
  0
CIRCLE
  5
93
  8
SIZE
  6
CONTINUOUS
 62
    30
 10
223.504817
 20
98.500000000000014
 30
0.0
 40
6.0
  0
TEXT
  5
9F
  8
ETC
  6
CONTINUOUS
 62
    61
 10
357.1223021708393
 20
224.10551152844371
 30
0.0
 40
50.0
  1
P-23RSD2
 41
0.9
  0
TEXT
  5
A0
  8
ETC
  6
CONTINUOUS
 62
    61
 10
251.9339723981721
 20
400.06337504669062
 30
0.0
 40
64.0
  1
P-23RSD2_4
 41
0.9
  0
TEXT
  5
A1
  8
ETC
  6
CONTINUOUS
 62
    61
 10
248.43429239817209
 20
307.8594540466907
 30
0.0
 40
64.0
  1
システム部材
 41
0.9
  0
LINE
  5
A2
  8
SIZE
  6
CONTINUOUS
 62
    30
 10
0.0
 20
183.18488999999991
 30
0.0
 11
43.656070727143742
 21
183.18488999999991
 31
0.0
  0
ENDSEC
  0
EOF
