  0
SECTION
  2
HEADER
  9
$ACADVER
  1
AC1009
  9
$INSBASE
 10
0.0
 20
0.0
 30
0.0
  9
$EXTMIN
 10
-281.27964100000008
 20
-138.4999999999998
 30
0.0
  9
$EXTMAX
 10
926.38432788876753
 20
504.68736620933078
 30
0.0
  9
$LIMMIN
 10
-4200.0
 20
-2970.0
  9
$LIMMAX
 10
4200.0
 20
2970.0
  9
$ORTHOMODE
 70
     1
  9
$REGENMODE
 70
     0
  9
$FILLMODE
 70
     1
  9
$QTEXTMODE
 70
     0
  9
$MIRRTEXT
 70
     0
  9
$DRAGMODE
 70
     2
  9
$LTSCALE
 40
20.0
  9
$OSMODE
 70
    37
  9
$ATTMODE
 70
     1
  9
$TEXTSIZE
 40
64.0
  9
$TRACEWID
 40
0.05
  9
$TEXTSTYLE
  7
STANDARD
  9
$CLAYER
  8
OUTLINE
  9
$CELTYPE
  6
CONTINUOUS
  9
$CECOLOR
 62
     3
  9
$DIMSCALE
 40
1.0
  9
$DIMASZ
 40
2.0
  9
$DIMEXO
 40
20.0
  9
$DIMDLI
 40
200.0
  9
$DIMRND
 40
0.0
  9
$DIMDLE
 40
0.0
  9
$DIMEXE
 40
30.0
  9
$DIMTP
 40
0.0
  9
$DIMTM
 40
0.0
  9
$DIMTXT
 40
64.0
  9
$DIMCEN
 40
0.09
  9
$DIMTSZ
 40
0.0
  9
$DIMTOL
 70
     0
  9
$DIMLIM
 70
     0
  9
$DIMTIH
 70
     0
  9
$DIMTOH
 70
     0
  9
$DIMSE1
 70
     0
  9
$DIMSE2
 70
     0
  9
$DIMTAD
 70
     1
  9
$DIMZIN
 70
     8
  9
$DIMBLK
  1

  9
$DIMASO
 70
     1
  9
$DIMSHO
 70
     0
  9
$DIMPOST
  1

  9
$DIMAPOST
  1

  9
$DIMALT
 70
     0
  9
$DIMALTD
 70
     2
  9
$DIMALTF
 40
25.399999999999999
  9
$DIMLFAC
 40
1.0
  9
$DIMTOFL
 70
     1
  9
$DIMTVP
 40
0.0
  9
$DIMTIX
 70
     1
  9
$DIMSOXD
 70
     0
  9
$DIMSAH
 70
     0
  9
$DIMBLK1
  1

  9
$DIMBLK2
  1

  9
$DIMSTYLE
  2
STANDARD
  9
$DIMCLRD
 70
     0
  9
$DIMCLRE
 70
     0
  9
$DIMCLRT
 70
     0
  9
$DIMTFAC
 40
1.0
  9
$DIMGAP
 40
0.09
  9
$LUNITS
 70
     2
  9
$LUPREC
 70
     4
  9
$SKETCHINC
 40
0.1
  9
$FILLETRAD
 40
2.2440000000000002
  9
$AUNITS
 70
     1
  9
$AUPREC
 70
     3
  9
$MENU
  1
ACAD
  9
$ELEVATION
 40
0.0
  9
$PELEVATION
 40
0.0
  9
$THICKNESS
 40
0.0
  9
$LIMCHECK
 70
     1
  9
$BLIPMODE
 70
     0
  9
$CHAMFERA
 40
0.0
  9
$CHAMFERB
 40
0.0
  9
$SKPOLY
 70
     0
  9
$TDCREATE
 40
2451794.64931713
  9
$TDUPDATE
 40
2454812.4000905561
  9
$TDINDWG
 40
0.0218329051
  9
$TDUSRTIMER
 40
0.0218327315
  9
$USRTIMER
 70
     1
  9
$ANGBASE
 50
0.0
  9
$ANGDIR
 70
     0
  9
$PDMODE
 70
     3
  9
$PDSIZE
 40
-2.0
  9
$PLINEWID
 40
0.0
  9
$COORDS
 70
     0
  9
$SPLFRAME
 70
     0
  9
$SPLINETYPE
 70
     6
  9
$SPLINESEGS
 70
     8
  9
$ATTDIA
 70
     0
  9
$ATTREQ
 70
     1
  9
$HANDLING
 70
     1
  9
$HANDSEED
  5
298
  9
$SURFTAB1
 70
     6
  9
$SURFTAB2
 70
     6
  9
$SURFTYPE
 70
     6
  9
$SURFU
 70
     6
  9
$SURFV
 70
     6
  9
$UCSNAME
  2

  9
$UCSORG
 10
0.0
 20
0.0
 30
0.0
  9
$UCSXDIR
 10
1.0
 20
0.0
 30
0.0
  9
$UCSYDIR
 10
0.0
 20
1.0
 30
0.0
  9
$PUCSNAME
  2

  9
$PUCSORG
 10
0.0
 20
0.0
 30
0.0
  9
$PUCSXDIR
 10
1.0
 20
0.0
 30
0.0
  9
$PUCSYDIR
 10
0.0
 20
1.0
 30
0.0
  9
$USERI1
 70
     0
  9
$USERI2
 70
     0
  9
$USERI3
 70
     0
  9
$USERI4
 70
     0
  9
$USERI5
 70
     0
  9
$USERR1
 40
20.0
  9
$USERR2
 40
0.0
  9
$USERR3
 40
0.0
  9
$USERR4
 40
0.0
  9
$USERR5
 40
0.0
  9
$WORLDVIEW
 70
     1
  9
$SHADEDGE
 70
     3
  9
$SHADEDIF
 70
    70
  9
$TILEMODE
 70
     1
  9
$MAXACTVP
 70
    64
  9
$PLIMCHECK
 70
     0
  9
$PEXTMIN
 10
1.0000000000000000E+020
 20
1.0000000000000000E+020
 30
1.0000000000000000E+020
  9
$PEXTMAX
 10
-1.0000000000000000E+020
 20
-1.0000000000000000E+020
 30
-1.0000000000000000E+020
  9
$PLIMMIN
 10
0.0
 20
0.0
  9
$PLIMMAX
 10
12.0
 20
9.0
  9
$UNITMODE
 70
     0
  9
$VISRETAIN
 70
     1
  9
$PLINEGEN
 70
     0
  9
$PSLTSCALE
 70
     1
  0
ENDSEC
  0
SECTION
  2
TABLES
  0
TABLE
  2
VPORT
 70
     1
  0
VPORT
  2
*ACTIVE
 70
     0
 10
0.0
 20
0.0
 11
1.0
 21
1.0
 12
410.68183465636548
 22
134.37675769673359
 13
0.0
 23
0.0
 14
400.0
 24
400.0
 15
400.0
 25
400.0
 16
0.0
 26
0.0
 36
1.0
 17
0.0
 27
0.0
 37
0.0
 40
1266.994196032676
 41
1.3098995695839311
 42
50.0
 43
0.0
 44
0.0
 50
0.0
 51
0.0
 71
     0
 72
   500
 73
     1
 74
     0
 75
     0
 76
     0
 77
     0
 78
     0
  0
ENDTAB
  0
TABLE
  2
LTYPE
 70
     7
  0
LTYPE
  2
CONTINUOUS
 70
     0
  3
実線
 72
    65
 73
     0
 40
0.0
  0
LTYPE
  2
DOT
 70
     0
  3
...............................................
 72
    65
 73
     2
 40
0.8
 49
0.5
 49
-0.3
  0
LTYPE
  2
DASHED
 70
     0
  3
_ _ _ _ _ _ _ _ _ _ _ _ _ _ _ _ _ _ _ _ _ _ _
 72
    65
 73
     2
 40
2.0
 49
1.1999999999999991
 49
-0.8
  0
LTYPE
  2
DASHDOT
 70
     0
  3
____ _ ____ _ ____ _ ____ _ ____ _ ____ _ ____
 72
    65
 73
     4
 40
5.5
 49
4.0
 49
-0.6
 49
0.3
 49
-0.6
  0
LTYPE
  2
DASHDOT1
 70
     0
  3
____ _ ____ _ ____ _ ____ _ ____ _ ____ _ ____
 72
    65
 73
     4
 40
2.0
 49
1.5
 49
-0.2
 49
0.1
 49
-0.2
  0
LTYPE
  2
DIVIDE
 70
     0
  3
_____ _ _ _____ _ _ _____ _ _ _____ _ _ ____
 72
    65
 73
     6
 40
6.4000000000000004
 49
4.0
 49
-0.6
 49
0.3
 49
-0.6
 49
0.3
 49
-0.6
  0
LTYPE
  2
DIVIDE1
 70
     0
  3
_____ _ _ _____ _ _ _____ _ _ _____ _ _ ____
 72
    65
 73
     6
 40
3.2000000000000002
 49
2.0
 49
-0.3
 49
0.15
 49
-0.3
 49
0.15
 49
-0.3
  0
ENDTAB
  0
TABLE
  2
LAYER
 70
    12
  0
LAYER
  2
0
 70
     0
 62
     7
  6
CONTINUOUS
  0
LAYER
  2
OUTLINE
 70
     0
 62
     3
  6
CONTINUOUS
  0
LAYER
  2
SIZE
 70
     0
 62
    30
  6
CONTINUOUS
  0
LAYER
  2
DETAIL
 70
     0
 62
     5
  6
CONTINUOUS
  0
LAYER
  2
BASIS
 70
     0
 62
     6
  6
DASHDOT
  0
LAYER
  2
ARRANGE
 70
     0
 62
     1
  6
CONTINUOUS
  0
LAYER
  2
DEFPOINTS
 70
     0
 62
     7
  6
CONTINUOUS
  0
LAYER
  2
ETC
 70
     0
 62
    61
  6
CONTINUOUS
  0
LAYER
  2
NOTE
 70
     0
 62
     4
  6
CONTINUOUS
  0
LAYER
  2
FIX
 70
     0
 62
    11
  6
CONTINUOUS
  0
LAYER
  2
SERVICESPACE
 70
     0
 62
     2
  6
DASHDOT
  0
LAYER
  2
SYMBOLLINE
 70
     0
 62
    15
  6
CONTINUOUS
  0
ENDTAB
  0
TABLE
  2
STYLE
 70
     2
  0
STYLE
  2
STANDARD
 70
     0
 40
0.0
 41
0.9
 50
0.0
 71
     0
 42
64.0
  3
SIMPLEX
  4
BIGFONT
  0
STYLE
  2
ANNOTATIVE
 70
     0
 40
0.0
 41
1.0
 50
0.0
 71
     0
 42
0.2
  3
txt
  4

  0
ENDTAB
  0
TABLE
  2
VIEW
 70
     1
  0
VIEW
  2
ALL
 70
     0
 40
6374.9789810000002
 10
0.0
 20
58.11501599999999
 41
8842.1052629999976
 11
0.0
 21
0.0
 31
1.0
 12
0.0
 22
0.0
 32
0.0
 42
50.0
 43
0.0
 44
0.0
 50
0.0
 71
     0
  0
ENDTAB
  0
TABLE
  2
UCS
 70
     0
  0
ENDTAB
  0
TABLE
  2
APPID
 70
     3
  0
APPID
  2
ACAD
 70
     0
  0
APPID
  2
ACADANNOTATIVE
 70
     0
  0
APPID
  2
ACAD_MLEADERVER
 70
     0
  0
ENDTAB
  0
TABLE
  2
DIMSTYLE
 70
     2
  0
DIMSTYLE
  2
STANDARD
 70
     0
  3

  4

  5

  6

  7

 40
1.0
 41
0.18
 42
0.0625
 43
0.38
 44
0.18
 45
0.0
 46
0.0
 47
0.0
 48
0.0
140
0.18
141
0.09
142
0.0
143
25.399999999999999
144
1.0
145
0.0
146
1.0
147
0.09
 71
     0
 72
     0
 73
     1
 74
     1
 75
     0
 76
     0
 77
     0
 78
     0
170
     0
171
     2
172
     0
173
     0
174
     0
175
     0
176
     0
177
     0
178
     0
  0
DIMSTYLE
  2
ANNOTATIVE
 70
     0
  3

  4

  5

  6

  7

 40
1.0
 41
0.18
 42
0.0625
 43
0.38
 44
0.18
 45
0.0
 46
0.0
 47
0.0
 48
0.0
140
0.18
141
0.09
142
0.0
143
25.399999999999999
144
1.0
145
0.0
146
1.0
147
0.09
 71
     0
 72
     0
 73
     1
 74
     1
 75
     0
 76
     0
 77
     0
 78
     0
170
     0
171
     2
172
     0
173
     0
174
     0
175
     0
176
     0
177
     0
178
     0
  0
ENDTAB
  0
ENDSEC
  0
SECTION
  2
BLOCKS
  0
BLOCK
  8
0
  2
$MODEL_SPACE
 70
     0
 10
0.0
 20
0.0
 30
0.0
  3
$MODEL_SPACE
  1

  0
ENDBLK
  5
244
  8
0
  0
BLOCK
 67
     1
  8
0
  2
$PAPER_SPACE
 70
     0
 10
0.0
 20
0.0
 30
0.0
  3
$PAPER_SPACE
  1

  0
ENDBLK
  5
240
 67
     1
  8
0
  0
ENDSEC
  0
SECTION
  2
ENTITIES
  0
POINT
  5
11E
  8
ARRANGE
  6
CONTINUOUS
 62
     1
 10
0.0
 20
0.0
 30
0.0
  0
CIRCLE
  5
11F
  8
ARRANGE
  6
CONTINUOUS
 62
     1
 10
0.0
 20
0.0
 30
0.0
 40
40.0
  0
LINE
  5
120
  8
DETAIL
  6
CONTINUOUS
 62
     5
 10
0.0
 20
98.500000000000014
 30
0.0
 11
-76.0
 21
98.500000000000014
 31
0.0
  0
LINE
  5
121
  8
DETAIL
  6
CONTINUOUS
 62
     5
 10
-76.0
 20
98.500000000000014
 30
0.0
 11
-76.0
 21
-98.500000000000014
 31
0.0
  0
LINE
  5
122
  8
DETAIL
  6
CONTINUOUS
 62
     5
 10
0.0
 20
0.0
 30
0.0
 11
0.0
 21
132.4999999999998
 31
0.0
  0
LINE
  5
123
  8
DETAIL
  6
CONTINUOUS
 62
     5
 10
45.0
 20
0.0
 30
0.0
 11
44.999999999999993
 21
111.756
 31
0.0
  0
LINE
  5
124
  8
DETAIL
  6
CONTINUOUS
 62
     5
 10
10.0
 20
116.244
 30
0.0
 11
10.0
 21
129.943961
 31
0.0
  0
LINE
  5
128
  8
DETAIL
  6
CONTINUOUS
 62
     5
 10
7.8456839999999959
 20
132.18617299999991
 30
0.0
 11
0.0
 21
132.4999999999998
 31
0.0
  0
ARC
  5
129
  8
DETAIL
  6
CONTINUOUS
 62
     5
 10
7.7559959999999979
 20
129.943961
 30
0.0
 40
2.2440039999999981
 50
0.0
 51
87.709389999999999
  0
LINE
  5
12A
  8
DETAIL
  6
CONTINUOUS
 62
     5
 10
0.0
 20
-98.500000000000014
 30
0.0
 11
-76.0
 21
-98.500000000000014
 31
0.0
  0
LINE
  5
12B
  8
BASIS
  6
DASHDOT
 62
     6
 10
-136.25193200000001
 20
0.0
 30
0.0
 11
70.277181999999996
 21
0.0
 31
0.0
  0
LINE
  5
12C
  8
SIZE
  6
CONTINUOUS
 62
    30
 10
-54.0
 20
309.69426499999992
 30
0.0
 11
-185.89429799999991
 21
309.69426499999992
 31
0.0
  0
LINE
  5
12D
  8
SIZE
  6
CONTINUOUS
 62
    30
 10
47.0
 20
309.69426499999992
 30
0.0
 11
159.65054900000001
 21
309.69426499999992
 31
0.0
  0
LINE
  5
12E
  8
SIZE
  6
CONTINUOUS
 62
    30
 10
10.0
 20
183.18488999999991
 30
0.0
 11
158.56180900000001
 21
183.18488999999991
 31
0.0
  0
ARC
  5
12F
  8
DETAIL
  6
CONTINUOUS
 62
     5
 10
7.7559959999999979
 20
-129.943961
 30
0.0
 40
2.2440039999999981
 50
272.29061000000002
 51
0.0
  0
LINE
  5
130
  8
DETAIL
  6
CONTINUOUS
 62
     5
 10
7.8456839999999959
 20
-132.18617299999991
 30
0.0
 11
0.0
 21
-132.4999999999998
 31
0.0
  0
LINE
  5
134
  8
DETAIL
  6
CONTINUOUS
 62
     5
 10
10.0
 20
-116.244
 30
0.0
 11
10.0
 21
-129.943961
 31
0.0
  0
LINE
  5
135
  8
DETAIL
  6
CONTINUOUS
 62
     5
 10
45.0
 20
0.0
 30
0.0
 11
44.999999999999993
 21
-111.756
 31
0.0
  0
LINE
  5
136
  8
DETAIL
  6
CONTINUOUS
 62
     5
 10
0.0
 20
0.0
 30
0.0
 11
0.0
 21
-132.4999999999998
 31
0.0
  0
LINE
  5
137
  8
DETAIL
  6
CONTINUOUS
 62
     5
 10
-70.66842800000002
 20
98.500000000000014
 30
0.0
 11
-75.027600000000007
 21
98.500000000000014
 31
0.0
  0
LINE
  5
138
  8
OUTLINE
  6
CONTINUOUS
 62
     3
 10
0.0
 20
0.0
 30
0.0
 11
0.0
 21
-132.4999999999998
 31
0.0
  0
LINE
  5
13E
  8
OUTLINE
  6
CONTINUOUS
 62
     3
 10
7.8456839999999959
 20
-132.18617299999991
 30
0.0
 11
0.0
 21
-132.4999999999998
 31
0.0
  0
ARC
  5
13F
  8
OUTLINE
  6
CONTINUOUS
 62
     3
 10
7.7559959999999979
 20
-129.943961
 30
0.0
 40
2.2440039999999981
 50
272.29061000000002
 51
0.0
  0
ARC
  5
140
  8
OUTLINE
  6
CONTINUOUS
 62
     3
 10
7.7559959999999979
 20
129.943961
 30
0.0
 40
2.2440039999999981
 50
0.0
 51
87.709389999999999
  0
LINE
  5
141
  8
OUTLINE
  6
CONTINUOUS
 62
     3
 10
7.8456839999999959
 20
132.18617299999991
 30
0.0
 11
0.0
 21
132.4999999999998
 31
0.0
  0
LINE
  5
147
  8
OUTLINE
  6
CONTINUOUS
 62
     3
 10
0.0
 20
0.0
 30
0.0
 11
0.0
 21
132.4999999999998
 31
0.0
  0
LINE
  5
148
  8
OUTLINE
  6
CONTINUOUS
 62
     3
 10
0.0
 20
-98.500000000000014
 30
0.0
 11
-76.0
 21
-98.500000000000014
 31
0.0
  0
LINE
  5
149
  8
OUTLINE
  6
CONTINUOUS
 62
     3
 10
-76.0
 20
98.500000000000014
 30
0.0
 11
-76.0
 21
-98.500000000000014
 31
0.0
  0
LINE
  5
14A
  8
OUTLINE
  6
CONTINUOUS
 62
     3
 10
0.0
 20
98.500000000000014
 30
0.0
 11
-76.0
 21
98.500000000000014
 31
0.0
  0
LINE
  5
14B
  8
SIZE
  6
BYBLOCK
 62
    30
 10
62.381995000000003
 20
-114.0
 30
0.0
 11
297.13122199999992
 21
-114.0
 31
0.0
  0
LINE
  5
14C
  8
SIZE
  6
BYBLOCK
 62
    30
 10
62.381995000000003
 20
114.0
 30
0.0
 11
297.13122199999992
 21
114.0
 31
0.0
  0
LINE
  5
14D
  8
SIZE
  6
BYBLOCK
 62
    30
 10
267.13122199999992
 20
-112.0
 30
0.0
 11
267.13122199999992
 21
0.0
 31
0.0
  0
LINE
  5
14E
  8
SIZE
  6
BYBLOCK
 62
    30
 10
267.13122199999992
 20
112.0
 30
0.0
 11
267.13122199999992
 21
0.0
 31
0.0
  0
TEXT
  5
14F
  8
SIZE
  6
BYBLOCK
 62
    30
 10
235.13122200000001
 20
-113.34573899999999
 30
0.0
 40
64.0
  1
φ228
 50
90.0
 41
0.9
  0
LINE
  5
150
  8
SIZE
  6
BYBLOCK
 62
    30
 10
20.0
 20
-132.4999999999998
 30
0.0
 11
425.96345499999973
 21
-132.4999999999998
 31
0.0
  0
LINE
  5
151
  8
SIZE
  6
BYBLOCK
 62
    30
 10
20.0
 20
132.4999999999998
 30
0.0
 11
425.96345499999973
 21
132.4999999999998
 31
0.0
  0
LINE
  5
152
  8
SIZE
  6
BYBLOCK
 62
    30
 10
395.96345499999978
 20
-130.4999999999998
 30
0.0
 11
395.96345499999978
 21
0.0
 31
0.0
  0
LINE
  5
153
  8
SIZE
  6
BYBLOCK
 62
    30
 10
395.96345499999978
 20
130.4999999999998
 30
0.0
 11
395.96345499999978
 21
0.0
 31
0.0
  0
TEXT
  5
154
  8
SIZE
  6
BYBLOCK
 62
    30
 10
363.96345499999978
 20
-113.34573899999999
 30
0.0
 40
64.0
  1
φ265
 50
90.0
 41
0.9
  0
LINE
  5
155
  8
SIZE
  6
BYBLOCK
 62
    30
 10
-95.027600000000007
 20
98.500000000000014
 30
0.0
 11
-215.279641
 21
98.500000000000014
 31
0.0
  0
LINE
  5
156
  8
SIZE
  6
BYBLOCK
 62
    30
 10
-96.0
 20
-98.500000000000014
 30
0.0
 11
-215.279641
 21
-98.500000000000014
 31
0.0
  0
LINE
  5
157
  8
SIZE
  6
BYBLOCK
 62
    30
 10
-185.279641
 20
96.5
 30
0.0
 11
-185.279641
 21
-96.5
 31
0.0
  0
TEXT
  5
158
  8
SIZE
  6
BYBLOCK
 62
    30
 10
-217.279641
 20
-97.37142900000002
 30
0.0
 40
64.0
  1
φ197
 50
90.0
 41
0.9
  0
LINE
  5
159
  8
SIZE
  6
BYBLOCK
 62
    30
 10
0.0
 20
152.5
 30
0.0
 11
0.0
 21
339.69426499999992
 31
0.0
  0
LINE
  5
15A
  8
SIZE
  6
BYBLOCK
 62
    30
 10
-76.0
 20
118.5
 30
0.0
 11
-76.0
 21
339.69426499999992
 31
0.0
  0
LINE
  5
15B
  8
SIZE
  6
BYBLOCK
 62
    30
 10
-78.0
 20
309.69426499999992
 30
0.0
 11
-80.0
 21
309.69426499999992
 31
0.0
  0
LINE
  5
15C
  8
SIZE
  6
BYBLOCK
 62
    30
 10
2.0
 20
309.69426499999992
 30
0.0
 11
4.0
 21
309.69426499999992
 31
0.0
  0
LINE
  5
15D
  8
SIZE
  6
BYBLOCK
 62
    30
 10
-76.0
 20
309.69426499999992
 30
0.0
 11
0.0
 21
309.69426499999992
 31
0.0
  0
TEXT
  5
15E
  8
SIZE
  6
BYBLOCK
 62
    30
 10
-179.15693400000001
 20
341.69426499999992
 30
0.0
 40
64.0
  1
76
 41
0.9
  0
LINE
  5
15F
  8
SIZE
  6
BYBLOCK
 62
    30
 10
0.0
 20
152.5
 30
0.0
 11
0.0
 21
339.69426499999992
 31
0.0
  0
LINE
  5
160
  8
SIZE
  6
BYBLOCK
 62
    30
 10
45.0
 20
131.38199499999979
 30
0.0
 11
45.0
 21
339.69426499999992
 31
0.0
  0
LINE
  5
161
  8
SIZE
  6
BYBLOCK
 62
    30
 10
47.0
 20
309.69426499999992
 30
0.0
 11
49.0
 21
309.69426499999992
 31
0.0
  0
LINE
  5
162
  8
SIZE
  6
BYBLOCK
 62
    30
 10
-2.0
 20
309.69426499999992
 30
0.0
 11
-4.0
 21
309.69426499999992
 31
0.0
  0
LINE
  5
163
  8
SIZE
  6
BYBLOCK
 62
    30
 10
45.0
 20
309.69426499999992
 30
0.0
 11
0.0
 21
309.69426499999992
 31
0.0
  0
TEXT
  5
164
  8
SIZE
  6
BYBLOCK
 62
    30
 10
63.537096999999989
 20
341.69426499999992
 30
0.0
 40
64.0
  1
45
 41
0.9
  0
LINE
  5
165
  8
SIZE
  6
BYBLOCK
 62
    30
 10
10.0
 20
149.943961
 30
0.0
 11
10.0
 21
213.18489
 31
0.0
  0
LINE
  5
166
  8
SIZE
  6
BYBLOCK
 62
    30
 10
0.0
 20
152.5
 30
0.0
 11
0.0
 21
213.18489
 31
0.0
  0
LINE
  5
167
  8
SIZE
  6
BYBLOCK
 62
    30
 10
-2.0
 20
183.18488999999991
 30
0.0
 11
-4.0
 21
183.18488999999991
 31
0.0
  0
LINE
  5
168
  8
SIZE
  6
BYBLOCK
 62
    30
 10
12.0
 20
183.18488999999991
 30
0.0
 11
14.0
 21
183.18488999999991
 31
0.0
  0
LINE
  5
169
  8
SIZE
  6
BYBLOCK
 62
    30
 10
0.0
 20
183.18488999999991
 30
0.0
 11
10.0
 21
183.18488999999991
 31
0.0
  0
TEXT
  5
16A
  8
SIZE
  6
BYBLOCK
 62
    30
 10
63.184432999999999
 20
215.18489
 30
0.0
 40
64.0
  1
10
 41
0.9
  0
CIRCLE
  5
16B
  8
SIZE
  6
CONTINUOUS
 62
    30
 10
10.0
 20
183.18488999999991
 30
0.0
 40
6.0
  0
CIRCLE
  5
16C
  8
SIZE
  6
CONTINUOUS
 62
    30
 10
0.0
 20
183.18488999999991
 30
0.0
 40
6.0
  0
CIRCLE
  5
16D
  8
SIZE
  6
CONTINUOUS
 62
    30
 10
0.0
 20
309.69426499999992
 30
0.0
 40
6.0
  0
CIRCLE
  5
16E
  8
SIZE
  6
CONTINUOUS
 62
    30
 10
45.0
 20
309.69426499999992
 30
0.0
 40
6.0
  0
CIRCLE
  5
16F
  8
SIZE
  6
CONTINUOUS
 62
    30
 10
0.0
 20
309.69426499999992
 30
0.0
 40
6.0
  0
CIRCLE
  5
170
  8
SIZE
  6
CONTINUOUS
 62
    30
 10
-76.0
 20
309.69426499999992
 30
0.0
 40
6.0
  0
CIRCLE
  5
171
  8
SIZE
  6
CONTINUOUS
 62
    30
 10
-185.279641
 20
-98.500000000000014
 30
0.0
 40
6.0
  0
CIRCLE
  5
172
  8
SIZE
  6
CONTINUOUS
 62
    30
 10
-185.279641
 20
98.500000000000014
 30
0.0
 40
6.0
  0
CIRCLE
  5
173
  8
SIZE
  6
CONTINUOUS
 62
    30
 10
395.96345499999978
 20
132.4999999999998
 30
0.0
 40
6.0
  0
CIRCLE
  5
174
  8
SIZE
  6
CONTINUOUS
 62
    30
 10
395.96345499999978
 20
-132.4999999999998
 30
0.0
 40
6.0
  0
CIRCLE
  5
175
  8
SIZE
  6
CONTINUOUS
 62
    30
 10
267.13122199999992
 20
114.0
 30
0.0
 40
6.0
  0
CIRCLE
  5
176
  8
SIZE
  6
CONTINUOUS
 62
    30
 10
267.13122199999992
 20
-114.0
 30
0.0
 40
6.0
  0
TEXT
  5
178
  8
ETC
  6
CONTINUOUS
 62
    61
 10
463.80122909000602
 20
264.7295026910835
 30
0.0
 40
50.0
  1
P-23RSD2
 41
0.9
  0
TEXT
  5
179
  8
ETC
  6
CONTINUOUS
 62
    61
 10
358.61289931733882
 20
440.68736620933061
 30
0.0
 40
64.0
  1
P-23RSD2_5
 41
0.9
  0
TEXT
  5
17A
  8
ETC
  6
CONTINUOUS
 62
    61
 10
355.1132193173388
 20
348.48344520933051
 30
0.0
 40
64.0
  1
システム部材
 41
0.9
  0
LINE
  5
17B
  8
SIZE
  6
CONTINUOUS
 62
    30
 10
0.0
 20
183.18488999999991
 30
0.0
 11
-21.64064131553549
 21
183.18488999999991
 31
0.0
  0
LINE
  5
17D
  8
DETAIL
  6
CONTINUOUS
 62
     5
 10
42.755999999999993
 20
114.0
 30
0.0
 11
12.244
 21
114.0
 31
0.0
  0
LINE
  5
17E
  8
DETAIL
  6
CONTINUOUS
 62
     5
 10
42.755999999999993
 20
-114.0
 30
0.0
 11
12.244
 21
-114.0
 31
0.0
  0
ARC
  5
17F
  8
DETAIL
  6
CONTINUOUS
 62
     5
 10
42.755999999999993
 20
-111.756
 30
0.0
 40
2.2440000000000002
 50
270.0
 51
0.0
  0
ARC
  5
180
  8
DETAIL
  6
CONTINUOUS
 62
     5
 10
12.244
 20
-116.244
 30
0.0
 40
2.2440000000000002
 50
90.0
 51
180.0
  0
ARC
  5
181
  8
DETAIL
  6
CONTINUOUS
 62
     5
 10
42.755999999999993
 20
111.756
 30
0.0
 40
2.2440000000000002
 50
0.0
 51
90.0
  0
ARC
  5
182
  8
DETAIL
  6
CONTINUOUS
 62
     5
 10
12.244
 20
116.244
 30
0.0
 40
2.2440000000000002
 50
180.0
 51
270.0
  0
LINE
  5
183
  8
DETAIL
  6
CONTINUOUS
 62
     5
 10
10.0
 20
116.244
 30
0.0
 11
10.0
 21
-116.244
 31
0.0
  0
LINE
  5
185
  8
OUTLINE
  6
CONTINUOUS
 62
     3
 10
10.0
 20
-116.2439999999999
 30
0.0
 11
10.0
 21
-129.943961
 31
0.0
  0
LINE
  5
186
  8
OUTLINE
  6
CONTINUOUS
 62
     3
 10
12.243999999999989
 20
114.0
 30
0.0
 11
42.755999999999993
 21
114.0
 31
0.0
  0
LINE
  5
187
  8
OUTLINE
  6
CONTINUOUS
 62
     3
 10
44.999999999999993
 20
111.756
 30
0.0
 11
44.999999999999993
 21
-111.756
 31
0.0
  0
LINE
  5
188
  8
OUTLINE
  6
CONTINUOUS
 62
     3
 10
42.755999999999993
 20
-114.0
 30
0.0
 11
12.244
 21
-114.0
 31
0.0
  0
ARC
  5
189
  8
OUTLINE
  6
CONTINUOUS
 62
     3
 10
42.755999999999993
 20
-111.756
 30
0.0
 40
2.2440000000000002
 50
270.0
 51
0.0
  0
ARC
  5
18A
  8
OUTLINE
  6
CONTINUOUS
 62
     3
 10
12.244
 20
-116.2439999999999
 30
0.0
 40
2.2440000000000002
 50
90.0
 51
180.0
  0
ARC
  5
18B
  8
OUTLINE
  6
CONTINUOUS
 62
     3
 10
42.755999999999993
 20
111.756
 30
0.0
 40
2.2440000000000002
 50
0.0
 51
90.0
  0
LINE
  5
18C
  8
OUTLINE
  6
CONTINUOUS
 62
     3
 10
9.9999999999999982
 20
129.943961
 30
0.0
 11
9.9999999999999982
 21
116.2439999999999
 31
0.0
  0
ARC
  5
18D
  8
OUTLINE
  6
CONTINUOUS
 62
     3
 10
12.243999999999989
 20
116.2439999999999
 30
0.0
 40
2.2440000000000002
 50
180.0
 51
270.0
  0
LINE
  5
18E
  8
OUTLINE
  6
CONTINUOUS
 62
     3
 10
9.9999999999999982
 20
116.2439999999999
 30
0.0
 11
10.0
 21
-116.2439999999999
 31
0.0
  0
ENDSEC
  0
EOF
