  0
SECTION
  2
HEADER
  9
$ACADVER
  1
AC1009
  9
$INSBASE
 10
0.0
 20
0.0
 30
0.0
  9
$EXTMIN
 10
-420.10343779123463
 20
-347.99193154088249
 30
-0.0015257624927045
  9
$EXTMAX
 10
831.14319981674464
 20
318.51197059558581
 30
50.001525995323327
  9
$LIMMIN
 10
-2970.0
 20
-2100.0
  9
$LIMMAX
 10
2970.0
 20
2100.0
  9
$ORTHOMODE
 70
     1
  9
$REGENMODE
 70
     0
  9
$FILLMODE
 70
     1
  9
$QTEXTMODE
 70
     0
  9
$MIRRTEXT
 70
     0
  9
$DRAGMODE
 70
     2
  9
$LTSCALE
 40
20.0
  9
$OSMODE
 70
    37
  9
$ATTMODE
 70
     1
  9
$TEXTSIZE
 40
64.0
  9
$TRACEWID
 40
0.05
  9
$TEXTSTYLE
  7
STANDARD
  9
$CLAYER
  8
ETC
  9
$CELTYPE
  6
CONTINUOUS
  9
$CECOLOR
 62
     3
  9
$DIMSCALE
 40
1.0
  9
$DIMASZ
 40
12.0
  9
$DIMEXO
 40
20.0
  9
$DIMDLI
 40
200.0
  9
$DIMRND
 40
0.0
  9
$DIMDLE
 40
0.0
  9
$DIMEXE
 40
20.0
  9
$DIMTP
 40
0.0
  9
$DIMTM
 40
0.0
  9
$DIMTXT
 40
64.0
  9
$DIMCEN
 40
0.09
  9
$DIMTSZ
 40
0.0
  9
$DIMTOL
 70
     0
  9
$DIMLIM
 70
     0
  9
$DIMTIH
 70
     0
  9
$DIMTOH
 70
     0
  9
$DIMSE1
 70
     0
  9
$DIMSE2
 70
     0
  9
$DIMTAD
 70
     1
  9
$DIMZIN
 70
     8
  9
$DIMBLK
  1
DOT1
  9
$DIMASO
 70
     1
  9
$DIMSHO
 70
     0
  9
$DIMPOST
  1

  9
$DIMAPOST
  1

  9
$DIMALT
 70
     0
  9
$DIMALTD
 70
     2
  9
$DIMALTF
 40
25.399999999999999
  9
$DIMLFAC
 40
1.0
  9
$DIMTOFL
 70
     1
  9
$DIMTVP
 40
0.0
  9
$DIMTIX
 70
     1
  9
$DIMSOXD
 70
     0
  9
$DIMSAH
 70
     1
  9
$DIMBLK1
  1
ORIGIN
  9
$DIMBLK2
  1
ORIGIN
  9
$DIMSTYLE
  2
STANDARD
  9
$DIMCLRD
 70
     7
  9
$DIMCLRE
 70
     7
  9
$DIMCLRT
 70
     7
  9
$DIMTFAC
 40
1.0
  9
$DIMGAP
 40
25.0
  9
$LUNITS
 70
     2
  9
$LUPREC
 70
     4
  9
$SKETCHINC
 40
0.1
  9
$FILLETRAD
 40
2.2440000000000002
  9
$AUNITS
 70
     1
  9
$AUPREC
 70
     3
  9
$MENU
  1
ACAD
  9
$ELEVATION
 40
0.0
  9
$PELEVATION
 40
0.0
  9
$THICKNESS
 40
50.0
  9
$LIMCHECK
 70
     0
  9
$BLIPMODE
 70
     0
  9
$CHAMFERA
 40
0.0
  9
$CHAMFERB
 40
0.0
  9
$SKPOLY
 70
     0
  9
$TDCREATE
 40
2453019.6763997572
  9
$TDUPDATE
 40
2454812.4065395598
  9
$TDINDWG
 40
0.0293419444
  9
$TDUSRTIMER
 40
0.0293417593
  9
$USRTIMER
 70
     1
  9
$ANGBASE
 50
0.0
  9
$ANGDIR
 70
     0
  9
$PDMODE
 70
     3
  9
$PDSIZE
 40
-2.0
  9
$PLINEWID
 40
0.0
  9
$COORDS
 70
     0
  9
$SPLFRAME
 70
     0
  9
$SPLINETYPE
 70
     6
  9
$SPLINESEGS
 70
     8
  9
$ATTDIA
 70
     0
  9
$ATTREQ
 70
     1
  9
$HANDLING
 70
     1
  9
$HANDSEED
  5
2EA
  9
$SURFTAB1
 70
     6
  9
$SURFTAB2
 70
     6
  9
$SURFTYPE
 70
     6
  9
$SURFU
 70
     6
  9
$SURFV
 70
     6
  9
$UCSNAME
  2

  9
$UCSORG
 10
0.0
 20
0.0
 30
0.0
  9
$UCSXDIR
 10
1.0
 20
0.0
 30
0.0
  9
$UCSYDIR
 10
0.0
 20
1.0
 30
0.0
  9
$PUCSNAME
  2

  9
$PUCSORG
 10
0.0
 20
0.0
 30
0.0
  9
$PUCSXDIR
 10
1.0
 20
0.0
 30
0.0
  9
$PUCSYDIR
 10
0.0
 20
1.0
 30
0.0
  9
$USERI1
 70
     0
  9
$USERI2
 70
     0
  9
$USERI3
 70
     0
  9
$USERI4
 70
     0
  9
$USERI5
 70
     0
  9
$USERR1
 40
20.0
  9
$USERR2
 40
0.0
  9
$USERR3
 40
0.0
  9
$USERR4
 40
0.0
  9
$USERR5
 40
0.0
  9
$WORLDVIEW
 70
     1
  9
$SHADEDGE
 70
     3
  9
$SHADEDIF
 70
    70
  9
$TILEMODE
 70
     1
  9
$MAXACTVP
 70
    48
  9
$PLIMCHECK
 70
     0
  9
$PEXTMIN
 10
-1.0000000000000000E+020
 20
-1.0000000000000000E+020
 30
-1.0000000000000000E+020
  9
$PEXTMAX
 10
1.0000000000000000E+020
 20
1.0000000000000000E+020
 30
1.0000000000000000E+020
  9
$PLIMMIN
 10
0.0
 20
0.0
  9
$PLIMMAX
 10
12.0
 20
9.0
  9
$UNITMODE
 70
     0
  9
$VISRETAIN
 70
     0
  9
$PLINEGEN
 70
     0
  9
$PSLTSCALE
 70
     0
  0
ENDSEC
  0
SECTION
  2
TABLES
  0
TABLE
  2
VPORT
 70
     1
  0
VPORT
  2
*ACTIVE
 70
     0
 10
0.0
 20
0.0
 11
1.0
 21
1.0
 12
142.1105738179894
 22
15.61564266701987
 13
0.0
 23
0.0
 14
1.0
 24
1.0
 15
0.0
 25
0.0
 16
0.0
 26
0.0
 36
1.0
 17
0.0
 27
0.0
 37
0.0
 40
1053.7288287121889
 41
1.3426470588235291
 42
50.0
 43
0.0
 44
0.0
 50
0.0
 51
0.0
 71
     0
 72
  1000
 73
     1
 74
     0
 75
     0
 76
     0
 77
     0
 78
     0
  0
ENDTAB
  0
TABLE
  2
LTYPE
 70
     4
  0
LTYPE
  2
CONTINUOUS
 70
     0
  3
実線
 72
    65
 73
     0
 40
0.0
  0
LTYPE
  2
DASHDOT
 70
     0
  3
____ _ ____ _ ____ _ ____ _ ____ _ ____ _ ____
 72
    65
 73
     4
 40
5.5
 49
4.0
 49
-0.6
 49
0.3
 49
-0.6
  0
ENDTAB
  0
TABLE
  2
LAYER
 70
    12
  0
LAYER
  2
0
 70
     0
 62
     7
  6
CONTINUOUS
  0
LAYER
  2
OUTLINE
 70
     0
 62
     3
  6
CONTINUOUS
  0
LAYER
  2
SIZE
 70
     0
 62
    30
  6
CONTINUOUS
  0
LAYER
  2
BASIS
 70
     0
 62
     6
  6
DASHDOT
  0
LAYER
  2
DETAIL
 70
     0
 62
     5
  6
CONTINUOUS
  0
LAYER
  2
ARRANGE
 70
     0
 62
     1
  6
CONTINUOUS
  0
LAYER
  2
DEFPOINTS
 70
     0
 62
     7
  6
CONTINUOUS
  0
LAYER
  2
ETC
 70
     0
 62
    61
  6
CONTINUOUS
  0
LAYER
  2
FIX
 70
     0
 62
    11
  6
CONTINUOUS
  0
LAYER
  2
NOTE
 70
     0
 62
     4
  6
CONTINUOUS
  0
LAYER
  2
SERVICESPACE
 70
     0
 62
     2
  6
DASHDOT
  0
LAYER
  2
SYMBOLLINE
 70
     0
 62
    15
  6
CONTINUOUS
  0
ENDTAB
  0
TABLE
  2
STYLE
 70
     2
  0
STYLE
  2
STANDARD
 70
     0
 40
64.0
 41
0.9
 50
0.0
 71
     0
 42
64.0
  3
SIMPLEX.shx
  4
BIGFONT.shx
  0
STYLE
  2
ANNOTATIVE
 70
     0
 40
0.0
 41
1.0
 50
0.0
 71
     0
 42
0.2
  3
txt
  4

  0
ENDTAB
  0
TABLE
  2
VIEW
 70
     1
  0
VIEW
  2
ALL
 70
     0
 40
4282.6198079999967
 10
0.0
 20
41.309903999999989
 41
5940.0
 11
0.0
 21
0.0
 31
1.0
 12
0.0
 22
0.0
 32
0.0
 42
50.0
 43
0.0
 44
0.0
 50
0.0
 71
     0
  0
ENDTAB
  0
TABLE
  2
UCS
 70
     0
  0
ENDTAB
  0
TABLE
  2
APPID
 70
     5
  0
APPID
  2
ACAD
 70
     0
  0
APPID
  2
ACADANNOTATIVE
 70
     0
  0
APPID
  2
ACAD_MLEADERVER
 70
     0
  0
APPID
  2
AUTOCAD_POSTSCRIPT_FIGURE
 70
     0
  0
APPID
  2
ACAD_EXEMPT_FROM_CAD_STANDARDS
 70
     0
  0
ENDTAB
  0
TABLE
  2
DIMSTYLE
 70
     3
  0
DIMSTYLE
  2
STANDARD
 70
     0
  3

  4

  5

  6

  7

 40
1.0
 41
0.18
 42
0.0625
 43
0.38
 44
0.18
 45
0.0
 46
0.0
 47
0.0
 48
0.0
140
0.18
141
0.09
142
0.0
143
25.399999999999999
144
1.0
145
0.0
146
1.0
147
0.09
 71
     0
 72
     0
 73
     1
 74
     1
 75
     0
 76
     0
 77
     0
 78
     0
170
     0
171
     2
172
     0
173
     0
174
     0
175
     0
176
     7
177
     7
178
     7
  0
DIMSTYLE
  2
ANNOTATIVE
 70
     0
  3

  4

  5

  6

  7

 40
1.0
 41
0.18
 42
0.0625
 43
0.38
 44
0.18
 45
0.0
 46
0.0
 47
0.0
 48
0.0
140
0.18
141
0.09
142
0.0
143
25.399999999999999
144
1.0
145
0.0
146
1.0
147
0.09
 71
     0
 72
     0
 73
     1
 74
     1
 75
     0
 76
     0
 77
     0
 78
     0
170
     0
171
     2
172
     0
173
     0
174
     0
175
     0
176
     0
177
     0
178
     0
  0
ENDTAB
  0
ENDSEC
  0
SECTION
  2
BLOCKS
  0
BLOCK
  8
0
  2
$MODEL_SPACE
 70
     0
 10
0.0
 20
0.0
 30
0.0
  3
$MODEL_SPACE
  1

  0
ENDBLK
  5
28B
  8
0
  0
BLOCK
 67
     1
  8
0
  2
$PAPER_SPACE
 70
     0
 10
0.0
 20
0.0
 30
0.0
  3
$PAPER_SPACE
  1

  0
ENDBLK
  5
287
 67
     1
  8
0
  0
BLOCK
  8
0
  2
DOT1
 70
     0
 10
0.0
 20
0.0
 30
0.0
  3
DOT1
  1

  0
CIRCLE
  5
147
  8
SIZE
  6
CONTINUOUS
 62
     7
 10
0.0
 20
0.0
 30
0.0
 40
3.0
  0
ENDBLK
  5
148
  8
0
  0
BLOCK
  8
0
  2
_ORIGIN
 70
     0
 10
0.0
 20
0.0
 30
0.0
  3
_ORIGIN
  1

  0
CIRCLE
  5
14B
  8
0
  6
CONTINUOUS
 62
     7
 10
0.0
 20
0.0
 30
0.0
 40
0.5
  0
LINE
  5
14C
  8
0
  6
CONTINUOUS
 62
     7
 10
0.0
 20
0.0
 30
0.0
 11
-1.0
 21
0.0
 31
0.0
  0
ENDBLK
  5
14D
  8
0
  0
ENDSEC
  0
SECTION
  2
ENTITIES
  0
POINT
  5
14E
  8
ARRANGE
  6
CONTINUOUS
 62
     1
 10
0.0
 20
0.0
 30
0.0
  0
CIRCLE
  5
14F
  8
ARRANGE
  6
CONTINUOUS
 62
     1
 10
0.0
 20
0.0
 30
0.0
 40
40.0
  0
LINE
  5
150
  8
DETAIL
  6
CONTINUOUS
 62
     5
 10
-98.500000000000014
 20
0.0
 30
0.0
 11
-98.500000000000014
 21
76.0
 31
0.0
  0
LINE
  5
151
  8
DETAIL
  6
CONTINUOUS
 62
     5
 10
-98.500000000000014
 20
76.0
 30
0.0
 11
98.500000000000014
 21
76.0
 31
0.0
  0
LINE
  5
152
  8
DETAIL
  6
CONTINUOUS
 62
     5
 10
0.0
 20
0.0
 30
0.0
 11
-132.4999999999998
 21
0.0
 31
0.0
  0
LINE
  5
153
  8
DETAIL
  6
CONTINUOUS
 62
     5
 10
0.0
 20
-45.0
 30
0.0
 11
-111.756
 21
-45.0
 31
0.0
  0
LINE
  5
154
  8
DETAIL
  6
CONTINUOUS
 62
     5
 10
0.100799
 20
-10.0
 30
0.0
 11
-129.943961
 21
-10.0
 31
0.0
  0
LINE
  5
158
  8
DETAIL
  6
CONTINUOUS
 62
     5
 10
-132.18617299999991
 20
-7.8456839999999959
 30
0.0
 11
-132.4999999999998
 21
0.0
 31
0.0
  0
ARC
  5
159
  8
DETAIL
  6
CONTINUOUS
 62
     5
 10
-129.943961
 20
-7.7559959999999979
 30
0.0
 40
2.2440039999999981
 50
182.2906099999999
 51
270.0
  0
LINE
  5
15A
  8
DETAIL
  6
CONTINUOUS
 62
     5
 10
98.500000000000014
 20
0.0
 30
0.0
 11
98.500000000000014
 21
76.0
 31
0.0
  0
LINE
  5
15B
  8
BASIS
  6
DASHDOT
 62
     6
 10
0.0
 20
136.25193200000001
 30
0.0
 11
0.0
 21
-70.277181999999996
 31
0.0
  0
ARC
  5
15C
  8
DETAIL
  6
CONTINUOUS
 62
     5
 10
129.943961
 20
-7.7559959999999979
 30
0.0
 40
2.2440039999999981
 50
270.0
 51
357.70938999999993
  0
LINE
  5
15D
  8
DETAIL
  6
CONTINUOUS
 62
     5
 10
132.18617299999991
 20
-7.8456839999999959
 30
0.0
 11
132.4999999999998
 21
0.0
 31
0.0
  0
LINE
  5
161
  8
DETAIL
  6
CONTINUOUS
 62
     5
 10
-0.100799
 20
-10.0
 30
0.0
 11
129.943961
 21
-10.0
 31
0.0
  0
LINE
  5
162
  8
DETAIL
  6
CONTINUOUS
 62
     5
 10
0.0
 20
-45.0
 30
0.0
 11
111.756
 21
-44.999999999999993
 31
0.0
  0
LINE
  5
163
  8
DETAIL
  6
CONTINUOUS
 62
     5
 10
0.0
 20
0.0
 30
0.0
 11
132.4999999999998
 21
0.0
 31
0.0
  0
LINE
  5
166
  8
OUTLINE
  6
CONTINUOUS
 62
     3
 10
0.0
 20
0.0
 30
0.0
 11
132.4999999999998
 21
0.0
 31
0.0
  0
LINE
  5
168
  8
OUTLINE
  6
CONTINUOUS
 62
     3
 10
-0.100799
 20
-10.0
 30
0.0
 11
129.943961
 21
-10.0
 31
0.0
  0
LINE
  5
16C
  8
OUTLINE
  6
CONTINUOUS
 62
     3
 10
132.18617299999991
 20
-7.8456839999999959
 30
0.0
 11
132.4999999999998
 21
0.0
 31
0.0
  0
ARC
  5
16D
  8
OUTLINE
  6
CONTINUOUS
 62
     3
 10
129.943961
 20
-7.7559959999999979
 30
0.0
 40
2.2440039999999981
 50
270.0
 51
357.70938999999993
  0
LINE
  5
16E
  8
OUTLINE
  6
CONTINUOUS
 62
     3
 10
98.500000000000014
 20
0.0
 30
0.0
 11
98.500000000000014
 21
76.0
 31
0.0
  0
ARC
  5
16F
  8
OUTLINE
  6
CONTINUOUS
 62
     3
 10
-129.943961
 20
-7.7559959999999979
 30
0.0
 40
2.2440039999999981
 50
182.2906099999999
 51
270.0
  0
LINE
  5
170
  8
OUTLINE
  6
CONTINUOUS
 62
     3
 10
-132.18617299999991
 20
-7.8456839999999959
 30
0.0
 11
-132.4999999999998
 21
0.0
 31
0.0
  0
LINE
  5
174
  8
OUTLINE
  6
CONTINUOUS
 62
     3
 10
0.100799
 20
-10.0
 30
0.0
 11
-129.943961
 21
-10.0
 31
0.0
  0
LINE
  5
176
  8
OUTLINE
  6
CONTINUOUS
 62
     3
 10
0.0
 20
0.0
 30
0.0
 11
-132.4999999999998
 21
0.0
 31
0.0
  0
LINE
  5
177
  8
OUTLINE
  6
CONTINUOUS
 62
     3
 10
-98.500000000000014
 20
76.0
 30
0.0
 11
98.500000000000014
 21
76.0
 31
0.0
  0
LINE
  5
178
  8
OUTLINE
  6
CONTINUOUS
 62
     3
 10
-98.500000000000014
 20
0.0
 30
0.0
 11
-98.500000000000014
 21
76.0
 31
0.0
  0
LINE
  5
179
  8
SIZE
  6
CONTINUOUS
 62
    30
 10
114.0
 20
-62.381995000000003
 30
0.0
 11
114.0
 21
-228.9213299999999
 31
0.0
  0
LINE
  5
17A
  8
SIZE
  6
CONTINUOUS
 62
    30
 10
-114.0
 20
-62.381995000000003
 30
0.0
 11
-114.0
 21
-228.9213299999999
 31
0.0
  0
LINE
  5
17B
  8
SIZE
  6
CONTINUOUS
 62
    30
 10
114.0
 20
-208.9213299999999
 30
0.0
 11
-114.0
 21
-208.9213299999999
 31
0.0
  0
CIRCLE
  5
17C
  8
SIZE
  6
CONTINUOUS
 62
    30
 10
114.0
 20
-208.9213299999999
 30
0.0
 40
6.0
  0
CIRCLE
  5
17D
  8
SIZE
  6
CONTINUOUS
 62
    30
 10
-114.0
 20
-208.9213299999999
 30
0.0
 40
6.0
  0
TEXT
  5
17E
  8
SIZE
  6
CONTINUOUS
 62
    30
 10
-114.3771428571428
 20
-183.92133000000001
 30
0.0
 40
64.0
  1
φ228
 41
0.9
 72
     1
 11
0.0
 21
-183.92133000000001
 31
0.0
  0
POINT
  5
181
  8
DEFPOINTS
  6
CONTINUOUS
 62
    30
 10
-114.0
 20
-208.9213299999999
 30
0.0
  0
LINE
  5
182
  8
SIZE
  6
CONTINUOUS
 62
    30
 10
132.4999999999998
 20
-20.0
 30
0.0
 11
132.4999999999998
 21
-347.84742599999998
 31
0.0
  0
LINE
  5
183
  8
SIZE
  6
CONTINUOUS
 62
    30
 10
-132.4999999999998
 20
-20.0
 30
0.0
 11
-132.4999999999998
 21
-347.84742599999998
 31
0.0
  0
LINE
  5
184
  8
SIZE
  6
CONTINUOUS
 62
    30
 10
120.5
 20
-327.84742599999993
 30
0.0
 11
-120.5
 21
-327.84742599999993
 31
0.0
  0
CIRCLE
  5
185
  8
SIZE
  6
CONTINUOUS
 62
    30
 10
132.4999999999998
 20
-327.84742599999993
 30
0.0
 40
6.0
  0
LINE
  5
186
  8
SIZE
  6
CONTINUOUS
 62
    30
 10
132.4999999999998
 20
-327.84742599999993
 30
0.0
 11
120.5
 21
-327.84742599999993
 31
0.0
  0
CIRCLE
  5
187
  8
SIZE
  6
CONTINUOUS
 62
    30
 10
-132.4999999999998
 20
-327.84742599999993
 30
0.0
 40
6.0
  0
LINE
  5
188
  8
SIZE
  6
CONTINUOUS
 62
    30
 10
-132.4999999999998
 20
-327.84742599999993
 30
0.0
 11
-120.5
 21
-327.84742599999993
 31
0.0
  0
TEXT
  5
189
  8
SIZE
  6
CONTINUOUS
 62
    30
 10
-114.3771428571428
 20
-302.84742599999993
 30
0.0
 40
64.0
  1
φ265
 41
0.9
 72
     1
 11
0.0
 21
-302.84742599999993
 31
0.0
  0
POINT
  5
18C
  8
DEFPOINTS
  6
CONTINUOUS
 62
    30
 10
-132.4999999999998
 20
-327.84742599999993
 30
0.0
  0
LINE
  5
18D
  8
SIZE
  6
CONTINUOUS
 62
    30
 10
-131.38199499999979
 20
-45.0
 30
0.0
 11
-350.667708
 21
-45.0
 31
0.0
  0
LINE
  5
18E
  8
SIZE
  6
CONTINUOUS
 62
    30
 10
-152.5
 20
0.0
 30
0.0
 11
-350.667708
 21
0.0
 31
0.0
  0
LINE
  5
18F
  8
SIZE
  6
CONTINUOUS
 62
    30
 10
-330.667708
 20
-57.0
 30
0.0
 11
-330.667708
 21
-69.0
 31
0.0
  0
LINE
  5
190
  8
SIZE
  6
CONTINUOUS
 62
    30
 10
-330.667708
 20
12.0
 30
0.0
 11
-330.667708
 21
24.0
 31
0.0
  0
LINE
  5
191
  8
SIZE
  6
CONTINUOUS
 62
    30
 10
-330.667708
 20
-214.04245499999999
 30
0.0
 11
-330.667708
 21
-45.0
 31
0.0
  0
TEXT
  5
192
  8
SIZE
  6
CONTINUOUS
 62
    30
 10
-355.667708
 20
-189.04245542857129
 30
0.0
 40
64.0
  1
45
 50
90.0
 41
0.9
 72
     1
 11
-355.667708
 21
-142.41388399999991
 31
0.0
  0
LINE
  5
193
  8
SIZE
  6
CONTINUOUS
 62
    30
 10
-330.667708
 20
-45.0
 30
0.0
 11
-330.667708
 21
0.0
 31
0.0
  0
LINE
  5
194
  8
SIZE
  6
CONTINUOUS
 62
    30
 10
-330.667708
 20
-45.0
 30
0.0
 11
-330.667708
 21
0.0
 31
0.0
  0
CIRCLE
  5
195
  8
SIZE
  6
CONTINUOUS
 62
    30
 10
-330.667708
 20
-45.0
 30
0.0
 40
6.0
  0
LINE
  5
196
  8
SIZE
  6
CONTINUOUS
 62
    30
 10
-330.667708
 20
-45.0
 30
0.0
 11
-330.667708
 21
-57.0
 31
0.0
  0
CIRCLE
  5
197
  8
SIZE
  6
CONTINUOUS
 62
    30
 10
-330.667708
 20
0.0
 30
0.0
 40
6.0
  0
LINE
  5
198
  8
SIZE
  6
CONTINUOUS
 62
    30
 10
-330.667708
 20
0.0
 30
0.0
 11
-330.667708
 21
12.0
 31
0.0
  0
POINT
  5
19B
  8
DEFPOINTS
  6
CONTINUOUS
 62
    30
 10
-330.667708
 20
0.0
 30
0.0
  0
LINE
  5
19C
  8
SIZE
  6
CONTINUOUS
 62
    30
 10
-152.5
 20
0.0
 30
0.0
 11
-350.667708
 21
0.0
 31
0.0
  0
LINE
  5
19D
  8
SIZE
  6
CONTINUOUS
 62
    30
 10
-106.0
 20
76.0
 30
0.0
 11
-350.667708
 21
76.0
 31
0.0
  0
LINE
  5
19E
  8
SIZE
  6
CONTINUOUS
 62
    30
 10
-330.667708
 20
-12.0
 30
0.0
 11
-330.667708
 21
-24.0
 31
0.0
  0
LINE
  5
19F
  8
SIZE
  6
CONTINUOUS
 62
    30
 10
-330.667708
 20
82.0
 30
0.0
 11
-330.667708
 21
94.0
 31
0.0
  0
LINE
  5
1A0
  8
SIZE
  6
CONTINUOUS
 62
    30
 10
-330.667708
 20
239.85607899999991
 30
0.0
 11
-330.667708
 21
70.0
 31
0.0
  0
TEXT
  5
1A1
  8
SIZE
  6
CONTINUOUS
 62
    30
 10
-355.667708
 20
122.9703651428571
 30
0.0
 40
64.0
  1
76
 50
90.0
 41
0.9
 72
     1
 11
-355.667708
 21
168.227508
 31
0.0
  0
LINE
  5
1A2
  8
SIZE
  6
CONTINUOUS
 62
    30
 10
-330.667708
 20
0.0
 30
0.0
 11
-330.667708
 21
70.0
 31
0.0
  0
LINE
  5
1A3
  8
SIZE
  6
CONTINUOUS
 62
    30
 10
-330.667708
 20
0.0
 30
0.0
 11
-330.667708
 21
70.0
 31
0.0
  0
CIRCLE
  5
1A4
  8
SIZE
  6
CONTINUOUS
 62
    30
 10
-330.667708
 20
0.0
 30
0.0
 40
6.0
  0
LINE
  5
1A5
  8
SIZE
  6
CONTINUOUS
 62
    30
 10
-330.667708
 20
0.0
 30
0.0
 11
-330.667708
 21
-12.0
 31
0.0
  0
CIRCLE
  5
1A6
  8
SIZE
  6
CONTINUOUS
 62
    30
 10
-330.667708
 20
76.0
 30
0.0
 40
6.0
  0
LINE
  5
1A7
  8
SIZE
  6
CONTINUOUS
 62
    30
 10
-330.667708
 20
70.0
 30
0.0
 11
-330.667708
 21
82.0
 31
0.0
  0
POINT
  5
1AA
  8
DEFPOINTS
  6
CONTINUOUS
 62
    30
 10
-330.667708
 20
70.0
 30
0.0
  0
LINE
  5
1AB
  8
SIZE
  6
CONTINUOUS
 62
    30
 10
-152.5
 20
0.0
 30
0.0
 11
-224.158334
 21
0.0
 31
0.0
  0
LINE
  5
1AC
  8
SIZE
  6
CONTINUOUS
 62
    30
 10
-149.943961
 20
-10.0
 30
0.0
 11
-224.158334
 21
-10.0
 31
0.0
  0
LINE
  5
1AD
  8
SIZE
  6
CONTINUOUS
 62
    30
 10
-204.1583339999998
 20
12.0
 30
0.0
 11
-204.1583339999998
 21
24.0
 31
0.0
  0
LINE
  5
1AE
  8
SIZE
  6
CONTINUOUS
 62
    30
 10
-204.1583339999998
 20
-22.0
 30
0.0
 11
-204.1583339999998
 21
-34.0
 31
0.0
  0
LINE
  5
1AF
  8
SIZE
  6
CONTINUOUS
 62
    30
 10
-204.1583339999998
 20
-185.40334799999999
 30
0.0
 11
-204.1583339999998
 21
-10.0
 31
0.0
  0
TEXT
  5
1B0
  8
SIZE
  6
CONTINUOUS
 62
    30
 10
-229.1583339999998
 20
-160.403348142857
 30
0.0
 40
64.0
  1
10
 50
90.0
 41
0.9
 72
     1
 11
-229.1583339999998
 21
-119.2604909999999
 31
0.0
  0
LINE
  5
1B1
  8
SIZE
  6
CONTINUOUS
 62
    30
 10
-204.1583339999998
 20
0.0
 30
0.0
 11
-204.1583339999998
 21
-10.0
 31
0.0
  0
LINE
  5
1B2
  8
SIZE
  6
CONTINUOUS
 62
    30
 10
-204.1583339999998
 20
0.0
 30
0.0
 11
-204.1583339999998
 21
-10.0
 31
0.0
  0
CIRCLE
  5
1B3
  8
SIZE
  6
CONTINUOUS
 62
    30
 10
-204.1583339999998
 20
0.0
 30
0.0
 40
6.0
  0
LINE
  5
1B4
  8
SIZE
  6
CONTINUOUS
 62
    30
 10
-204.1583339999998
 20
0.0
 30
0.0
 11
-204.1583339999998
 21
12.0
 31
0.0
  0
CIRCLE
  5
1B5
  8
SIZE
  6
CONTINUOUS
 62
    30
 10
-204.1583339999998
 20
-10.0
 30
0.0
 40
6.0
  0
LINE
  5
1B6
  8
SIZE
  6
CONTINUOUS
 62
    30
 10
-204.1583339999998
 20
-10.0
 30
0.0
 11
-204.1583339999998
 21
-22.0
 31
0.0
  0
POINT
  5
1B9
  8
DEFPOINTS
  6
CONTINUOUS
 62
    30
 10
-204.1583339999998
 20
-10.0
 30
0.0
  0
LINE
  5
1BA
  8
SIZE
  6
CONTINUOUS
 62
    30
 10
98.500000000000014
 20
90.0
 30
0.0
 11
98.500000000000014
 21
249.21635499999991
 31
0.0
  0
LINE
  5
1BB
  8
SIZE
  6
CONTINUOUS
 62
    30
 10
-98.500000000000014
 20
90.0
 30
0.0
 11
-98.500000000000014
 21
249.21635499999991
 31
0.0
  0
LINE
  5
1BC
  8
SIZE
  6
CONTINUOUS
 62
    30
 10
98.500000000000014
 20
229.21635499999999
 30
0.0
 11
-98.500000000000014
 21
229.21635499999999
 31
0.0
  0
CIRCLE
  5
1BD
  8
SIZE
  6
CONTINUOUS
 62
    30
 10
98.500000000000014
 20
229.21635499999999
 30
0.0
 40
6.0
  0
CIRCLE
  5
1BE
  8
SIZE
  6
CONTINUOUS
 62
    30
 10
-98.500000000000014
 20
229.21635499999999
 30
0.0
 40
6.0
  0
TEXT
  5
1BF
  8
SIZE
  6
CONTINUOUS
 62
    30
 10
-108.89142857142851
 20
254.21635499999999
 30
0.0
 40
64.0
  1
φ197
 41
0.9
 72
     1
 11
0.0
 21
254.21635499999999
 31
0.0
  0
POINT
  5
1C2
  8
DEFPOINTS
  6
CONTINUOUS
 62
    30
 10
-86.0
 20
229.21635499999999
 30
0.0
  0
TEXT
  5
1C4
  8
ETC
  6
CONTINUOUS
 62
    61
 10
352.89097001202242
 20
35.051927850255041
 30
0.0
 40
50.0
  1
P-23RSD2
 41
0.9
  0
TEXT
  5
1C5
  8
ETC
  6
CONTINUOUS
 62
    61
 10
266.00100401202241
 20
231.22223385025501
 30
0.0
 40
64.0
  1
P-23RSD2_6
 41
0.9
  0
TEXT
  5
1C6
  8
ETC
  6
CONTINUOUS
 62
    61
 10
262.50132501202239
 20
139.018311850255
 30
0.0
 40
64.0
  1
システム部材
 41
0.9
  0
LINE
  5
1C8
  8
DETAIL
  6
CONTINUOUS
 62
     5
 39
50.0
 10
-114.0
 20
-42.755999999999993
 30
0.0
 11
-114.0
 21
-12.244
 31
0.0
  0
LINE
  5
1C9
  8
DETAIL
  6
CONTINUOUS
 62
     5
 39
50.0
 10
114.0
 20
-42.755999999999993
 30
0.0
 11
114.0
 21
-12.244
 31
0.0
  0
ARC
  5
1CA
  8
DETAIL
  6
CONTINUOUS
 62
     5
 10
116.2439999999999
 20
-12.244
 30
0.0
 40
2.2440000000000002
 50
90.0
 51
180.0
  0
ARC
  5
1CB
  8
DETAIL
  6
CONTINUOUS
 62
     5
 10
111.756
 20
-42.755999999999993
 30
0.0
 40
2.2440000000000002
 50
270.0
 51
0.0
  0
ARC
  5
1CC
  8
DETAIL
  6
CONTINUOUS
 62
     5
 39
50.0
 10
-111.756
 20
-42.755999999999993
 30
0.0
 40
2.2440000000000002
 50
180.0
 51
270.0
  0
ARC
  5
1CD
  8
DETAIL
  6
CONTINUOUS
 62
     5
 10
-116.2439999999999
 20
-12.244
 30
0.0
 40
2.2440000000000002
 50
0.0
 51
90.0
  0
LINE
  5
1CE
  8
OUTLINE
  6
CONTINUOUS
 62
     3
 39
50.0
 10
-114.0
 20
-12.244
 30
0.0
 11
-114.0
 21
-42.755999999999993
 31
0.0
  0
LINE
  5
1CF
  8
OUTLINE
  6
CONTINUOUS
 62
     3
 39
50.0
 10
-111.756
 20
-45.0
 30
0.0
 11
111.756
 21
-45.0
 31
0.0
  0
LINE
  5
1D0
  8
OUTLINE
  6
CONTINUOUS
 62
     3
 39
50.0
 10
114.0
 20
-42.755999999999993
 30
0.0
 11
114.0
 21
-12.244
 31
0.0
  0
ARC
  5
1D1
  8
OUTLINE
  6
CONTINUOUS
 62
     3
 10
116.2439999999999
 20
-12.244
 30
0.0
 40
2.2440000000000002
 50
90.0
 51
180.0
  0
ARC
  5
1D2
  8
OUTLINE
  6
CONTINUOUS
 62
     3
 39
50.0
 10
111.756
 20
-42.755999999999993
 30
0.0
 40
2.2440000000000002
 50
270.0
 51
0.0
  0
ARC
  5
1D3
  8
OUTLINE
  6
CONTINUOUS
 62
     3
 39
50.0
 10
-111.756
 20
-42.755999999999993
 30
0.0
 40
2.2440000000000002
 50
180.0
 51
270.0
  0
ARC
  5
1D4
  8
OUTLINE
  6
CONTINUOUS
 62
     3
 10
-116.2439999999999
 20
-12.244
 30
0.0
 40
2.2440000000000002
 50
0.0
 51
90.0
  0
ENDSEC
  0
EOF
