  0
SECTION
  2
HEADER
  9
$ACADVER
  1
AC1009
  9
$INSBASE
 10
0.0
 20
0.0
 30
0.0
  9
$EXTMIN
 10
-635.36680474105185
 20
-313.3849979068454
 30
-0.0015257624927045
  9
$EXTMAX
 10
845.1919669229427
 20
490.90576962440349
 30
50.001525995323327
  9
$LIMMIN
 10
-2970.0
 20
-2100.0
  9
$LIMMAX
 10
2970.0
 20
2100.0
  9
$ORTHOMODE
 70
     1
  9
$REGENMODE
 70
     0
  9
$FILLMODE
 70
     1
  9
$QTEXTMODE
 70
     0
  9
$MIRRTEXT
 70
     0
  9
$DRAGMODE
 70
     2
  9
$LTSCALE
 40
20.0
  9
$OSMODE
 70
    45
  9
$ATTMODE
 70
     1
  9
$TEXTSIZE
 40
64.0
  9
$TRACEWID
 40
0.05
  9
$TEXTSTYLE
  7
STANDARD
  9
$CLAYER
  8
SIZE
  9
$CELTYPE
  6
CONTINUOUS
  9
$CECOLOR
 62
    30
  9
$DIMSCALE
 40
1.0
  9
$DIMASZ
 40
12.0
  9
$DIMEXO
 40
20.0
  9
$DIMDLI
 40
200.0
  9
$DIMRND
 40
0.0
  9
$DIMDLE
 40
0.0
  9
$DIMEXE
 40
20.0
  9
$DIMTP
 40
0.0
  9
$DIMTM
 40
0.0
  9
$DIMTXT
 40
64.0
  9
$DIMCEN
 40
0.09
  9
$DIMTSZ
 40
0.0
  9
$DIMTOL
 70
     0
  9
$DIMLIM
 70
     0
  9
$DIMTIH
 70
     0
  9
$DIMTOH
 70
     0
  9
$DIMSE1
 70
     0
  9
$DIMSE2
 70
     0
  9
$DIMTAD
 70
     1
  9
$DIMZIN
 70
     8
  9
$DIMBLK
  1
DOT1
  9
$DIMASO
 70
     1
  9
$DIMSHO
 70
     0
  9
$DIMPOST
  1

  9
$DIMAPOST
  1

  9
$DIMALT
 70
     0
  9
$DIMALTD
 70
     2
  9
$DIMALTF
 40
25.399999999999999
  9
$DIMLFAC
 40
1.0
  9
$DIMTOFL
 70
     1
  9
$DIMTVP
 40
0.0
  9
$DIMTIX
 70
     1
  9
$DIMSOXD
 70
     0
  9
$DIMSAH
 70
     1
  9
$DIMBLK1
  1
ORIGIN
  9
$DIMBLK2
  1
ORIGIN
  9
$DIMSTYLE
  2
STANDARD
  9
$DIMCLRD
 70
     7
  9
$DIMCLRE
 70
     7
  9
$DIMCLRT
 70
     7
  9
$DIMTFAC
 40
1.0
  9
$DIMGAP
 40
25.0
  9
$LUNITS
 70
     2
  9
$LUPREC
 70
     4
  9
$SKETCHINC
 40
0.1
  9
$FILLETRAD
 40
5.0
  9
$AUNITS
 70
     1
  9
$AUPREC
 70
     3
  9
$MENU
  1
ACAD
  9
$ELEVATION
 40
0.0
  9
$PELEVATION
 40
0.0
  9
$THICKNESS
 40
50.0
  9
$LIMCHECK
 70
     0
  9
$BLIPMODE
 70
     0
  9
$CHAMFERA
 40
0.0
  9
$CHAMFERB
 40
0.0
  9
$SKPOLY
 70
     0
  9
$TDCREATE
 40
2453151.42464309
  9
$TDUPDATE
 40
2455047.7130337958
  9
$TDINDWG
 40
0.0986698611
  9
$TDUSRTIMER
 40
0.0986695023
  9
$USRTIMER
 70
     1
  9
$ANGBASE
 50
0.0
  9
$ANGDIR
 70
     0
  9
$PDMODE
 70
     3
  9
$PDSIZE
 40
-2.0
  9
$PLINEWID
 40
0.0
  9
$COORDS
 70
     0
  9
$SPLFRAME
 70
     0
  9
$SPLINETYPE
 70
     6
  9
$SPLINESEGS
 70
     8
  9
$ATTDIA
 70
     0
  9
$ATTREQ
 70
     1
  9
$HANDLING
 70
     1
  9
$HANDSEED
  5
A93
  9
$SURFTAB1
 70
     6
  9
$SURFTAB2
 70
     6
  9
$SURFTYPE
 70
     6
  9
$SURFU
 70
     6
  9
$SURFV
 70
     6
  9
$UCSNAME
  2

  9
$UCSORG
 10
0.0
 20
0.0
 30
0.0
  9
$UCSXDIR
 10
1.0
 20
0.0
 30
0.0
  9
$UCSYDIR
 10
0.0
 20
1.0
 30
0.0
  9
$PUCSNAME
  2

  9
$PUCSORG
 10
0.0
 20
0.0
 30
0.0
  9
$PUCSXDIR
 10
1.0
 20
0.0
 30
0.0
  9
$PUCSYDIR
 10
0.0
 20
1.0
 30
0.0
  9
$USERI1
 70
     0
  9
$USERI2
 70
     0
  9
$USERI3
 70
     0
  9
$USERI4
 70
     0
  9
$USERI5
 70
     0
  9
$USERR1
 40
20.0
  9
$USERR2
 40
0.0
  9
$USERR3
 40
0.0
  9
$USERR4
 40
0.0
  9
$USERR5
 40
0.0
  9
$WORLDVIEW
 70
     1
  9
$SHADEDGE
 70
     3
  9
$SHADEDIF
 70
    70
  9
$TILEMODE
 70
     1
  9
$MAXACTVP
 70
    48
  9
$PLIMCHECK
 70
     0
  9
$PEXTMIN
 10
-1.0000000000000000E+020
 20
-1.0000000000000000E+020
 30
-1.0000000000000000E+020
  9
$PEXTMAX
 10
1.0000000000000000E+020
 20
1.0000000000000000E+020
 30
1.0000000000000000E+020
  9
$PLIMMIN
 10
0.0
 20
0.0
  9
$PLIMMAX
 10
12.0
 20
9.0
  9
$UNITMODE
 70
     0
  9
$VISRETAIN
 70
     0
  9
$PLINEGEN
 70
     0
  9
$PSLTSCALE
 70
     0
  0
ENDSEC
  0
SECTION
  2
TABLES
  0
TABLE
  2
VPORT
 70
     1
  0
VPORT
  2
*ACTIVE
 70
     0
 10
0.0
 20
0.0
 11
1.0
 21
1.0
 12
172.02402019682489
 22
48.158788658529033
 13
0.0
 23
0.0
 14
1.0
 24
1.0
 15
0.0
 25
0.0
 16
0.0
 26
0.0
 36
1.0
 17
0.0
 27
0.0
 37
0.0
 40
1380.592027347569
 41
1.209523809523809
 42
50.0
 43
0.0
 44
0.0
 50
0.0
 51
0.0
 71
     0
 72
  1000
 73
     1
 74
     0
 75
     0
 76
     0
 77
     0
 78
     0
  0
ENDTAB
  0
TABLE
  2
LTYPE
 70
     2
  0
LTYPE
  2
CONTINUOUS
 70
     0
  3
実線
 72
    65
 73
     0
 40
0.0
  0
LTYPE
  2
DASHDOT
 70
     0
  3
____ _ ____ _ ____ _ ____ _ ____ _ ____ _ ____
 72
    65
 73
     4
 40
5.5
 49
4.0
 49
-0.6
 49
0.3
 49
-0.6
  0
ENDTAB
  0
TABLE
  2
LAYER
 70
    12
  0
LAYER
  2
0
 70
     0
 62
     7
  6
CONTINUOUS
  0
LAYER
  2
SIZE
 70
     0
 62
    30
  6
CONTINUOUS
  0
LAYER
  2
BASIS
 70
     0
 62
     6
  6
DASHDOT
  0
LAYER
  2
OUTLINE
 70
     0
 62
     3
  6
CONTINUOUS
  0
LAYER
  2
DETAIL
 70
     0
 62
     5
  6
CONTINUOUS
  0
LAYER
  2
ARRANGE
 70
     0
 62
     1
  6
CONTINUOUS
  0
LAYER
  2
DEFPOINTS
 70
     0
 62
     7
  6
CONTINUOUS
  0
LAYER
  2
ETC
 70
     0
 62
    61
  6
CONTINUOUS
  0
LAYER
  2
FIX
 70
     0
 62
    11
  6
CONTINUOUS
  0
LAYER
  2
NOTE
 70
     0
 62
     4
  6
CONTINUOUS
  0
LAYER
  2
SERVICESPACE
 70
     0
 62
     2
  6
DASHDOT
  0
LAYER
  2
SYMBOLLINE
 70
     0
 62
    15
  6
CONTINUOUS
  0
ENDTAB
  0
TABLE
  2
STYLE
 70
     2
  0
STYLE
  2
STANDARD
 70
     0
 40
64.0
 41
0.9
 50
0.0
 71
     0
 42
64.0
  3
SIMPLEX.shx
  4
BIGFONT.shx
  0
STYLE
  2
ANNOTATIVE
 70
     0
 40
0.0
 41
1.0
 50
0.0
 71
     0
 42
0.2
  3
txt
  4

  0
ENDTAB
  0
TABLE
  2
VIEW
 70
     1
  0
VIEW
  2
ALL
 70
     0
 40
4282.6198079999967
 10
0.0
 20
41.309903999999989
 41
5940.0
 11
0.0
 21
0.0
 31
1.0
 12
0.0
 22
0.0
 32
0.0
 42
50.0
 43
0.0
 44
0.0
 50
0.0
 71
     0
  0
ENDTAB
  0
TABLE
  2
UCS
 70
     0
  0
ENDTAB
  0
TABLE
  2
APPID
 70
     4
  0
APPID
  2
ACAD
 70
     0
  0
APPID
  2
ACADANNOTATIVE
 70
     0
  0
APPID
  2
ACAD_MLEADERVER
 70
     0
  0
APPID
  2
AUTOCAD_POSTSCRIPT_FIGURE
 70
     0
  0
ENDTAB
  0
TABLE
  2
DIMSTYLE
 70
     2
  0
DIMSTYLE
  2
STANDARD
 70
     0
  3

  4

  5

  6

  7

 40
1.0
 41
0.18
 42
0.0625
 43
0.38
 44
0.18
 45
0.0
 46
0.0
 47
0.0
 48
0.0
140
0.18
141
0.09
142
0.0
143
25.399999999999999
144
1.0
145
0.0
146
1.0
147
0.09
 71
     0
 72
     0
 73
     1
 74
     1
 75
     0
 76
     0
 77
     0
 78
     0
170
     0
171
     2
172
     0
173
     0
174
     0
175
     0
176
     7
177
     7
178
     7
  0
DIMSTYLE
  2
ANNOTATIVE
 70
     0
  3

  4

  5

  6

  7

 40
1.0
 41
0.18
 42
0.0625
 43
0.38
 44
0.18
 45
0.0
 46
0.0
 47
0.0
 48
0.0
140
0.18
141
0.09
142
0.0
143
25.399999999999999
144
1.0
145
0.0
146
1.0
147
0.09
 71
     0
 72
     0
 73
     1
 74
     1
 75
     0
 76
     0
 77
     0
 78
     0
170
     0
171
     2
172
     0
173
     0
174
     0
175
     0
176
     0
177
     0
178
     0
  0
ENDTAB
  0
ENDSEC
  0
SECTION
  2
BLOCKS
  0
BLOCK
  8
0
  2
$MODEL_SPACE
 70
     0
 10
0.0
 20
0.0
 30
0.0
  3
$MODEL_SPACE
  1

  0
ENDBLK
  5
A3F
  8
0
  0
BLOCK
 67
     1
  8
0
  2
$PAPER_SPACE
 70
     0
 10
0.0
 20
0.0
 30
0.0
  3
$PAPER_SPACE
  1

  0
ENDBLK
  5
A3B
 67
     1
  8
0
  0
BLOCK
  8
0
  2
DOT1
 70
     0
 10
0.0
 20
0.0
 30
0.0
  3
DOT1
  1

  0
CIRCLE
  5
52B
  8
SIZE
  6
CONTINUOUS
 62
     7
 10
0.0
 20
0.0
 30
0.0
 40
3.0
  0
ENDBLK
  5
52C
  8
0
  0
BLOCK
  8
0
  2
_ORIGIN
 70
     0
 10
0.0
 20
0.0
 30
0.0
  3
_ORIGIN
  1

  0
CIRCLE
  5
52F
  8
0
  6
CONTINUOUS
 62
     7
 10
0.0
 20
0.0
 30
0.0
 40
0.5
  0
LINE
  5
530
  8
0
  6
CONTINUOUS
 62
     7
 10
0.0
 20
0.0
 30
0.0
 11
-1.0
 21
0.0
 31
0.0
  0
ENDBLK
  5
531
  8
0
  0
ENDSEC
  0
SECTION
  2
ENTITIES
  0
LINE
  5
532
  8
BASIS
  6
DASHDOT
 62
     6
 39
50.0
 10
0.0
 20
-155.3282929999998
 30
0.0
 11
0.0
 21
76.502187000000006
 31
0.0
  0
CIRCLE
  5
533
  8
ARRANGE
  6
CONTINUOUS
 62
     1
 39
50.0
 10
0.0
 20
0.0
 30
0.0
 40
40.0
  0
POINT
  5
534
  8
ARRANGE
  6
CONTINUOUS
 62
     1
 10
0.0
 20
0.0
 30
0.0
 39
50.0
  0
LINE
  5
535
  8
DETAIL
  6
CONTINUOUS
 62
     5
 10
-89.019431999999981
 20
-20.163923
 30
0.0
 11
-92.5
 21
-20.163923
 31
0.0
  0
LINE
  5
536
  8
DETAIL
  6
CONTINUOUS
 62
     5
 10
-87.5
 20
-20.163923
 30
0.0
 11
-88.549431999999996
 21
-20.163923
 31
0.0
  0
LINE
  5
537
  8
DETAIL
  6
CONTINUOUS
 62
     5
 10
-89.019431999999981
 20
-20.633922999999982
 30
0.0
 11
-92.5
 21
-20.633922999999982
 31
0.0
  0
LINE
  5
538
  8
DETAIL
  6
CONTINUOUS
 62
     5
 10
-87.5
 20
-20.633922999999982
 30
0.0
 11
-88.549431999999996
 21
-20.633922999999982
 31
0.0
  0
LINE
  5
539
  8
DETAIL
  6
CONTINUOUS
 62
     5
 10
-91.559432000000015
 20
-20.163923
 30
0.0
 11
-91.559432000000015
 21
-15.553922999999999
 31
0.0
  0
LINE
  5
53A
  8
DETAIL
  6
CONTINUOUS
 62
     5
 10
-91.089431999999974
 20
-20.163923
 30
0.0
 11
-91.089431999999974
 21
-15.553922999999999
 31
0.0
  0
LINE
  5
53B
  8
DETAIL
  6
CONTINUOUS
 62
     5
 10
-91.559432000000015
 20
-17.623923000000001
 30
0.0
 11
-92.5
 21
-17.623923000000001
 31
0.0
  0
LINE
  5
53C
  8
DETAIL
  6
CONTINUOUS
 62
     5
 10
-87.5
 20
-17.623923000000001
 30
0.0
 11
-91.089431999999974
 21
-17.623923000000001
 31
0.0
  0
LINE
  5
53D
  8
DETAIL
  6
CONTINUOUS
 62
     5
 10
-91.559432000000015
 20
-18.093923
 30
0.0
 11
-92.5
 21
-18.093923
 31
0.0
  0
LINE
  5
53E
  8
DETAIL
  6
CONTINUOUS
 62
     5
 10
-87.5
 20
-18.093923
 30
0.0
 11
-91.089431999999974
 21
-18.093923
 31
0.0
  0
LINE
  5
53F
  8
DETAIL
  6
CONTINUOUS
 62
     5
 10
-89.019431999999981
 20
-17.623923000000001
 30
0.0
 11
-89.019431999999981
 21
-15.0
 31
0.0
  0
LINE
  5
540
  8
DETAIL
  6
CONTINUOUS
 62
     5
 10
-88.549431999999996
 20
-17.623923000000001
 30
0.0
 11
-88.549431999999996
 21
-15.0
 31
0.0
  0
LINE
  5
541
  8
DETAIL
  6
CONTINUOUS
 62
     5
 10
-89.019431999999981
 20
-15.083923
 30
0.0
 11
-92.5
 21
-15.083923
 31
0.0
  0
LINE
  5
542
  8
DETAIL
  6
CONTINUOUS
 62
     5
 10
-87.5
 20
-15.083923
 30
0.0
 11
-88.549431999999996
 21
-15.083923
 31
0.0
  0
LINE
  5
543
  8
DETAIL
  6
CONTINUOUS
 62
     5
 10
-89.019431999999981
 20
-15.553922999999999
 30
0.0
 11
-92.5
 21
-15.553922999999999
 31
0.0
  0
LINE
  5
544
  8
DETAIL
  6
CONTINUOUS
 62
     5
 10
-87.5
 20
-15.553922999999999
 30
0.0
 11
-88.549431999999996
 21
-15.553922999999999
 31
0.0
  0
LINE
  5
545
  8
DETAIL
  6
CONTINUOUS
 62
     5
 10
-91.559432000000015
 20
-15.083923
 30
0.0
 11
-91.559432000000015
 21
-15.0
 31
0.0
  0
LINE
  5
546
  8
DETAIL
  6
CONTINUOUS
 62
     5
 10
-91.089431999999974
 20
-15.083923
 30
0.0
 11
-91.089431999999974
 21
-15.0
 31
0.0
  0
LINE
  5
547
  8
DETAIL
  6
CONTINUOUS
 62
     5
 10
-81.519431999999981
 20
-20.163923
 30
0.0
 11
-85.0
 21
-20.163923
 31
0.0
  0
LINE
  5
548
  8
DETAIL
  6
CONTINUOUS
 62
     5
 10
-80.0
 20
-20.163923
 30
0.0
 11
-81.049431999999996
 21
-20.163923
 31
0.0
  0
LINE
  5
549
  8
DETAIL
  6
CONTINUOUS
 62
     5
 10
-81.519431999999981
 20
-20.633922999999982
 30
0.0
 11
-85.0
 21
-20.633922999999982
 31
0.0
  0
LINE
  5
54A
  8
DETAIL
  6
CONTINUOUS
 62
     5
 10
-80.0
 20
-20.633922999999982
 30
0.0
 11
-81.049431999999996
 21
-20.633922999999982
 31
0.0
  0
LINE
  5
54B
  8
DETAIL
  6
CONTINUOUS
 62
     5
 10
-84.059432000000015
 20
-20.163923
 30
0.0
 11
-84.059432000000015
 21
-15.553922999999999
 31
0.0
  0
LINE
  5
54C
  8
DETAIL
  6
CONTINUOUS
 62
     5
 10
-83.589431999999974
 20
-20.163923
 30
0.0
 11
-83.589431999999974
 21
-15.553922999999999
 31
0.0
  0
LINE
  5
54D
  8
DETAIL
  6
CONTINUOUS
 62
     5
 10
-84.059432000000015
 20
-17.623923000000001
 30
0.0
 11
-85.0
 21
-17.623923000000001
 31
0.0
  0
LINE
  5
54E
  8
DETAIL
  6
CONTINUOUS
 62
     5
 10
-80.0
 20
-17.623923000000001
 30
0.0
 11
-83.589431999999974
 21
-17.623923000000001
 31
0.0
  0
LINE
  5
54F
  8
DETAIL
  6
CONTINUOUS
 62
     5
 10
-84.059432000000015
 20
-18.093923
 30
0.0
 11
-85.0
 21
-18.093923
 31
0.0
  0
LINE
  5
550
  8
DETAIL
  6
CONTINUOUS
 62
     5
 10
-80.0
 20
-18.093923
 30
0.0
 11
-83.589431999999974
 21
-18.093923
 31
0.0
  0
LINE
  5
551
  8
DETAIL
  6
CONTINUOUS
 62
     5
 10
-81.519431999999981
 20
-17.623923000000001
 30
0.0
 11
-81.519431999999981
 21
-15.0
 31
0.0
  0
LINE
  5
552
  8
DETAIL
  6
CONTINUOUS
 62
     5
 10
-81.049431999999996
 20
-17.623923000000001
 30
0.0
 11
-81.049431999999996
 21
-15.0
 31
0.0
  0
LINE
  5
553
  8
DETAIL
  6
CONTINUOUS
 62
     5
 10
-81.519431999999981
 20
-15.083923
 30
0.0
 11
-85.0
 21
-15.083923
 31
0.0
  0
LINE
  5
554
  8
DETAIL
  6
CONTINUOUS
 62
     5
 10
-80.0
 20
-15.083923
 30
0.0
 11
-81.049431999999996
 21
-15.083923
 31
0.0
  0
LINE
  5
555
  8
DETAIL
  6
CONTINUOUS
 62
     5
 10
-81.519431999999981
 20
-15.553922999999999
 30
0.0
 11
-85.0
 21
-15.553922999999999
 31
0.0
  0
LINE
  5
556
  8
DETAIL
  6
CONTINUOUS
 62
     5
 10
-80.0
 20
-15.553922999999999
 30
0.0
 11
-81.049431999999996
 21
-15.553922999999999
 31
0.0
  0
LINE
  5
557
  8
DETAIL
  6
CONTINUOUS
 62
     5
 10
-84.059432000000015
 20
-15.083923
 30
0.0
 11
-84.059432000000015
 21
-15.0
 31
0.0
  0
LINE
  5
558
  8
DETAIL
  6
CONTINUOUS
 62
     5
 10
-83.589431999999974
 20
-15.083923
 30
0.0
 11
-83.589431999999974
 21
-15.0
 31
0.0
  0
LINE
  5
559
  8
DETAIL
  6
CONTINUOUS
 62
     5
 10
-74.019431999999981
 20
-21.699999999999989
 30
0.0
 11
-74.019431999999981
 21
-18.093923
 31
0.0
  0
LINE
  5
55A
  8
DETAIL
  6
CONTINUOUS
 62
     5
 10
-73.549431999999982
 20
-21.699999999999989
 30
0.0
 11
-73.549431999999982
 21
-18.093923
 31
0.0
  0
LINE
  5
55B
  8
DETAIL
  6
CONTINUOUS
 62
     5
 10
-74.019431999999981
 20
-20.163923
 30
0.0
 11
-77.5
 21
-20.163923
 31
0.0
  0
LINE
  5
55C
  8
DETAIL
  6
CONTINUOUS
 62
     5
 10
-72.5
 20
-20.163923
 30
0.0
 11
-73.549431999999982
 21
-20.163923
 31
0.0
  0
LINE
  5
55D
  8
DETAIL
  6
CONTINUOUS
 62
     5
 10
-74.019431999999981
 20
-20.633922999999982
 30
0.0
 11
-77.5
 21
-20.633922999999982
 31
0.0
  0
LINE
  5
55E
  8
DETAIL
  6
CONTINUOUS
 62
     5
 10
-72.5
 20
-20.633922999999982
 30
0.0
 11
-73.549431999999982
 21
-20.633922999999982
 31
0.0
  0
LINE
  5
55F
  8
DETAIL
  6
CONTINUOUS
 62
     5
 10
-76.559432000000001
 20
-20.163923
 30
0.0
 11
-76.559432000000001
 21
-15.553922999999999
 31
0.0
  0
LINE
  5
560
  8
DETAIL
  6
CONTINUOUS
 62
     5
 10
-76.089431999999974
 20
-20.163923
 30
0.0
 11
-76.089431999999974
 21
-15.553922999999999
 31
0.0
  0
LINE
  5
561
  8
DETAIL
  6
CONTINUOUS
 62
     5
 10
-76.559432000000001
 20
-17.623923000000001
 30
0.0
 11
-77.5
 21
-17.623923000000001
 31
0.0
  0
LINE
  5
562
  8
DETAIL
  6
CONTINUOUS
 62
     5
 10
-72.5
 20
-17.623923000000001
 30
0.0
 11
-76.089431999999974
 21
-17.623923000000001
 31
0.0
  0
LINE
  5
563
  8
DETAIL
  6
CONTINUOUS
 62
     5
 10
-76.559432000000001
 20
-18.093923
 30
0.0
 11
-77.5
 21
-18.093923
 31
0.0
  0
LINE
  5
564
  8
DETAIL
  6
CONTINUOUS
 62
     5
 10
-72.5
 20
-18.093923
 30
0.0
 11
-76.089431999999974
 21
-18.093923
 31
0.0
  0
LINE
  5
565
  8
DETAIL
  6
CONTINUOUS
 62
     5
 10
-74.019431999999981
 20
-17.623923000000001
 30
0.0
 11
-74.019431999999981
 21
-15.0
 31
0.0
  0
LINE
  5
566
  8
DETAIL
  6
CONTINUOUS
 62
     5
 10
-73.549431999999982
 20
-17.623923000000001
 30
0.0
 11
-73.549431999999982
 21
-15.0
 31
0.0
  0
LINE
  5
567
  8
DETAIL
  6
CONTINUOUS
 62
     5
 10
-74.019431999999981
 20
-15.083923
 30
0.0
 11
-77.5
 21
-15.083923
 31
0.0
  0
LINE
  5
568
  8
DETAIL
  6
CONTINUOUS
 62
     5
 10
-72.5
 20
-15.083923
 30
0.0
 11
-73.549431999999982
 21
-15.083923
 31
0.0
  0
LINE
  5
569
  8
DETAIL
  6
CONTINUOUS
 62
     5
 10
-74.019431999999981
 20
-15.553922999999999
 30
0.0
 11
-77.5
 21
-15.553922999999999
 31
0.0
  0
LINE
  5
56A
  8
DETAIL
  6
CONTINUOUS
 62
     5
 10
-72.5
 20
-15.553922999999999
 30
0.0
 11
-73.549431999999982
 21
-15.553922999999999
 31
0.0
  0
LINE
  5
56B
  8
DETAIL
  6
CONTINUOUS
 62
     5
 10
-76.559432000000001
 20
-15.083923
 30
0.0
 11
-76.559432000000001
 21
-15.0
 31
0.0
  0
LINE
  5
56C
  8
DETAIL
  6
CONTINUOUS
 62
     5
 10
-76.089431999999974
 20
-15.083923
 30
0.0
 11
-76.089431999999974
 21
-15.0
 31
0.0
  0
LINE
  5
56D
  8
DETAIL
  6
CONTINUOUS
 62
     5
 10
-69.059432000000001
 20
-21.699999999999989
 30
0.0
 11
-69.059432000000001
 21
-20.633922999999982
 31
0.0
  0
LINE
  5
56E
  8
DETAIL
  6
CONTINUOUS
 62
     5
 10
-68.589431999999974
 20
-21.699999999999989
 30
0.0
 11
-68.589431999999974
 21
-20.633922999999982
 31
0.0
  0
LINE
  5
56F
  8
DETAIL
  6
CONTINUOUS
 62
     5
 10
-66.519431999999995
 20
-21.699999999999989
 30
0.0
 11
-66.519431999999995
 21
-18.093923
 31
0.0
  0
LINE
  5
570
  8
DETAIL
  6
CONTINUOUS
 62
     5
 10
-66.049431999999996
 20
-21.699999999999989
 30
0.0
 11
-66.049431999999996
 21
-18.093923
 31
0.0
  0
LINE
  5
571
  8
DETAIL
  6
CONTINUOUS
 62
     5
 10
-66.519431999999995
 20
-20.163923
 30
0.0
 11
-70.0
 21
-20.163923
 31
0.0
  0
LINE
  5
572
  8
DETAIL
  6
CONTINUOUS
 62
     5
 10
-65.0
 20
-20.163923
 30
0.0
 11
-66.049431999999996
 21
-20.163923
 31
0.0
  0
LINE
  5
573
  8
DETAIL
  6
CONTINUOUS
 62
     5
 10
-66.519431999999995
 20
-20.633922999999982
 30
0.0
 11
-70.0
 21
-20.633922999999982
 31
0.0
  0
LINE
  5
574
  8
DETAIL
  6
CONTINUOUS
 62
     5
 10
-65.0
 20
-20.633922999999982
 30
0.0
 11
-66.049431999999996
 21
-20.633922999999982
 31
0.0
  0
LINE
  5
575
  8
DETAIL
  6
CONTINUOUS
 62
     5
 10
-69.059432000000001
 20
-20.163923
 30
0.0
 11
-69.059432000000001
 21
-15.553922999999999
 31
0.0
  0
LINE
  5
576
  8
DETAIL
  6
CONTINUOUS
 62
     5
 10
-68.589431999999974
 20
-20.163923
 30
0.0
 11
-68.589431999999974
 21
-15.553922999999999
 31
0.0
  0
LINE
  5
577
  8
DETAIL
  6
CONTINUOUS
 62
     5
 10
-69.059432000000001
 20
-17.623923000000001
 30
0.0
 11
-70.0
 21
-17.623923000000001
 31
0.0
  0
LINE
  5
578
  8
DETAIL
  6
CONTINUOUS
 62
     5
 10
-65.0
 20
-17.623923000000001
 30
0.0
 11
-68.589431999999974
 21
-17.623923000000001
 31
0.0
  0
LINE
  5
579
  8
DETAIL
  6
CONTINUOUS
 62
     5
 10
-69.059432000000001
 20
-18.093923
 30
0.0
 11
-70.0
 21
-18.093923
 31
0.0
  0
LINE
  5
57A
  8
DETAIL
  6
CONTINUOUS
 62
     5
 10
-65.0
 20
-18.093923
 30
0.0
 11
-68.589431999999974
 21
-18.093923
 31
0.0
  0
LINE
  5
57B
  8
DETAIL
  6
CONTINUOUS
 62
     5
 10
-66.519431999999995
 20
-17.623923000000001
 30
0.0
 11
-66.519431999999995
 21
-15.0
 31
0.0
  0
LINE
  5
57C
  8
DETAIL
  6
CONTINUOUS
 62
     5
 10
-66.049431999999996
 20
-17.623923000000001
 30
0.0
 11
-66.049431999999996
 21
-15.0
 31
0.0
  0
LINE
  5
57D
  8
DETAIL
  6
CONTINUOUS
 62
     5
 10
-66.519431999999995
 20
-15.083923
 30
0.0
 11
-70.0
 21
-15.083923
 31
0.0
  0
LINE
  5
57E
  8
DETAIL
  6
CONTINUOUS
 62
     5
 10
-65.0
 20
-15.083923
 30
0.0
 11
-66.049431999999996
 21
-15.083923
 31
0.0
  0
LINE
  5
57F
  8
DETAIL
  6
CONTINUOUS
 62
     5
 10
-66.519431999999995
 20
-15.553922999999999
 30
0.0
 11
-70.0
 21
-15.553922999999999
 31
0.0
  0
LINE
  5
580
  8
DETAIL
  6
CONTINUOUS
 62
     5
 10
-65.0
 20
-15.553922999999999
 30
0.0
 11
-66.049431999999996
 21
-15.553922999999999
 31
0.0
  0
LINE
  5
581
  8
DETAIL
  6
CONTINUOUS
 62
     5
 10
-69.059432000000001
 20
-15.083923
 30
0.0
 11
-69.059432000000001
 21
-15.0
 31
0.0
  0
LINE
  5
582
  8
DETAIL
  6
CONTINUOUS
 62
     5
 10
-68.589431999999974
 20
-15.083923
 30
0.0
 11
-68.589431999999974
 21
-15.0
 31
0.0
  0
LINE
  5
583
  8
DETAIL
  6
CONTINUOUS
 62
     5
 10
-61.559431999999987
 20
-21.699999999999989
 30
0.0
 11
-61.559431999999987
 21
-20.633922999999982
 31
0.0
  0
LINE
  5
584
  8
DETAIL
  6
CONTINUOUS
 62
     5
 10
-61.089431999999981
 20
-21.699999999999989
 30
0.0
 11
-61.089431999999981
 21
-20.633922999999982
 31
0.0
  0
LINE
  5
585
  8
DETAIL
  6
CONTINUOUS
 62
     5
 10
-59.019431999999981
 20
-21.699999999999989
 30
0.0
 11
-59.019431999999981
 21
-18.093923
 31
0.0
  0
LINE
  5
586
  8
DETAIL
  6
CONTINUOUS
 62
     5
 10
-58.54943200000001
 20
-21.699999999999989
 30
0.0
 11
-58.54943200000001
 21
-18.093923
 31
0.0
  0
LINE
  5
587
  8
DETAIL
  6
CONTINUOUS
 62
     5
 10
-59.019431999999981
 20
-20.163923
 30
0.0
 11
-62.5
 21
-20.163923
 31
0.0
  0
LINE
  5
588
  8
DETAIL
  6
CONTINUOUS
 62
     5
 10
-57.5
 20
-20.163923
 30
0.0
 11
-58.54943200000001
 21
-20.163923
 31
0.0
  0
LINE
  5
589
  8
DETAIL
  6
CONTINUOUS
 62
     5
 10
-59.019431999999981
 20
-20.633922999999982
 30
0.0
 11
-62.5
 21
-20.633922999999982
 31
0.0
  0
LINE
  5
58A
  8
DETAIL
  6
CONTINUOUS
 62
     5
 10
-57.5
 20
-20.633922999999982
 30
0.0
 11
-58.54943200000001
 21
-20.633922999999982
 31
0.0
  0
LINE
  5
58B
  8
DETAIL
  6
CONTINUOUS
 62
     5
 10
-61.559431999999987
 20
-20.163923
 30
0.0
 11
-61.559431999999987
 21
-15.553922999999999
 31
0.0
  0
LINE
  5
58C
  8
DETAIL
  6
CONTINUOUS
 62
     5
 10
-61.089431999999981
 20
-20.163923
 30
0.0
 11
-61.089431999999981
 21
-15.553922999999999
 31
0.0
  0
LINE
  5
58D
  8
DETAIL
  6
CONTINUOUS
 62
     5
 10
-61.559431999999987
 20
-17.623923000000001
 30
0.0
 11
-62.5
 21
-17.623923000000001
 31
0.0
  0
LINE
  5
58E
  8
DETAIL
  6
CONTINUOUS
 62
     5
 10
-57.5
 20
-17.623923000000001
 30
0.0
 11
-61.089431999999981
 21
-17.623923000000001
 31
0.0
  0
LINE
  5
58F
  8
DETAIL
  6
CONTINUOUS
 62
     5
 10
-61.559431999999987
 20
-18.093923
 30
0.0
 11
-62.5
 21
-18.093923
 31
0.0
  0
LINE
  5
590
  8
DETAIL
  6
CONTINUOUS
 62
     5
 10
-57.5
 20
-18.093923
 30
0.0
 11
-61.089431999999981
 21
-18.093923
 31
0.0
  0
LINE
  5
591
  8
DETAIL
  6
CONTINUOUS
 62
     5
 10
-59.019431999999981
 20
-17.623923000000001
 30
0.0
 11
-59.019431999999981
 21
-15.0
 31
0.0
  0
LINE
  5
592
  8
DETAIL
  6
CONTINUOUS
 62
     5
 10
-58.54943200000001
 20
-17.623923000000001
 30
0.0
 11
-58.54943200000001
 21
-15.0
 31
0.0
  0
LINE
  5
593
  8
DETAIL
  6
CONTINUOUS
 62
     5
 10
-59.019431999999981
 20
-15.083923
 30
0.0
 11
-62.5
 21
-15.083923
 31
0.0
  0
LINE
  5
594
  8
DETAIL
  6
CONTINUOUS
 62
     5
 10
-57.5
 20
-15.083923
 30
0.0
 11
-58.54943200000001
 21
-15.083923
 31
0.0
  0
LINE
  5
595
  8
DETAIL
  6
CONTINUOUS
 62
     5
 10
-59.019431999999981
 20
-15.553922999999999
 30
0.0
 11
-62.5
 21
-15.553922999999999
 31
0.0
  0
LINE
  5
596
  8
DETAIL
  6
CONTINUOUS
 62
     5
 10
-57.5
 20
-15.553922999999999
 30
0.0
 11
-58.54943200000001
 21
-15.553922999999999
 31
0.0
  0
LINE
  5
597
  8
DETAIL
  6
CONTINUOUS
 62
     5
 10
-61.559431999999987
 20
-15.083923
 30
0.0
 11
-61.559431999999987
 21
-15.0
 31
0.0
  0
LINE
  5
598
  8
DETAIL
  6
CONTINUOUS
 62
     5
 10
-61.089431999999981
 20
-15.083923
 30
0.0
 11
-61.089431999999981
 21
-15.0
 31
0.0
  0
LINE
  5
599
  8
DETAIL
  6
CONTINUOUS
 62
     5
 10
-54.059431999999987
 20
-21.699999999999989
 30
0.0
 11
-54.059431999999987
 21
-20.633922999999982
 31
0.0
  0
LINE
  5
59A
  8
DETAIL
  6
CONTINUOUS
 62
     5
 10
-53.589431999999981
 20
-21.699999999999989
 30
0.0
 11
-53.589431999999981
 21
-20.633922999999982
 31
0.0
  0
LINE
  5
59B
  8
DETAIL
  6
CONTINUOUS
 62
     5
 10
-51.519432000000002
 20
-21.699999999999989
 30
0.0
 11
-51.519432000000002
 21
-18.093923
 31
0.0
  0
LINE
  5
59C
  8
DETAIL
  6
CONTINUOUS
 62
     5
 10
-51.04943200000001
 20
-21.699999999999989
 30
0.0
 11
-51.04943200000001
 21
-18.093923
 31
0.0
  0
LINE
  5
59D
  8
DETAIL
  6
CONTINUOUS
 62
     5
 10
-51.519432000000002
 20
-20.163923
 30
0.0
 11
-55.0
 21
-20.163923
 31
0.0
  0
LINE
  5
59E
  8
DETAIL
  6
CONTINUOUS
 62
     5
 10
-50.0
 20
-20.163923
 30
0.0
 11
-51.04943200000001
 21
-20.163923
 31
0.0
  0
LINE
  5
59F
  8
DETAIL
  6
CONTINUOUS
 62
     5
 10
-51.519432000000002
 20
-20.633922999999982
 30
0.0
 11
-55.0
 21
-20.633922999999982
 31
0.0
  0
LINE
  5
5A0
  8
DETAIL
  6
CONTINUOUS
 62
     5
 10
-50.0
 20
-20.633922999999982
 30
0.0
 11
-51.04943200000001
 21
-20.633922999999982
 31
0.0
  0
LINE
  5
5A1
  8
DETAIL
  6
CONTINUOUS
 62
     5
 10
-54.059431999999987
 20
-20.163923
 30
0.0
 11
-54.059431999999987
 21
-15.553922999999999
 31
0.0
  0
LINE
  5
5A2
  8
DETAIL
  6
CONTINUOUS
 62
     5
 10
-53.589431999999981
 20
-20.163923
 30
0.0
 11
-53.589431999999981
 21
-15.553922999999999
 31
0.0
  0
LINE
  5
5A3
  8
DETAIL
  6
CONTINUOUS
 62
     5
 10
-54.059431999999987
 20
-17.623923000000001
 30
0.0
 11
-55.0
 21
-17.623923000000001
 31
0.0
  0
LINE
  5
5A4
  8
DETAIL
  6
CONTINUOUS
 62
     5
 10
-50.0
 20
-17.623923000000001
 30
0.0
 11
-53.589431999999981
 21
-17.623923000000001
 31
0.0
  0
LINE
  5
5A5
  8
DETAIL
  6
CONTINUOUS
 62
     5
 10
-54.059431999999987
 20
-18.093923
 30
0.0
 11
-55.0
 21
-18.093923
 31
0.0
  0
LINE
  5
5A6
  8
DETAIL
  6
CONTINUOUS
 62
     5
 10
-50.0
 20
-18.093923
 30
0.0
 11
-53.589431999999981
 21
-18.093923
 31
0.0
  0
LINE
  5
5A7
  8
DETAIL
  6
CONTINUOUS
 62
     5
 10
-51.519432000000002
 20
-17.623923000000001
 30
0.0
 11
-51.519432000000002
 21
-15.0
 31
0.0
  0
LINE
  5
5A8
  8
DETAIL
  6
CONTINUOUS
 62
     5
 10
-51.04943200000001
 20
-17.623923000000001
 30
0.0
 11
-51.04943200000001
 21
-15.0
 31
0.0
  0
LINE
  5
5A9
  8
DETAIL
  6
CONTINUOUS
 62
     5
 10
-51.519432000000002
 20
-15.083923
 30
0.0
 11
-55.0
 21
-15.083923
 31
0.0
  0
LINE
  5
5AA
  8
DETAIL
  6
CONTINUOUS
 62
     5
 10
-50.0
 20
-15.083923
 30
0.0
 11
-51.04943200000001
 21
-15.083923
 31
0.0
  0
LINE
  5
5AB
  8
DETAIL
  6
CONTINUOUS
 62
     5
 10
-51.519432000000002
 20
-15.553922999999999
 30
0.0
 11
-55.0
 21
-15.553922999999999
 31
0.0
  0
LINE
  5
5AC
  8
DETAIL
  6
CONTINUOUS
 62
     5
 10
-50.0
 20
-15.553922999999999
 30
0.0
 11
-51.04943200000001
 21
-15.553922999999999
 31
0.0
  0
LINE
  5
5AD
  8
DETAIL
  6
CONTINUOUS
 62
     5
 10
-54.059431999999987
 20
-15.083923
 30
0.0
 11
-54.059431999999987
 21
-15.0
 31
0.0
  0
LINE
  5
5AE
  8
DETAIL
  6
CONTINUOUS
 62
     5
 10
-53.589431999999981
 20
-15.083923
 30
0.0
 11
-53.589431999999981
 21
-15.0
 31
0.0
  0
LINE
  5
5AF
  8
DETAIL
  6
CONTINUOUS
 62
     5
 10
-46.559432000000001
 20
-21.699999999999989
 30
0.0
 11
-46.559432000000001
 21
-20.633922999999982
 31
0.0
  0
LINE
  5
5B0
  8
DETAIL
  6
CONTINUOUS
 62
     5
 10
-46.089432000000002
 20
-21.699999999999989
 30
0.0
 11
-46.089432000000002
 21
-20.633922999999982
 31
0.0
  0
LINE
  5
5B1
  8
DETAIL
  6
CONTINUOUS
 62
     5
 10
-44.019432000000002
 20
-21.699999999999989
 30
0.0
 11
-44.019432000000002
 21
-18.093923
 31
0.0
  0
LINE
  5
5B2
  8
DETAIL
  6
CONTINUOUS
 62
     5
 10
-43.549432000000003
 20
-21.699999999999989
 30
0.0
 11
-43.549432000000003
 21
-18.093923
 31
0.0
  0
LINE
  5
5B3
  8
DETAIL
  6
CONTINUOUS
 62
     5
 10
-44.019432000000002
 20
-20.163923
 30
0.0
 11
-47.5
 21
-20.163923
 31
0.0
  0
LINE
  5
5B4
  8
DETAIL
  6
CONTINUOUS
 62
     5
 10
-42.5
 20
-20.163923
 30
0.0
 11
-43.549432000000003
 21
-20.163923
 31
0.0
  0
LINE
  5
5B5
  8
DETAIL
  6
CONTINUOUS
 62
     5
 10
-44.019432000000002
 20
-20.633922999999982
 30
0.0
 11
-47.5
 21
-20.633922999999982
 31
0.0
  0
LINE
  5
5B6
  8
DETAIL
  6
CONTINUOUS
 62
     5
 10
-42.5
 20
-20.633922999999982
 30
0.0
 11
-43.549432000000003
 21
-20.633922999999982
 31
0.0
  0
LINE
  5
5B7
  8
DETAIL
  6
CONTINUOUS
 62
     5
 10
-46.559432000000001
 20
-20.163923
 30
0.0
 11
-46.559432000000001
 21
-15.553922999999999
 31
0.0
  0
LINE
  5
5B8
  8
DETAIL
  6
CONTINUOUS
 62
     5
 10
-46.089432000000002
 20
-20.163923
 30
0.0
 11
-46.089432000000002
 21
-15.553922999999999
 31
0.0
  0
LINE
  5
5B9
  8
DETAIL
  6
CONTINUOUS
 62
     5
 10
-46.559432000000001
 20
-17.623923000000001
 30
0.0
 11
-47.5
 21
-17.623923000000001
 31
0.0
  0
LINE
  5
5BA
  8
DETAIL
  6
CONTINUOUS
 62
     5
 10
-42.5
 20
-17.623923000000001
 30
0.0
 11
-46.089432000000002
 21
-17.623923000000001
 31
0.0
  0
LINE
  5
5BB
  8
DETAIL
  6
CONTINUOUS
 62
     5
 10
-46.559432000000001
 20
-18.093923
 30
0.0
 11
-47.5
 21
-18.093923
 31
0.0
  0
LINE
  5
5BC
  8
DETAIL
  6
CONTINUOUS
 62
     5
 10
-42.5
 20
-18.093923
 30
0.0
 11
-46.089432000000002
 21
-18.093923
 31
0.0
  0
LINE
  5
5BD
  8
DETAIL
  6
CONTINUOUS
 62
     5
 10
-44.019432000000002
 20
-17.623923000000001
 30
0.0
 11
-44.019432000000002
 21
-15.0
 31
0.0
  0
LINE
  5
5BE
  8
DETAIL
  6
CONTINUOUS
 62
     5
 10
-43.549432000000003
 20
-17.623923000000001
 30
0.0
 11
-43.549432000000003
 21
-15.0
 31
0.0
  0
LINE
  5
5BF
  8
DETAIL
  6
CONTINUOUS
 62
     5
 10
-44.019432000000002
 20
-15.083923
 30
0.0
 11
-47.5
 21
-15.083923
 31
0.0
  0
LINE
  5
5C0
  8
DETAIL
  6
CONTINUOUS
 62
     5
 10
-42.5
 20
-15.083923
 30
0.0
 11
-43.549432000000003
 21
-15.083923
 31
0.0
  0
LINE
  5
5C1
  8
DETAIL
  6
CONTINUOUS
 62
     5
 10
-44.019432000000002
 20
-15.553922999999999
 30
0.0
 11
-47.5
 21
-15.553922999999999
 31
0.0
  0
LINE
  5
5C2
  8
DETAIL
  6
CONTINUOUS
 62
     5
 10
-42.5
 20
-15.553922999999999
 30
0.0
 11
-43.549432000000003
 21
-15.553922999999999
 31
0.0
  0
LINE
  5
5C3
  8
DETAIL
  6
CONTINUOUS
 62
     5
 10
-46.559432000000001
 20
-15.083923
 30
0.0
 11
-46.559432000000001
 21
-15.0
 31
0.0
  0
LINE
  5
5C4
  8
DETAIL
  6
CONTINUOUS
 62
     5
 10
-46.089432000000002
 20
-15.083923
 30
0.0
 11
-46.089432000000002
 21
-15.0
 31
0.0
  0
LINE
  5
5C5
  8
DETAIL
  6
CONTINUOUS
 62
     5
 10
-39.059432000000001
 20
-21.699999999999989
 30
0.0
 11
-39.059432000000001
 21
-20.633922999999982
 31
0.0
  0
LINE
  5
5C6
  8
DETAIL
  6
CONTINUOUS
 62
     5
 10
-38.589432000000002
 20
-21.699999999999989
 30
0.0
 11
-38.589432000000002
 21
-20.633922999999982
 31
0.0
  0
LINE
  5
5C7
  8
DETAIL
  6
CONTINUOUS
 62
     5
 10
-36.519432000000002
 20
-21.699999999999989
 30
0.0
 11
-36.519432000000002
 21
-18.093923
 31
0.0
  0
LINE
  5
5C8
  8
DETAIL
  6
CONTINUOUS
 62
     5
 10
-36.04943200000001
 20
-21.699999999999989
 30
0.0
 11
-36.04943200000001
 21
-18.093923
 31
0.0
  0
LINE
  5
5C9
  8
DETAIL
  6
CONTINUOUS
 62
     5
 10
-36.519432000000002
 20
-20.163923
 30
0.0
 11
-40.0
 21
-20.163923
 31
0.0
  0
LINE
  5
5CA
  8
DETAIL
  6
CONTINUOUS
 62
     5
 10
-35.0
 20
-20.163923
 30
0.0
 11
-36.04943200000001
 21
-20.163923
 31
0.0
  0
LINE
  5
5CB
  8
DETAIL
  6
CONTINUOUS
 62
     5
 10
-36.519432000000002
 20
-20.633922999999982
 30
0.0
 11
-40.0
 21
-20.633922999999982
 31
0.0
  0
LINE
  5
5CC
  8
DETAIL
  6
CONTINUOUS
 62
     5
 10
-35.0
 20
-20.633922999999982
 30
0.0
 11
-36.04943200000001
 21
-20.633922999999982
 31
0.0
  0
LINE
  5
5CD
  8
DETAIL
  6
CONTINUOUS
 62
     5
 10
-39.059432000000001
 20
-20.163923
 30
0.0
 11
-39.059432000000001
 21
-15.553922999999999
 31
0.0
  0
LINE
  5
5CE
  8
DETAIL
  6
CONTINUOUS
 62
     5
 10
-38.589432000000002
 20
-20.163923
 30
0.0
 11
-38.589432000000002
 21
-15.553922999999999
 31
0.0
  0
LINE
  5
5CF
  8
DETAIL
  6
CONTINUOUS
 62
     5
 10
-39.059432000000001
 20
-17.623923000000001
 30
0.0
 11
-40.0
 21
-17.623923000000001
 31
0.0
  0
LINE
  5
5D0
  8
DETAIL
  6
CONTINUOUS
 62
     5
 10
-35.0
 20
-17.623923000000001
 30
0.0
 11
-38.589432000000002
 21
-17.623923000000001
 31
0.0
  0
LINE
  5
5D1
  8
DETAIL
  6
CONTINUOUS
 62
     5
 10
-39.059432000000001
 20
-18.093923
 30
0.0
 11
-40.0
 21
-18.093923
 31
0.0
  0
LINE
  5
5D2
  8
DETAIL
  6
CONTINUOUS
 62
     5
 10
-35.0
 20
-18.093923
 30
0.0
 11
-38.589432000000002
 21
-18.093923
 31
0.0
  0
LINE
  5
5D3
  8
DETAIL
  6
CONTINUOUS
 62
     5
 10
-36.519432000000002
 20
-17.623923000000001
 30
0.0
 11
-36.519432000000002
 21
-15.0
 31
0.0
  0
LINE
  5
5D4
  8
DETAIL
  6
CONTINUOUS
 62
     5
 10
-36.04943200000001
 20
-17.623923000000001
 30
0.0
 11
-36.04943200000001
 21
-15.0
 31
0.0
  0
LINE
  5
5D5
  8
DETAIL
  6
CONTINUOUS
 62
     5
 10
-36.519432000000002
 20
-15.083923
 30
0.0
 11
-40.0
 21
-15.083923
 31
0.0
  0
LINE
  5
5D6
  8
DETAIL
  6
CONTINUOUS
 62
     5
 10
-35.0
 20
-15.083923
 30
0.0
 11
-36.04943200000001
 21
-15.083923
 31
0.0
  0
LINE
  5
5D7
  8
DETAIL
  6
CONTINUOUS
 62
     5
 10
-36.519432000000002
 20
-15.553922999999999
 30
0.0
 11
-40.0
 21
-15.553922999999999
 31
0.0
  0
LINE
  5
5D8
  8
DETAIL
  6
CONTINUOUS
 62
     5
 10
-35.0
 20
-15.553922999999999
 30
0.0
 11
-36.04943200000001
 21
-15.553922999999999
 31
0.0
  0
LINE
  5
5D9
  8
DETAIL
  6
CONTINUOUS
 62
     5
 10
-39.059432000000001
 20
-15.083923
 30
0.0
 11
-39.059432000000001
 21
-15.0
 31
0.0
  0
LINE
  5
5DA
  8
DETAIL
  6
CONTINUOUS
 62
     5
 10
-38.589432000000002
 20
-15.083923
 30
0.0
 11
-38.589432000000002
 21
-15.0
 31
0.0
  0
LINE
  5
5DB
  8
DETAIL
  6
CONTINUOUS
 62
     5
 10
-31.559432000000001
 20
-21.699999999999989
 30
0.0
 11
-31.559432000000001
 21
-20.633922999999982
 31
0.0
  0
LINE
  5
5DC
  8
DETAIL
  6
CONTINUOUS
 62
     5
 10
-31.089431999999999
 20
-21.699999999999989
 30
0.0
 11
-31.089431999999999
 21
-20.633922999999982
 31
0.0
  0
LINE
  5
5DD
  8
DETAIL
  6
CONTINUOUS
 62
     5
 10
-29.019431999999991
 20
-21.699999999999989
 30
0.0
 11
-29.019431999999991
 21
-18.093923
 31
0.0
  0
LINE
  5
5DE
  8
DETAIL
  6
CONTINUOUS
 62
     5
 10
-28.549431999999999
 20
-21.699999999999989
 30
0.0
 11
-28.549431999999999
 21
-18.093923
 31
0.0
  0
LINE
  5
5DF
  8
DETAIL
  6
CONTINUOUS
 62
     5
 10
-29.019431999999991
 20
-20.163923
 30
0.0
 11
-32.5
 21
-20.163923
 31
0.0
  0
LINE
  5
5E0
  8
DETAIL
  6
CONTINUOUS
 62
     5
 10
-27.5
 20
-20.163923
 30
0.0
 11
-28.549431999999999
 21
-20.163923
 31
0.0
  0
LINE
  5
5E1
  8
DETAIL
  6
CONTINUOUS
 62
     5
 10
-29.019431999999991
 20
-20.633922999999982
 30
0.0
 11
-32.5
 21
-20.633922999999982
 31
0.0
  0
LINE
  5
5E2
  8
DETAIL
  6
CONTINUOUS
 62
     5
 10
-27.5
 20
-20.633922999999982
 30
0.0
 11
-28.549431999999999
 21
-20.633922999999982
 31
0.0
  0
LINE
  5
5E3
  8
DETAIL
  6
CONTINUOUS
 62
     5
 10
-31.559432000000001
 20
-20.163923
 30
0.0
 11
-31.559432000000001
 21
-15.553922999999999
 31
0.0
  0
LINE
  5
5E4
  8
DETAIL
  6
CONTINUOUS
 62
     5
 10
-31.089431999999999
 20
-20.163923
 30
0.0
 11
-31.089431999999999
 21
-15.553922999999999
 31
0.0
  0
LINE
  5
5E5
  8
DETAIL
  6
CONTINUOUS
 62
     5
 10
-31.559432000000001
 20
-17.623923000000001
 30
0.0
 11
-32.5
 21
-17.623923000000001
 31
0.0
  0
LINE
  5
5E6
  8
DETAIL
  6
CONTINUOUS
 62
     5
 10
-27.5
 20
-17.623923000000001
 30
0.0
 11
-31.089431999999999
 21
-17.623923000000001
 31
0.0
  0
LINE
  5
5E7
  8
DETAIL
  6
CONTINUOUS
 62
     5
 10
-31.559432000000001
 20
-18.093923
 30
0.0
 11
-32.5
 21
-18.093923
 31
0.0
  0
LINE
  5
5E8
  8
DETAIL
  6
CONTINUOUS
 62
     5
 10
-27.5
 20
-18.093923
 30
0.0
 11
-31.089431999999999
 21
-18.093923
 31
0.0
  0
LINE
  5
5E9
  8
DETAIL
  6
CONTINUOUS
 62
     5
 10
-29.019431999999991
 20
-17.623923000000001
 30
0.0
 11
-29.019431999999991
 21
-15.0
 31
0.0
  0
LINE
  5
5EA
  8
DETAIL
  6
CONTINUOUS
 62
     5
 10
-28.549431999999999
 20
-17.623923000000001
 30
0.0
 11
-28.549431999999999
 21
-15.0
 31
0.0
  0
LINE
  5
5EB
  8
DETAIL
  6
CONTINUOUS
 62
     5
 10
-29.019431999999991
 20
-15.083923
 30
0.0
 11
-32.5
 21
-15.083923
 31
0.0
  0
LINE
  5
5EC
  8
DETAIL
  6
CONTINUOUS
 62
     5
 10
-27.5
 20
-15.083923
 30
0.0
 11
-28.549431999999999
 21
-15.083923
 31
0.0
  0
LINE
  5
5ED
  8
DETAIL
  6
CONTINUOUS
 62
     5
 10
-29.019431999999991
 20
-15.553922999999999
 30
0.0
 11
-32.5
 21
-15.553922999999999
 31
0.0
  0
LINE
  5
5EE
  8
DETAIL
  6
CONTINUOUS
 62
     5
 10
-27.5
 20
-15.553922999999999
 30
0.0
 11
-28.549431999999999
 21
-15.553922999999999
 31
0.0
  0
LINE
  5
5EF
  8
DETAIL
  6
CONTINUOUS
 62
     5
 10
-31.559432000000001
 20
-15.083923
 30
0.0
 11
-31.559432000000001
 21
-15.0
 31
0.0
  0
LINE
  5
5F0
  8
DETAIL
  6
CONTINUOUS
 62
     5
 10
-31.089431999999999
 20
-15.083923
 30
0.0
 11
-31.089431999999999
 21
-15.0
 31
0.0
  0
LINE
  5
5F1
  8
DETAIL
  6
CONTINUOUS
 62
     5
 10
-24.059432000000001
 20
-21.699999999999989
 30
0.0
 11
-24.059432000000001
 21
-20.633922999999982
 31
0.0
  0
LINE
  5
5F2
  8
DETAIL
  6
CONTINUOUS
 62
     5
 10
-23.589431999999999
 20
-21.699999999999989
 30
0.0
 11
-23.589431999999999
 21
-20.633922999999982
 31
0.0
  0
LINE
  5
5F3
  8
DETAIL
  6
CONTINUOUS
 62
     5
 10
-21.519431999999991
 20
-21.699999999999989
 30
0.0
 11
-21.519431999999991
 21
-18.093923
 31
0.0
  0
LINE
  5
5F4
  8
DETAIL
  6
CONTINUOUS
 62
     5
 10
-21.049431999999999
 20
-21.699999999999989
 30
0.0
 11
-21.049431999999999
 21
-18.093923
 31
0.0
  0
LINE
  5
5F5
  8
DETAIL
  6
CONTINUOUS
 62
     5
 10
-21.519431999999991
 20
-20.163923
 30
0.0
 11
-25.0
 21
-20.163923
 31
0.0
  0
LINE
  5
5F6
  8
DETAIL
  6
CONTINUOUS
 62
     5
 10
-20.0
 20
-20.163923
 30
0.0
 11
-21.049431999999999
 21
-20.163923
 31
0.0
  0
LINE
  5
5F7
  8
DETAIL
  6
CONTINUOUS
 62
     5
 10
-21.519431999999991
 20
-20.633922999999982
 30
0.0
 11
-25.0
 21
-20.633922999999982
 31
0.0
  0
LINE
  5
5F8
  8
DETAIL
  6
CONTINUOUS
 62
     5
 10
-20.0
 20
-20.633922999999982
 30
0.0
 11
-21.049431999999999
 21
-20.633922999999982
 31
0.0
  0
LINE
  5
5F9
  8
DETAIL
  6
CONTINUOUS
 62
     5
 10
-24.059432000000001
 20
-20.163923
 30
0.0
 11
-24.059432000000001
 21
-15.553922999999999
 31
0.0
  0
LINE
  5
5FA
  8
DETAIL
  6
CONTINUOUS
 62
     5
 10
-23.589431999999999
 20
-20.163923
 30
0.0
 11
-23.589431999999999
 21
-15.553922999999999
 31
0.0
  0
LINE
  5
5FB
  8
DETAIL
  6
CONTINUOUS
 62
     5
 10
-24.059432000000001
 20
-17.623923000000001
 30
0.0
 11
-25.0
 21
-17.623923000000001
 31
0.0
  0
LINE
  5
5FC
  8
DETAIL
  6
CONTINUOUS
 62
     5
 10
-20.0
 20
-17.623923000000001
 30
0.0
 11
-23.589431999999999
 21
-17.623923000000001
 31
0.0
  0
LINE
  5
5FD
  8
DETAIL
  6
CONTINUOUS
 62
     5
 10
-24.059432000000001
 20
-18.093923
 30
0.0
 11
-25.0
 21
-18.093923
 31
0.0
  0
LINE
  5
5FE
  8
DETAIL
  6
CONTINUOUS
 62
     5
 10
-20.0
 20
-18.093923
 30
0.0
 11
-23.589431999999999
 21
-18.093923
 31
0.0
  0
LINE
  5
5FF
  8
DETAIL
  6
CONTINUOUS
 62
     5
 10
-21.519431999999991
 20
-17.623923000000001
 30
0.0
 11
-21.519431999999991
 21
-15.0
 31
0.0
  0
LINE
  5
600
  8
DETAIL
  6
CONTINUOUS
 62
     5
 10
-21.049431999999999
 20
-17.623923000000001
 30
0.0
 11
-21.049431999999999
 21
-15.0
 31
0.0
  0
LINE
  5
601
  8
DETAIL
  6
CONTINUOUS
 62
     5
 10
-21.519431999999991
 20
-15.083923
 30
0.0
 11
-25.0
 21
-15.083923
 31
0.0
  0
LINE
  5
602
  8
DETAIL
  6
CONTINUOUS
 62
     5
 10
-20.0
 20
-15.083923
 30
0.0
 11
-21.049431999999999
 21
-15.083923
 31
0.0
  0
LINE
  5
603
  8
DETAIL
  6
CONTINUOUS
 62
     5
 10
-21.519431999999991
 20
-15.553922999999999
 30
0.0
 11
-25.0
 21
-15.553922999999999
 31
0.0
  0
LINE
  5
604
  8
DETAIL
  6
CONTINUOUS
 62
     5
 10
-20.0
 20
-15.553922999999999
 30
0.0
 11
-21.049431999999999
 21
-15.553922999999999
 31
0.0
  0
LINE
  5
605
  8
DETAIL
  6
CONTINUOUS
 62
     5
 10
-24.059432000000001
 20
-15.083923
 30
0.0
 11
-24.059432000000001
 21
-15.0
 31
0.0
  0
LINE
  5
606
  8
DETAIL
  6
CONTINUOUS
 62
     5
 10
-23.589431999999999
 20
-15.083923
 30
0.0
 11
-23.589431999999999
 21
-15.0
 31
0.0
  0
LINE
  5
607
  8
DETAIL
  6
CONTINUOUS
 62
     5
 10
-74.019431999999981
 20
-22.703923
 30
0.0
 11
-74.019431999999981
 21
-21.699999999999989
 31
0.0
  0
LINE
  5
608
  8
DETAIL
  6
CONTINUOUS
 62
     5
 10
-73.549431999999982
 20
-22.703923
 30
0.0
 11
-73.549431999999982
 21
-21.699999999999989
 31
0.0
  0
LINE
  5
609
  8
DETAIL
  6
CONTINUOUS
 62
     5
 10
-74.019431999999981
 20
-30.799671000000011
 30
0.0
 11
-74.019431999999981
 21
-28.253922999999979
 31
0.0
  0
LINE
  5
60A
  8
DETAIL
  6
CONTINUOUS
 62
     5
 10
-73.549431999999982
 20
-30.536135999999999
 30
0.0
 11
-73.549431999999982
 21
-28.253922999999979
 31
0.0
  0
LINE
  5
60B
  8
DETAIL
  6
CONTINUOUS
 62
     5
 10
-74.019431999999981
 20
-27.783923000000001
 30
0.0
 11
-74.019431999999981
 21
-23.173922999999991
 31
0.0
  0
LINE
  5
60C
  8
DETAIL
  6
CONTINUOUS
 62
     5
 10
-73.549431999999982
 20
-27.783923000000001
 30
0.0
 11
-73.549431999999982
 21
-23.173922999999991
 31
0.0
  0
LINE
  5
60D
  8
DETAIL
  6
CONTINUOUS
 62
     5
 10
-72.5
 20
-25.243922999999999
 30
0.0
 11
-73.549431999999982
 21
-25.243922999999999
 31
0.0
  0
LINE
  5
60E
  8
DETAIL
  6
CONTINUOUS
 62
     5
 10
-72.5
 20
-25.713923000000001
 30
0.0
 11
-73.549431999999982
 21
-25.713923000000001
 31
0.0
  0
LINE
  5
60F
  8
DETAIL
  6
CONTINUOUS
 62
     5
 10
-73.290233000000001
 20
-30.32392299999999
 30
0.0
 11
-73.549431999999982
 21
-30.32392299999999
 31
0.0
  0
LINE
  5
610
  8
DETAIL
  6
CONTINUOUS
 62
     5
 10
-69.059432000000001
 20
-25.243922999999999
 30
0.0
 11
-69.059432000000001
 21
-21.699999999999989
 31
0.0
  0
LINE
  5
611
  8
DETAIL
  6
CONTINUOUS
 62
     5
 10
-68.589431999999974
 20
-25.243922999999999
 30
0.0
 11
-68.589431999999974
 21
-21.699999999999989
 31
0.0
  0
LINE
  5
612
  8
DETAIL
  6
CONTINUOUS
 62
     5
 10
-66.519431999999995
 20
-22.703923
 30
0.0
 11
-66.519431999999995
 21
-21.699999999999989
 31
0.0
  0
LINE
  5
613
  8
DETAIL
  6
CONTINUOUS
 62
     5
 10
-66.049431999999996
 20
-22.703923
 30
0.0
 11
-66.049431999999996
 21
-21.699999999999989
 31
0.0
  0
LINE
  5
614
  8
DETAIL
  6
CONTINUOUS
 62
     5
 10
-69.059432000000001
 20
-30.32392299999999
 30
0.0
 11
-69.059432000000001
 21
-25.713923000000001
 31
0.0
  0
LINE
  5
615
  8
DETAIL
  6
CONTINUOUS
 62
     5
 10
-68.589431999999974
 20
-30.32392299999999
 30
0.0
 11
-68.589431999999974
 21
-25.713923000000001
 31
0.0
  0
LINE
  5
616
  8
DETAIL
  6
CONTINUOUS
 62
     5
 10
-66.519431999999995
 20
-30.799671000000011
 30
0.0
 11
-66.519431999999995
 21
-28.253922999999979
 31
0.0
  0
LINE
  5
617
  8
DETAIL
  6
CONTINUOUS
 62
     5
 10
-66.049431999999996
 20
-30.536135999999999
 30
0.0
 11
-66.049431999999996
 21
-28.253922999999979
 31
0.0
  0
LINE
  5
618
  8
DETAIL
  6
CONTINUOUS
 62
     5
 10
-69.059432000000001
 20
-27.783923000000001
 30
0.0
 11
-70.0
 21
-27.783923000000001
 31
0.0
  0
LINE
  5
619
  8
DETAIL
  6
CONTINUOUS
 62
     5
 10
-65.0
 20
-27.783923000000001
 30
0.0
 11
-68.589431999999974
 21
-27.783923000000001
 31
0.0
  0
LINE
  5
61A
  8
DETAIL
  6
CONTINUOUS
 62
     5
 10
-69.059432000000001
 20
-28.253922999999979
 30
0.0
 11
-70.0
 21
-28.253922999999979
 31
0.0
  0
LINE
  5
61B
  8
DETAIL
  6
CONTINUOUS
 62
     5
 10
-65.0
 20
-28.253922999999979
 30
0.0
 11
-68.589431999999974
 21
-28.253922999999979
 31
0.0
  0
LINE
  5
61C
  8
DETAIL
  6
CONTINUOUS
 62
     5
 10
-66.519431999999995
 20
-27.783923000000001
 30
0.0
 11
-66.519431999999995
 21
-23.173922999999991
 31
0.0
  0
LINE
  5
61D
  8
DETAIL
  6
CONTINUOUS
 62
     5
 10
-66.049431999999996
 20
-27.783923000000001
 30
0.0
 11
-66.049431999999996
 21
-23.173922999999991
 31
0.0
  0
LINE
  5
61E
  8
DETAIL
  6
CONTINUOUS
 62
     5
 10
-66.519431999999995
 20
-25.243922999999999
 30
0.0
 11
-70.0
 21
-25.243922999999999
 31
0.0
  0
LINE
  5
61F
  8
DETAIL
  6
CONTINUOUS
 62
     5
 10
-65.0
 20
-25.243922999999999
 30
0.0
 11
-66.049431999999996
 21
-25.243922999999999
 31
0.0
  0
LINE
  5
620
  8
DETAIL
  6
CONTINUOUS
 62
     5
 10
-66.519431999999995
 20
-25.713923000000001
 30
0.0
 11
-70.0
 21
-25.713923000000001
 31
0.0
  0
LINE
  5
621
  8
DETAIL
  6
CONTINUOUS
 62
     5
 10
-65.0
 20
-25.713923000000001
 30
0.0
 11
-66.049431999999996
 21
-25.713923000000001
 31
0.0
  0
LINE
  5
622
  8
DETAIL
  6
CONTINUOUS
 62
     5
 10
-69.059432000000001
 20
-22.703923
 30
0.0
 11
-70.0
 21
-22.703923
 31
0.0
  0
LINE
  5
623
  8
DETAIL
  6
CONTINUOUS
 62
     5
 10
-65.0
 20
-22.703923
 30
0.0
 11
-68.589431999999974
 21
-22.703923
 31
0.0
  0
LINE
  5
624
  8
DETAIL
  6
CONTINUOUS
 62
     5
 10
-69.059432000000001
 20
-23.173922999999991
 30
0.0
 11
-70.0
 21
-23.173922999999991
 31
0.0
  0
LINE
  5
625
  8
DETAIL
  6
CONTINUOUS
 62
     5
 10
-65.0
 20
-23.173922999999991
 30
0.0
 11
-68.589431999999974
 21
-23.173922999999991
 31
0.0
  0
LINE
  5
626
  8
DETAIL
  6
CONTINUOUS
 62
     5
 10
-66.519431999999995
 20
-30.32392299999999
 30
0.0
 11
-69.209766999999999
 21
-30.32392299999999
 31
0.0
  0
LINE
  5
627
  8
DETAIL
  6
CONTINUOUS
 62
     5
 10
-66.506061000000003
 20
-30.793922999999999
 30
0.0
 11
-68.493938999999983
 21
-30.793922999999999
 31
0.0
  0
LINE
  5
628
  8
DETAIL
  6
CONTINUOUS
 62
     5
 10
-65.790233000000001
 20
-30.32392299999999
 30
0.0
 11
-66.049431999999996
 21
-30.32392299999999
 31
0.0
  0
LINE
  5
629
  8
DETAIL
  6
CONTINUOUS
 62
     5
 10
-61.559431999999987
 20
-25.243922999999999
 30
0.0
 11
-61.559431999999987
 21
-21.699999999999989
 31
0.0
  0
LINE
  5
62A
  8
DETAIL
  6
CONTINUOUS
 62
     5
 10
-61.089431999999981
 20
-25.243922999999999
 30
0.0
 11
-61.089431999999981
 21
-21.699999999999989
 31
0.0
  0
LINE
  5
62B
  8
DETAIL
  6
CONTINUOUS
 62
     5
 10
-59.019431999999981
 20
-22.703923
 30
0.0
 11
-59.019431999999981
 21
-21.699999999999989
 31
0.0
  0
LINE
  5
62C
  8
DETAIL
  6
CONTINUOUS
 62
     5
 10
-58.54943200000001
 20
-22.703923
 30
0.0
 11
-58.54943200000001
 21
-21.699999999999989
 31
0.0
  0
LINE
  5
62D
  8
DETAIL
  6
CONTINUOUS
 62
     5
 10
-61.559431999999987
 20
-30.32392299999999
 30
0.0
 11
-61.559431999999987
 21
-25.713923000000001
 31
0.0
  0
LINE
  5
62E
  8
DETAIL
  6
CONTINUOUS
 62
     5
 10
-61.089431999999981
 20
-30.32392299999999
 30
0.0
 11
-61.089431999999981
 21
-25.713923000000001
 31
0.0
  0
LINE
  5
62F
  8
DETAIL
  6
CONTINUOUS
 62
     5
 10
-59.019431999999981
 20
-30.799671000000011
 30
0.0
 11
-59.019431999999981
 21
-28.253922999999979
 31
0.0
  0
LINE
  5
630
  8
DETAIL
  6
CONTINUOUS
 62
     5
 10
-58.54943200000001
 20
-30.536135999999999
 30
0.0
 11
-58.54943200000001
 21
-28.253922999999979
 31
0.0
  0
LINE
  5
631
  8
DETAIL
  6
CONTINUOUS
 62
     5
 10
-61.559431999999987
 20
-27.783923000000001
 30
0.0
 11
-62.5
 21
-27.783923000000001
 31
0.0
  0
LINE
  5
632
  8
DETAIL
  6
CONTINUOUS
 62
     5
 10
-57.5
 20
-27.783923000000001
 30
0.0
 11
-61.089431999999981
 21
-27.783923000000001
 31
0.0
  0
LINE
  5
633
  8
DETAIL
  6
CONTINUOUS
 62
     5
 10
-61.559431999999987
 20
-28.253922999999979
 30
0.0
 11
-62.5
 21
-28.253922999999979
 31
0.0
  0
LINE
  5
634
  8
DETAIL
  6
CONTINUOUS
 62
     5
 10
-57.5
 20
-28.253922999999979
 30
0.0
 11
-61.089431999999981
 21
-28.253922999999979
 31
0.0
  0
LINE
  5
635
  8
DETAIL
  6
CONTINUOUS
 62
     5
 10
-59.019431999999981
 20
-27.783923000000001
 30
0.0
 11
-59.019431999999981
 21
-23.173922999999991
 31
0.0
  0
LINE
  5
636
  8
DETAIL
  6
CONTINUOUS
 62
     5
 10
-58.54943200000001
 20
-27.783923000000001
 30
0.0
 11
-58.54943200000001
 21
-23.173922999999991
 31
0.0
  0
LINE
  5
637
  8
DETAIL
  6
CONTINUOUS
 62
     5
 10
-59.019431999999981
 20
-25.243922999999999
 30
0.0
 11
-62.5
 21
-25.243922999999999
 31
0.0
  0
LINE
  5
638
  8
DETAIL
  6
CONTINUOUS
 62
     5
 10
-57.5
 20
-25.243922999999999
 30
0.0
 11
-58.54943200000001
 21
-25.243922999999999
 31
0.0
  0
LINE
  5
639
  8
DETAIL
  6
CONTINUOUS
 62
     5
 10
-59.019431999999981
 20
-25.713923000000001
 30
0.0
 11
-62.5
 21
-25.713923000000001
 31
0.0
  0
LINE
  5
63A
  8
DETAIL
  6
CONTINUOUS
 62
     5
 10
-57.5
 20
-25.713923000000001
 30
0.0
 11
-58.54943200000001
 21
-25.713923000000001
 31
0.0
  0
LINE
  5
63B
  8
DETAIL
  6
CONTINUOUS
 62
     5
 10
-61.559431999999987
 20
-22.703923
 30
0.0
 11
-62.5
 21
-22.703923
 31
0.0
  0
LINE
  5
63C
  8
DETAIL
  6
CONTINUOUS
 62
     5
 10
-57.5
 20
-22.703923
 30
0.0
 11
-61.089431999999981
 21
-22.703923
 31
0.0
  0
LINE
  5
63D
  8
DETAIL
  6
CONTINUOUS
 62
     5
 10
-61.559431999999987
 20
-23.173922999999991
 30
0.0
 11
-62.5
 21
-23.173922999999991
 31
0.0
  0
LINE
  5
63E
  8
DETAIL
  6
CONTINUOUS
 62
     5
 10
-57.5
 20
-23.173922999999991
 30
0.0
 11
-61.089431999999981
 21
-23.173922999999991
 31
0.0
  0
LINE
  5
63F
  8
DETAIL
  6
CONTINUOUS
 62
     5
 10
-59.019431999999981
 20
-30.32392299999999
 30
0.0
 11
-61.709766999999999
 21
-30.32392299999999
 31
0.0
  0
LINE
  5
640
  8
DETAIL
  6
CONTINUOUS
 62
     5
 10
-59.006061000000003
 20
-30.793922999999999
 30
0.0
 11
-60.99393899999999
 21
-30.793922999999999
 31
0.0
  0
LINE
  5
641
  8
DETAIL
  6
CONTINUOUS
 62
     5
 10
-58.290233000000001
 20
-30.32392299999999
 30
0.0
 11
-58.54943200000001
 21
-30.32392299999999
 31
0.0
  0
LINE
  5
642
  8
DETAIL
  6
CONTINUOUS
 62
     5
 10
-54.059431999999987
 20
-25.243922999999999
 30
0.0
 11
-54.059431999999987
 21
-21.699999999999989
 31
0.0
  0
LINE
  5
643
  8
DETAIL
  6
CONTINUOUS
 62
     5
 10
-53.589431999999981
 20
-25.243922999999999
 30
0.0
 11
-53.589431999999981
 21
-21.699999999999989
 31
0.0
  0
LINE
  5
644
  8
DETAIL
  6
CONTINUOUS
 62
     5
 10
-51.519432000000002
 20
-22.703923
 30
0.0
 11
-51.519432000000002
 21
-21.699999999999989
 31
0.0
  0
LINE
  5
645
  8
DETAIL
  6
CONTINUOUS
 62
     5
 10
-51.04943200000001
 20
-22.703923
 30
0.0
 11
-51.04943200000001
 21
-21.699999999999989
 31
0.0
  0
LINE
  5
646
  8
DETAIL
  6
CONTINUOUS
 62
     5
 10
-54.059431999999987
 20
-30.32392299999999
 30
0.0
 11
-54.059431999999987
 21
-25.713923000000001
 31
0.0
  0
LINE
  5
647
  8
DETAIL
  6
CONTINUOUS
 62
     5
 10
-53.589431999999981
 20
-30.32392299999999
 30
0.0
 11
-53.589431999999981
 21
-25.713923000000001
 31
0.0
  0
LINE
  5
648
  8
DETAIL
  6
CONTINUOUS
 62
     5
 10
-51.519432000000002
 20
-30.799671000000011
 30
0.0
 11
-51.519432000000002
 21
-28.253922999999979
 31
0.0
  0
LINE
  5
649
  8
DETAIL
  6
CONTINUOUS
 62
     5
 10
-51.04943200000001
 20
-30.536135999999999
 30
0.0
 11
-51.04943200000001
 21
-28.253922999999979
 31
0.0
  0
LINE
  5
64A
  8
DETAIL
  6
CONTINUOUS
 62
     5
 10
-54.059431999999987
 20
-27.783923000000001
 30
0.0
 11
-55.0
 21
-27.783923000000001
 31
0.0
  0
LINE
  5
64B
  8
DETAIL
  6
CONTINUOUS
 62
     5
 10
-50.0
 20
-27.783923000000001
 30
0.0
 11
-53.589431999999981
 21
-27.783923000000001
 31
0.0
  0
LINE
  5
64C
  8
DETAIL
  6
CONTINUOUS
 62
     5
 10
-54.059431999999987
 20
-28.253922999999979
 30
0.0
 11
-55.0
 21
-28.253922999999979
 31
0.0
  0
LINE
  5
64D
  8
DETAIL
  6
CONTINUOUS
 62
     5
 10
-50.0
 20
-28.253922999999979
 30
0.0
 11
-53.589431999999981
 21
-28.253922999999979
 31
0.0
  0
LINE
  5
64E
  8
DETAIL
  6
CONTINUOUS
 62
     5
 10
-51.519432000000002
 20
-27.783923000000001
 30
0.0
 11
-51.519432000000002
 21
-23.173922999999991
 31
0.0
  0
LINE
  5
64F
  8
DETAIL
  6
CONTINUOUS
 62
     5
 10
-51.04943200000001
 20
-27.783923000000001
 30
0.0
 11
-51.04943200000001
 21
-23.173922999999991
 31
0.0
  0
LINE
  5
650
  8
DETAIL
  6
CONTINUOUS
 62
     5
 10
-51.519432000000002
 20
-25.243922999999999
 30
0.0
 11
-55.0
 21
-25.243922999999999
 31
0.0
  0
LINE
  5
651
  8
DETAIL
  6
CONTINUOUS
 62
     5
 10
-50.0
 20
-25.243922999999999
 30
0.0
 11
-51.04943200000001
 21
-25.243922999999999
 31
0.0
  0
LINE
  5
652
  8
DETAIL
  6
CONTINUOUS
 62
     5
 10
-51.519432000000002
 20
-25.713923000000001
 30
0.0
 11
-55.0
 21
-25.713923000000001
 31
0.0
  0
LINE
  5
653
  8
DETAIL
  6
CONTINUOUS
 62
     5
 10
-50.0
 20
-25.713923000000001
 30
0.0
 11
-51.04943200000001
 21
-25.713923000000001
 31
0.0
  0
LINE
  5
654
  8
DETAIL
  6
CONTINUOUS
 62
     5
 10
-54.059431999999987
 20
-22.703923
 30
0.0
 11
-55.0
 21
-22.703923
 31
0.0
  0
LINE
  5
655
  8
DETAIL
  6
CONTINUOUS
 62
     5
 10
-50.0
 20
-22.703923
 30
0.0
 11
-53.589431999999981
 21
-22.703923
 31
0.0
  0
LINE
  5
656
  8
DETAIL
  6
CONTINUOUS
 62
     5
 10
-54.059431999999987
 20
-23.173922999999991
 30
0.0
 11
-55.0
 21
-23.173922999999991
 31
0.0
  0
LINE
  5
657
  8
DETAIL
  6
CONTINUOUS
 62
     5
 10
-50.0
 20
-23.173922999999991
 30
0.0
 11
-53.589431999999981
 21
-23.173922999999991
 31
0.0
  0
LINE
  5
658
  8
DETAIL
  6
CONTINUOUS
 62
     5
 10
-51.519432000000002
 20
-30.32392299999999
 30
0.0
 11
-54.209766999999999
 21
-30.32392299999999
 31
0.0
  0
LINE
  5
659
  8
DETAIL
  6
CONTINUOUS
 62
     5
 10
-51.506061000000003
 20
-30.793922999999999
 30
0.0
 11
-53.49393899999999
 21
-30.793922999999999
 31
0.0
  0
LINE
  5
65A
  8
DETAIL
  6
CONTINUOUS
 62
     5
 10
-50.790233000000001
 20
-30.32392299999999
 30
0.0
 11
-51.04943200000001
 21
-30.32392299999999
 31
0.0
  0
LINE
  5
65B
  8
DETAIL
  6
CONTINUOUS
 62
     5
 10
-46.559432000000001
 20
-25.243922999999999
 30
0.0
 11
-46.559432000000001
 21
-21.699999999999989
 31
0.0
  0
LINE
  5
65C
  8
DETAIL
  6
CONTINUOUS
 62
     5
 10
-46.089432000000002
 20
-25.243922999999999
 30
0.0
 11
-46.089432000000002
 21
-21.699999999999989
 31
0.0
  0
LINE
  5
65D
  8
DETAIL
  6
CONTINUOUS
 62
     5
 10
-44.019432000000002
 20
-22.703923
 30
0.0
 11
-44.019432000000002
 21
-21.699999999999989
 31
0.0
  0
LINE
  5
65E
  8
DETAIL
  6
CONTINUOUS
 62
     5
 10
-43.549432000000003
 20
-22.703923
 30
0.0
 11
-43.549432000000003
 21
-21.699999999999989
 31
0.0
  0
LINE
  5
65F
  8
DETAIL
  6
CONTINUOUS
 62
     5
 10
-46.559432000000001
 20
-30.32392299999999
 30
0.0
 11
-46.559432000000001
 21
-25.713923000000001
 31
0.0
  0
LINE
  5
660
  8
DETAIL
  6
CONTINUOUS
 62
     5
 10
-46.089432000000002
 20
-30.32392299999999
 30
0.0
 11
-46.089432000000002
 21
-25.713923000000001
 31
0.0
  0
LINE
  5
661
  8
DETAIL
  6
CONTINUOUS
 62
     5
 10
-44.019432000000002
 20
-30.799671000000011
 30
0.0
 11
-44.019432000000002
 21
-28.253922999999979
 31
0.0
  0
LINE
  5
662
  8
DETAIL
  6
CONTINUOUS
 62
     5
 10
-43.549432000000003
 20
-30.536135999999999
 30
0.0
 11
-43.549432000000003
 21
-28.253922999999979
 31
0.0
  0
LINE
  5
663
  8
DETAIL
  6
CONTINUOUS
 62
     5
 10
-46.559432000000001
 20
-27.783923000000001
 30
0.0
 11
-47.5
 21
-27.783923000000001
 31
0.0
  0
LINE
  5
664
  8
DETAIL
  6
CONTINUOUS
 62
     5
 10
-42.5
 20
-27.783923000000001
 30
0.0
 11
-46.089432000000002
 21
-27.783923000000001
 31
0.0
  0
LINE
  5
665
  8
DETAIL
  6
CONTINUOUS
 62
     5
 10
-46.559432000000001
 20
-28.253922999999979
 30
0.0
 11
-47.5
 21
-28.253922999999979
 31
0.0
  0
LINE
  5
666
  8
DETAIL
  6
CONTINUOUS
 62
     5
 10
-42.5
 20
-28.253922999999979
 30
0.0
 11
-46.089432000000002
 21
-28.253922999999979
 31
0.0
  0
LINE
  5
667
  8
DETAIL
  6
CONTINUOUS
 62
     5
 10
-44.019432000000002
 20
-27.783923000000001
 30
0.0
 11
-44.019432000000002
 21
-23.173922999999991
 31
0.0
  0
LINE
  5
668
  8
DETAIL
  6
CONTINUOUS
 62
     5
 10
-43.549432000000003
 20
-27.783923000000001
 30
0.0
 11
-43.549432000000003
 21
-23.173922999999991
 31
0.0
  0
LINE
  5
669
  8
DETAIL
  6
CONTINUOUS
 62
     5
 10
-44.019432000000002
 20
-25.243922999999999
 30
0.0
 11
-47.5
 21
-25.243922999999999
 31
0.0
  0
LINE
  5
66A
  8
DETAIL
  6
CONTINUOUS
 62
     5
 10
-42.5
 20
-25.243922999999999
 30
0.0
 11
-43.549432000000003
 21
-25.243922999999999
 31
0.0
  0
LINE
  5
66B
  8
DETAIL
  6
CONTINUOUS
 62
     5
 10
-44.019432000000002
 20
-25.713923000000001
 30
0.0
 11
-47.5
 21
-25.713923000000001
 31
0.0
  0
LINE
  5
66C
  8
DETAIL
  6
CONTINUOUS
 62
     5
 10
-42.5
 20
-25.713923000000001
 30
0.0
 11
-43.549432000000003
 21
-25.713923000000001
 31
0.0
  0
LINE
  5
66D
  8
DETAIL
  6
CONTINUOUS
 62
     5
 10
-46.559432000000001
 20
-22.703923
 30
0.0
 11
-47.5
 21
-22.703923
 31
0.0
  0
LINE
  5
66E
  8
DETAIL
  6
CONTINUOUS
 62
     5
 10
-42.5
 20
-22.703923
 30
0.0
 11
-46.089432000000002
 21
-22.703923
 31
0.0
  0
LINE
  5
66F
  8
DETAIL
  6
CONTINUOUS
 62
     5
 10
-46.559432000000001
 20
-23.173922999999991
 30
0.0
 11
-47.5
 21
-23.173922999999991
 31
0.0
  0
LINE
  5
670
  8
DETAIL
  6
CONTINUOUS
 62
     5
 10
-42.5
 20
-23.173922999999991
 30
0.0
 11
-46.089432000000002
 21
-23.173922999999991
 31
0.0
  0
LINE
  5
671
  8
DETAIL
  6
CONTINUOUS
 62
     5
 10
-44.019432000000002
 20
-30.32392299999999
 30
0.0
 11
-46.709766999999992
 21
-30.32392299999999
 31
0.0
  0
LINE
  5
672
  8
DETAIL
  6
CONTINUOUS
 62
     5
 10
-44.006061000000003
 20
-30.793922999999999
 30
0.0
 11
-45.99393899999999
 21
-30.793922999999999
 31
0.0
  0
LINE
  5
673
  8
DETAIL
  6
CONTINUOUS
 62
     5
 10
-43.290233000000001
 20
-30.32392299999999
 30
0.0
 11
-43.549432000000003
 21
-30.32392299999999
 31
0.0
  0
LINE
  5
674
  8
DETAIL
  6
CONTINUOUS
 62
     5
 10
-39.059432000000001
 20
-25.243922999999999
 30
0.0
 11
-39.059432000000001
 21
-21.699999999999989
 31
0.0
  0
LINE
  5
675
  8
DETAIL
  6
CONTINUOUS
 62
     5
 10
-38.589432000000002
 20
-25.243922999999999
 30
0.0
 11
-38.589432000000002
 21
-21.699999999999989
 31
0.0
  0
LINE
  5
676
  8
DETAIL
  6
CONTINUOUS
 62
     5
 10
-36.519432000000002
 20
-22.703923
 30
0.0
 11
-36.519432000000002
 21
-21.699999999999989
 31
0.0
  0
LINE
  5
677
  8
DETAIL
  6
CONTINUOUS
 62
     5
 10
-36.04943200000001
 20
-22.703923
 30
0.0
 11
-36.04943200000001
 21
-21.699999999999989
 31
0.0
  0
LINE
  5
678
  8
DETAIL
  6
CONTINUOUS
 62
     5
 10
-39.059432000000001
 20
-30.32392299999999
 30
0.0
 11
-39.059432000000001
 21
-25.713923000000001
 31
0.0
  0
LINE
  5
679
  8
DETAIL
  6
CONTINUOUS
 62
     5
 10
-38.589432000000002
 20
-30.32392299999999
 30
0.0
 11
-38.589432000000002
 21
-25.713923000000001
 31
0.0
  0
LINE
  5
67A
  8
DETAIL
  6
CONTINUOUS
 62
     5
 10
-36.519432000000002
 20
-30.799671000000011
 30
0.0
 11
-36.519432000000002
 21
-28.253922999999979
 31
0.0
  0
LINE
  5
67B
  8
DETAIL
  6
CONTINUOUS
 62
     5
 10
-36.04943200000001
 20
-30.536135999999999
 30
0.0
 11
-36.04943200000001
 21
-28.253922999999979
 31
0.0
  0
LINE
  5
67C
  8
DETAIL
  6
CONTINUOUS
 62
     5
 10
-39.059432000000001
 20
-27.783923000000001
 30
0.0
 11
-40.0
 21
-27.783923000000001
 31
0.0
  0
LINE
  5
67D
  8
DETAIL
  6
CONTINUOUS
 62
     5
 10
-35.0
 20
-27.783923000000001
 30
0.0
 11
-38.589432000000002
 21
-27.783923000000001
 31
0.0
  0
LINE
  5
67E
  8
DETAIL
  6
CONTINUOUS
 62
     5
 10
-39.059432000000001
 20
-28.253922999999979
 30
0.0
 11
-40.0
 21
-28.253922999999979
 31
0.0
  0
LINE
  5
67F
  8
DETAIL
  6
CONTINUOUS
 62
     5
 10
-35.0
 20
-28.253922999999979
 30
0.0
 11
-38.589432000000002
 21
-28.253922999999979
 31
0.0
  0
LINE
  5
680
  8
DETAIL
  6
CONTINUOUS
 62
     5
 10
-36.519432000000002
 20
-27.783923000000001
 30
0.0
 11
-36.519432000000002
 21
-23.173922999999991
 31
0.0
  0
LINE
  5
681
  8
DETAIL
  6
CONTINUOUS
 62
     5
 10
-36.04943200000001
 20
-27.783923000000001
 30
0.0
 11
-36.04943200000001
 21
-23.173922999999991
 31
0.0
  0
LINE
  5
682
  8
DETAIL
  6
CONTINUOUS
 62
     5
 10
-36.519432000000002
 20
-25.243922999999999
 30
0.0
 11
-40.0
 21
-25.243922999999999
 31
0.0
  0
LINE
  5
683
  8
DETAIL
  6
CONTINUOUS
 62
     5
 10
-35.0
 20
-25.243922999999999
 30
0.0
 11
-36.04943200000001
 21
-25.243922999999999
 31
0.0
  0
LINE
  5
684
  8
DETAIL
  6
CONTINUOUS
 62
     5
 10
-36.519432000000002
 20
-25.713923000000001
 30
0.0
 11
-40.0
 21
-25.713923000000001
 31
0.0
  0
LINE
  5
685
  8
DETAIL
  6
CONTINUOUS
 62
     5
 10
-35.0
 20
-25.713923000000001
 30
0.0
 11
-36.04943200000001
 21
-25.713923000000001
 31
0.0
  0
LINE
  5
686
  8
DETAIL
  6
CONTINUOUS
 62
     5
 10
-39.059432000000001
 20
-22.703923
 30
0.0
 11
-40.0
 21
-22.703923
 31
0.0
  0
LINE
  5
687
  8
DETAIL
  6
CONTINUOUS
 62
     5
 10
-35.0
 20
-22.703923
 30
0.0
 11
-38.589432000000002
 21
-22.703923
 31
0.0
  0
LINE
  5
688
  8
DETAIL
  6
CONTINUOUS
 62
     5
 10
-39.059432000000001
 20
-23.173922999999991
 30
0.0
 11
-40.0
 21
-23.173922999999991
 31
0.0
  0
LINE
  5
689
  8
DETAIL
  6
CONTINUOUS
 62
     5
 10
-35.0
 20
-23.173922999999991
 30
0.0
 11
-38.589432000000002
 21
-23.173922999999991
 31
0.0
  0
LINE
  5
68A
  8
DETAIL
  6
CONTINUOUS
 62
     5
 10
-36.519432000000002
 20
-30.32392299999999
 30
0.0
 11
-39.209766999999999
 21
-30.32392299999999
 31
0.0
  0
LINE
  5
68B
  8
DETAIL
  6
CONTINUOUS
 62
     5
 10
-36.506060999999988
 20
-30.793922999999999
 30
0.0
 11
-38.49393899999999
 21
-30.793922999999999
 31
0.0
  0
LINE
  5
68C
  8
DETAIL
  6
CONTINUOUS
 62
     5
 10
-35.790233000000001
 20
-30.32392299999999
 30
0.0
 11
-36.04943200000001
 21
-30.32392299999999
 31
0.0
  0
LINE
  5
68D
  8
DETAIL
  6
CONTINUOUS
 62
     5
 10
-31.559432000000001
 20
-25.243922999999999
 30
0.0
 11
-31.559432000000001
 21
-21.699999999999989
 31
0.0
  0
LINE
  5
68E
  8
DETAIL
  6
CONTINUOUS
 62
     5
 10
-31.089431999999999
 20
-25.243922999999999
 30
0.0
 11
-31.089431999999999
 21
-21.699999999999989
 31
0.0
  0
LINE
  5
68F
  8
DETAIL
  6
CONTINUOUS
 62
     5
 10
-29.019431999999991
 20
-22.703923
 30
0.0
 11
-29.019431999999991
 21
-21.699999999999989
 31
0.0
  0
LINE
  5
690
  8
DETAIL
  6
CONTINUOUS
 62
     5
 10
-28.549431999999999
 20
-22.703923
 30
0.0
 11
-28.549431999999999
 21
-21.699999999999989
 31
0.0
  0
LINE
  5
691
  8
DETAIL
  6
CONTINUOUS
 62
     5
 10
-31.559432000000001
 20
-30.32392299999999
 30
0.0
 11
-31.559432000000001
 21
-25.713923000000001
 31
0.0
  0
LINE
  5
692
  8
DETAIL
  6
CONTINUOUS
 62
     5
 10
-31.089431999999999
 20
-30.32392299999999
 30
0.0
 11
-31.089431999999999
 21
-25.713923000000001
 31
0.0
  0
LINE
  5
693
  8
DETAIL
  6
CONTINUOUS
 62
     5
 10
-29.019431999999991
 20
-30.799671000000011
 30
0.0
 11
-29.019431999999991
 21
-28.253922999999979
 31
0.0
  0
LINE
  5
694
  8
DETAIL
  6
CONTINUOUS
 62
     5
 10
-28.549431999999999
 20
-30.536135999999999
 30
0.0
 11
-28.549431999999999
 21
-28.253922999999979
 31
0.0
  0
LINE
  5
695
  8
DETAIL
  6
CONTINUOUS
 62
     5
 10
-31.559432000000001
 20
-27.783923000000001
 30
0.0
 11
-32.5
 21
-27.783923000000001
 31
0.0
  0
LINE
  5
696
  8
DETAIL
  6
CONTINUOUS
 62
     5
 10
-27.5
 20
-27.783923000000001
 30
0.0
 11
-31.089431999999999
 21
-27.783923000000001
 31
0.0
  0
LINE
  5
697
  8
DETAIL
  6
CONTINUOUS
 62
     5
 10
-31.559432000000001
 20
-28.253922999999979
 30
0.0
 11
-32.5
 21
-28.253922999999979
 31
0.0
  0
LINE
  5
698
  8
DETAIL
  6
CONTINUOUS
 62
     5
 10
-27.5
 20
-28.253922999999979
 30
0.0
 11
-31.089431999999999
 21
-28.253922999999979
 31
0.0
  0
LINE
  5
699
  8
DETAIL
  6
CONTINUOUS
 62
     5
 10
-29.019431999999991
 20
-27.783923000000001
 30
0.0
 11
-29.019431999999991
 21
-23.173922999999991
 31
0.0
  0
LINE
  5
69A
  8
DETAIL
  6
CONTINUOUS
 62
     5
 10
-28.549431999999999
 20
-27.783923000000001
 30
0.0
 11
-28.549431999999999
 21
-23.173922999999991
 31
0.0
  0
LINE
  5
69B
  8
DETAIL
  6
CONTINUOUS
 62
     5
 10
-29.019431999999991
 20
-25.243922999999999
 30
0.0
 11
-32.5
 21
-25.243922999999999
 31
0.0
  0
LINE
  5
69C
  8
DETAIL
  6
CONTINUOUS
 62
     5
 10
-27.5
 20
-25.243922999999999
 30
0.0
 11
-28.549431999999999
 21
-25.243922999999999
 31
0.0
  0
LINE
  5
69D
  8
DETAIL
  6
CONTINUOUS
 62
     5
 10
-29.019431999999991
 20
-25.713923000000001
 30
0.0
 11
-32.5
 21
-25.713923000000001
 31
0.0
  0
LINE
  5
69E
  8
DETAIL
  6
CONTINUOUS
 62
     5
 10
-27.5
 20
-25.713923000000001
 30
0.0
 11
-28.549431999999999
 21
-25.713923000000001
 31
0.0
  0
LINE
  5
69F
  8
DETAIL
  6
CONTINUOUS
 62
     5
 10
-31.559432000000001
 20
-22.703923
 30
0.0
 11
-32.5
 21
-22.703923
 31
0.0
  0
LINE
  5
6A0
  8
DETAIL
  6
CONTINUOUS
 62
     5
 10
-27.5
 20
-22.703923
 30
0.0
 11
-31.089431999999999
 21
-22.703923
 31
0.0
  0
LINE
  5
6A1
  8
DETAIL
  6
CONTINUOUS
 62
     5
 10
-31.559432000000001
 20
-23.173922999999991
 30
0.0
 11
-32.5
 21
-23.173922999999991
 31
0.0
  0
LINE
  5
6A2
  8
DETAIL
  6
CONTINUOUS
 62
     5
 10
-27.5
 20
-23.173922999999991
 30
0.0
 11
-31.089431999999999
 21
-23.173922999999991
 31
0.0
  0
LINE
  5
6A3
  8
DETAIL
  6
CONTINUOUS
 62
     5
 10
-29.019431999999991
 20
-30.32392299999999
 30
0.0
 11
-31.709766999999999
 21
-30.32392299999999
 31
0.0
  0
LINE
  5
6A4
  8
DETAIL
  6
CONTINUOUS
 62
     5
 10
-29.006060999999999
 20
-30.793922999999999
 30
0.0
 11
-30.993939000000001
 21
-30.793922999999999
 31
0.0
  0
LINE
  5
6A5
  8
DETAIL
  6
CONTINUOUS
 62
     5
 10
-28.290233000000001
 20
-30.32392299999999
 30
0.0
 11
-28.549431999999999
 21
-30.32392299999999
 31
0.0
  0
LINE
  5
6A6
  8
DETAIL
  6
CONTINUOUS
 62
     5
 10
-24.059432000000001
 20
-25.243922999999999
 30
0.0
 11
-24.059432000000001
 21
-21.699999999999989
 31
0.0
  0
LINE
  5
6A7
  8
DETAIL
  6
CONTINUOUS
 62
     5
 10
-23.589431999999999
 20
-25.243922999999999
 30
0.0
 11
-23.589431999999999
 21
-21.699999999999989
 31
0.0
  0
LINE
  5
6A8
  8
DETAIL
  6
CONTINUOUS
 62
     5
 10
-21.519431999999991
 20
-22.703923
 30
0.0
 11
-21.519431999999991
 21
-21.699999999999989
 31
0.0
  0
LINE
  5
6A9
  8
DETAIL
  6
CONTINUOUS
 62
     5
 10
-21.049431999999999
 20
-22.703923
 30
0.0
 11
-21.049431999999999
 21
-21.699999999999989
 31
0.0
  0
LINE
  5
6AA
  8
DETAIL
  6
CONTINUOUS
 62
     5
 10
-24.059432000000001
 20
-30.32392299999999
 30
0.0
 11
-24.059432000000001
 21
-25.713923000000001
 31
0.0
  0
LINE
  5
6AB
  8
DETAIL
  6
CONTINUOUS
 62
     5
 10
-23.589431999999999
 20
-30.32392299999999
 30
0.0
 11
-23.589431999999999
 21
-25.713923000000001
 31
0.0
  0
LINE
  5
6AC
  8
DETAIL
  6
CONTINUOUS
 62
     5
 10
-21.519431999999991
 20
-30.799671000000011
 30
0.0
 11
-21.519431999999991
 21
-28.253922999999979
 31
0.0
  0
LINE
  5
6AD
  8
DETAIL
  6
CONTINUOUS
 62
     5
 10
-21.049431999999999
 20
-30.536135999999999
 30
0.0
 11
-21.049431999999999
 21
-28.253922999999979
 31
0.0
  0
LINE
  5
6AE
  8
DETAIL
  6
CONTINUOUS
 62
     5
 10
-24.059432000000001
 20
-27.783923000000001
 30
0.0
 11
-25.0
 21
-27.783923000000001
 31
0.0
  0
LINE
  5
6AF
  8
DETAIL
  6
CONTINUOUS
 62
     5
 10
-20.0
 20
-27.783923000000001
 30
0.0
 11
-23.589431999999999
 21
-27.783923000000001
 31
0.0
  0
LINE
  5
6B0
  8
DETAIL
  6
CONTINUOUS
 62
     5
 10
-24.059432000000001
 20
-28.253922999999979
 30
0.0
 11
-25.0
 21
-28.253922999999979
 31
0.0
  0
LINE
  5
6B1
  8
DETAIL
  6
CONTINUOUS
 62
     5
 10
-20.0
 20
-28.253922999999979
 30
0.0
 11
-23.589431999999999
 21
-28.253922999999979
 31
0.0
  0
LINE
  5
6B2
  8
DETAIL
  6
CONTINUOUS
 62
     5
 10
-21.519431999999991
 20
-27.783923000000001
 30
0.0
 11
-21.519431999999991
 21
-23.173922999999991
 31
0.0
  0
LINE
  5
6B3
  8
DETAIL
  6
CONTINUOUS
 62
     5
 10
-21.049431999999999
 20
-27.783923000000001
 30
0.0
 11
-21.049431999999999
 21
-23.173922999999991
 31
0.0
  0
LINE
  5
6B4
  8
DETAIL
  6
CONTINUOUS
 62
     5
 10
-21.519431999999991
 20
-25.243922999999999
 30
0.0
 11
-25.0
 21
-25.243922999999999
 31
0.0
  0
LINE
  5
6B5
  8
DETAIL
  6
CONTINUOUS
 62
     5
 10
-20.0
 20
-25.243922999999999
 30
0.0
 11
-21.049431999999999
 21
-25.243922999999999
 31
0.0
  0
LINE
  5
6B6
  8
DETAIL
  6
CONTINUOUS
 62
     5
 10
-21.519431999999991
 20
-25.713923000000001
 30
0.0
 11
-25.0
 21
-25.713923000000001
 31
0.0
  0
LINE
  5
6B7
  8
DETAIL
  6
CONTINUOUS
 62
     5
 10
-20.0
 20
-25.713923000000001
 30
0.0
 11
-21.049431999999999
 21
-25.713923000000001
 31
0.0
  0
LINE
  5
6B8
  8
DETAIL
  6
CONTINUOUS
 62
     5
 10
-24.059432000000001
 20
-22.703923
 30
0.0
 11
-25.0
 21
-22.703923
 31
0.0
  0
LINE
  5
6B9
  8
DETAIL
  6
CONTINUOUS
 62
     5
 10
-20.0
 20
-22.703923
 30
0.0
 11
-23.589431999999999
 21
-22.703923
 31
0.0
  0
LINE
  5
6BA
  8
DETAIL
  6
CONTINUOUS
 62
     5
 10
-24.059432000000001
 20
-23.173922999999991
 30
0.0
 11
-25.0
 21
-23.173922999999991
 31
0.0
  0
LINE
  5
6BB
  8
DETAIL
  6
CONTINUOUS
 62
     5
 10
-20.0
 20
-23.173922999999991
 30
0.0
 11
-23.589431999999999
 21
-23.173922999999991
 31
0.0
  0
LINE
  5
6BC
  8
DETAIL
  6
CONTINUOUS
 62
     5
 10
-21.519431999999991
 20
-30.32392299999999
 30
0.0
 11
-24.209766999999999
 21
-30.32392299999999
 31
0.0
  0
LINE
  5
6BD
  8
DETAIL
  6
CONTINUOUS
 62
     5
 10
-21.506060999999999
 20
-30.793922999999999
 30
0.0
 11
-23.493939000000001
 21
-30.793922999999999
 31
0.0
  0
LINE
  5
6BE
  8
DETAIL
  6
CONTINUOUS
 62
     5
 10
-20.790232999999979
 20
-30.32392299999999
 30
0.0
 11
-21.049431999999999
 21
-30.32392299999999
 31
0.0
  0
LINE
  5
6BF
  8
DETAIL
  6
CONTINUOUS
 62
     5
 10
-91.559432000000015
 20
-30.32392299999999
 30
0.0
 11
-91.559432000000015
 21
-25.713923000000001
 31
0.0
  0
LINE
  5
6C0
  8
DETAIL
  6
CONTINUOUS
 62
     5
 10
-91.089431999999974
 20
-30.32392299999999
 30
0.0
 11
-91.089431999999974
 21
-25.713923000000001
 31
0.0
  0
LINE
  5
6C1
  8
DETAIL
  6
CONTINUOUS
 62
     5
 10
-89.019431999999981
 20
-30.799671000000011
 30
0.0
 11
-89.019431999999981
 21
-28.253922999999979
 31
0.0
  0
LINE
  5
6C2
  8
DETAIL
  6
CONTINUOUS
 62
     5
 10
-88.549431999999996
 20
-30.536135999999999
 30
0.0
 11
-88.549431999999996
 21
-28.253922999999979
 31
0.0
  0
LINE
  5
6C3
  8
DETAIL
  6
CONTINUOUS
 62
     5
 10
-89.019431999999981
 20
-30.32392299999999
 30
0.0
 11
-91.709766999999999
 21
-30.32392299999999
 31
0.0
  0
LINE
  5
6C4
  8
DETAIL
  6
CONTINUOUS
 62
     5
 10
-88.290233000000015
 20
-30.32392299999999
 30
0.0
 11
-88.549431999999996
 21
-30.32392299999999
 31
0.0
  0
LINE
  5
6C5
  8
DETAIL
  6
CONTINUOUS
 62
     5
 10
-89.006061000000003
 20
-30.793922999999999
 30
0.0
 11
-90.993938999999997
 21
-30.793922999999999
 31
0.0
  0
LINE
  5
6C6
  8
DETAIL
  6
CONTINUOUS
 62
     5
 10
-91.559432000000015
 20
-27.783923000000001
 30
0.0
 11
-92.5
 21
-27.783923000000001
 31
0.0
  0
LINE
  5
6C7
  8
DETAIL
  6
CONTINUOUS
 62
     5
 10
-87.5
 20
-27.783923000000001
 30
0.0
 11
-91.089431999999974
 21
-27.783923000000001
 31
0.0
  0
LINE
  5
6C8
  8
DETAIL
  6
CONTINUOUS
 62
     5
 10
-91.559432000000015
 20
-28.253922999999979
 30
0.0
 11
-92.5
 21
-28.253922999999979
 31
0.0
  0
LINE
  5
6C9
  8
DETAIL
  6
CONTINUOUS
 62
     5
 10
-87.5
 20
-28.253922999999979
 30
0.0
 11
-91.089431999999974
 21
-28.253922999999979
 31
0.0
  0
LINE
  5
6CA
  8
DETAIL
  6
CONTINUOUS
 62
     5
 10
-89.019431999999981
 20
-27.783923000000001
 30
0.0
 11
-89.019431999999981
 21
-23.173922999999991
 31
0.0
  0
LINE
  5
6CB
  8
DETAIL
  6
CONTINUOUS
 62
     5
 10
-88.549431999999996
 20
-27.783923000000001
 30
0.0
 11
-88.549431999999996
 21
-23.173922999999991
 31
0.0
  0
LINE
  5
6CC
  8
DETAIL
  6
CONTINUOUS
 62
     5
 10
-89.019431999999981
 20
-25.243922999999999
 30
0.0
 11
-92.5
 21
-25.243922999999999
 31
0.0
  0
LINE
  5
6CD
  8
DETAIL
  6
CONTINUOUS
 62
     5
 10
-87.5
 20
-25.243922999999999
 30
0.0
 11
-88.549431999999996
 21
-25.243922999999999
 31
0.0
  0
LINE
  5
6CE
  8
DETAIL
  6
CONTINUOUS
 62
     5
 10
-89.019431999999981
 20
-25.713923000000001
 30
0.0
 11
-92.5
 21
-25.713923000000001
 31
0.0
  0
LINE
  5
6CF
  8
DETAIL
  6
CONTINUOUS
 62
     5
 10
-87.5
 20
-25.713923000000001
 30
0.0
 11
-88.549431999999996
 21
-25.713923000000001
 31
0.0
  0
LINE
  5
6D0
  8
DETAIL
  6
CONTINUOUS
 62
     5
 10
-91.089431999999974
 20
-25.243922999999999
 30
0.0
 11
-91.089431999999974
 21
-21.699999999999989
 31
0.0
  0
LINE
  5
6D1
  8
DETAIL
  6
CONTINUOUS
 62
     5
 10
-91.559432000000015
 20
-25.243922999999999
 30
0.0
 11
-91.559432000000015
 21
-21.699999999999989
 31
0.0
  0
LINE
  5
6D2
  8
DETAIL
  6
CONTINUOUS
 62
     5
 10
-91.559432000000015
 20
-22.703923
 30
0.0
 11
-92.5
 21
-22.703923
 31
0.0
  0
LINE
  5
6D3
  8
DETAIL
  6
CONTINUOUS
 62
     5
 10
-87.5
 20
-22.703923
 30
0.0
 11
-91.089431999999974
 21
-22.703923
 31
0.0
  0
LINE
  5
6D4
  8
DETAIL
  6
CONTINUOUS
 62
     5
 10
-91.559432000000015
 20
-23.173922999999991
 30
0.0
 11
-92.5
 21
-23.173922999999991
 31
0.0
  0
LINE
  5
6D5
  8
DETAIL
  6
CONTINUOUS
 62
     5
 10
-87.5
 20
-23.173922999999991
 30
0.0
 11
-91.089431999999974
 21
-23.173922999999991
 31
0.0
  0
LINE
  5
6D6
  8
DETAIL
  6
CONTINUOUS
 62
     5
 10
-89.019431999999981
 20
-22.703923
 30
0.0
 11
-89.019431999999981
 21
-21.699999999999989
 31
0.0
  0
LINE
  5
6D7
  8
DETAIL
  6
CONTINUOUS
 62
     5
 10
-88.549431999999996
 20
-22.703923
 30
0.0
 11
-88.549431999999996
 21
-21.699999999999989
 31
0.0
  0
LINE
  5
6D8
  8
DETAIL
  6
CONTINUOUS
 62
     5
 10
-88.549431999999996
 20
-21.699999999999989
 30
0.0
 11
-88.549431999999996
 21
-18.093923
 31
0.0
  0
LINE
  5
6D9
  8
DETAIL
  6
CONTINUOUS
 62
     5
 10
-89.019431999999981
 20
-21.699999999999989
 30
0.0
 11
-89.019431999999981
 21
-18.093923
 31
0.0
  0
LINE
  5
6DA
  8
DETAIL
  6
CONTINUOUS
 62
     5
 10
-91.089431999999974
 20
-21.699999999999989
 30
0.0
 11
-91.089431999999974
 21
-20.633922999999982
 31
0.0
  0
LINE
  5
6DB
  8
DETAIL
  6
CONTINUOUS
 62
     5
 10
-91.559432000000015
 20
-21.699999999999989
 30
0.0
 11
-91.559432000000015
 21
-20.633922999999982
 31
0.0
  0
LINE
  5
6DC
  8
DETAIL
  6
CONTINUOUS
 62
     5
 10
-84.059432000000015
 20
-21.699999999999989
 30
0.0
 11
-84.059432000000015
 21
-20.633922999999982
 31
0.0
  0
LINE
  5
6DD
  8
DETAIL
  6
CONTINUOUS
 62
     5
 10
-83.589431999999974
 20
-21.699999999999989
 30
0.0
 11
-83.589431999999974
 21
-20.633922999999982
 31
0.0
  0
LINE
  5
6DE
  8
DETAIL
  6
CONTINUOUS
 62
     5
 10
-81.519431999999981
 20
-21.699999999999989
 30
0.0
 11
-81.519431999999981
 21
-18.093923
 31
0.0
  0
LINE
  5
6DF
  8
DETAIL
  6
CONTINUOUS
 62
     5
 10
-81.049431999999996
 20
-21.699999999999989
 30
0.0
 11
-81.049431999999996
 21
-18.093923
 31
0.0
  0
LINE
  5
6E0
  8
DETAIL
  6
CONTINUOUS
 62
     5
 10
-84.059432000000015
 20
-25.243922999999999
 30
0.0
 11
-84.059432000000015
 21
-21.699999999999989
 31
0.0
  0
LINE
  5
6E1
  8
DETAIL
  6
CONTINUOUS
 62
     5
 10
-83.589431999999974
 20
-25.243922999999999
 30
0.0
 11
-83.589431999999974
 21
-21.699999999999989
 31
0.0
  0
LINE
  5
6E2
  8
DETAIL
  6
CONTINUOUS
 62
     5
 10
-81.519431999999981
 20
-22.703923
 30
0.0
 11
-81.519431999999981
 21
-21.699999999999989
 31
0.0
  0
LINE
  5
6E3
  8
DETAIL
  6
CONTINUOUS
 62
     5
 10
-81.049431999999996
 20
-22.703923
 30
0.0
 11
-81.049431999999996
 21
-21.699999999999989
 31
0.0
  0
LINE
  5
6E4
  8
DETAIL
  6
CONTINUOUS
 62
     5
 10
-84.059432000000015
 20
-30.32392299999999
 30
0.0
 11
-84.059432000000015
 21
-25.713923000000001
 31
0.0
  0
LINE
  5
6E5
  8
DETAIL
  6
CONTINUOUS
 62
     5
 10
-83.589431999999974
 20
-30.32392299999999
 30
0.0
 11
-83.589431999999974
 21
-25.713923000000001
 31
0.0
  0
LINE
  5
6E6
  8
DETAIL
  6
CONTINUOUS
 62
     5
 10
-81.519431999999981
 20
-30.799671000000011
 30
0.0
 11
-81.519431999999981
 21
-28.253922999999979
 31
0.0
  0
LINE
  5
6E7
  8
DETAIL
  6
CONTINUOUS
 62
     5
 10
-81.049431999999996
 20
-30.536135999999999
 30
0.0
 11
-81.049431999999996
 21
-28.253922999999979
 31
0.0
  0
LINE
  5
6E8
  8
DETAIL
  6
CONTINUOUS
 62
     5
 10
-84.059432000000015
 20
-27.783923000000001
 30
0.0
 11
-85.0
 21
-27.783923000000001
 31
0.0
  0
LINE
  5
6E9
  8
DETAIL
  6
CONTINUOUS
 62
     5
 10
-80.0
 20
-27.783923000000001
 30
0.0
 11
-83.589431999999974
 21
-27.783923000000001
 31
0.0
  0
LINE
  5
6EA
  8
DETAIL
  6
CONTINUOUS
 62
     5
 10
-84.059432000000015
 20
-28.253922999999979
 30
0.0
 11
-85.0
 21
-28.253922999999979
 31
0.0
  0
LINE
  5
6EB
  8
DETAIL
  6
CONTINUOUS
 62
     5
 10
-80.0
 20
-28.253922999999979
 30
0.0
 11
-83.589431999999974
 21
-28.253922999999979
 31
0.0
  0
LINE
  5
6EC
  8
DETAIL
  6
CONTINUOUS
 62
     5
 10
-81.519431999999981
 20
-27.783923000000001
 30
0.0
 11
-81.519431999999981
 21
-23.173922999999991
 31
0.0
  0
LINE
  5
6ED
  8
DETAIL
  6
CONTINUOUS
 62
     5
 10
-81.049431999999996
 20
-27.783923000000001
 30
0.0
 11
-81.049431999999996
 21
-23.173922999999991
 31
0.0
  0
LINE
  5
6EE
  8
DETAIL
  6
CONTINUOUS
 62
     5
 10
-81.519431999999981
 20
-25.243922999999999
 30
0.0
 11
-85.0
 21
-25.243922999999999
 31
0.0
  0
LINE
  5
6EF
  8
DETAIL
  6
CONTINUOUS
 62
     5
 10
-80.0
 20
-25.243922999999999
 30
0.0
 11
-81.049431999999996
 21
-25.243922999999999
 31
0.0
  0
LINE
  5
6F0
  8
DETAIL
  6
CONTINUOUS
 62
     5
 10
-81.519431999999981
 20
-25.713923000000001
 30
0.0
 11
-85.0
 21
-25.713923000000001
 31
0.0
  0
LINE
  5
6F1
  8
DETAIL
  6
CONTINUOUS
 62
     5
 10
-80.0
 20
-25.713923000000001
 30
0.0
 11
-81.049431999999996
 21
-25.713923000000001
 31
0.0
  0
LINE
  5
6F2
  8
DETAIL
  6
CONTINUOUS
 62
     5
 10
-84.059432000000015
 20
-22.703923
 30
0.0
 11
-85.0
 21
-22.703923
 31
0.0
  0
LINE
  5
6F3
  8
DETAIL
  6
CONTINUOUS
 62
     5
 10
-80.0
 20
-22.703923
 30
0.0
 11
-83.589431999999974
 21
-22.703923
 31
0.0
  0
LINE
  5
6F4
  8
DETAIL
  6
CONTINUOUS
 62
     5
 10
-84.059432000000015
 20
-23.173922999999991
 30
0.0
 11
-85.0
 21
-23.173922999999991
 31
0.0
  0
LINE
  5
6F5
  8
DETAIL
  6
CONTINUOUS
 62
     5
 10
-80.0
 20
-23.173922999999991
 30
0.0
 11
-83.589431999999974
 21
-23.173922999999991
 31
0.0
  0
LINE
  5
6F6
  8
DETAIL
  6
CONTINUOUS
 62
     5
 10
-81.519431999999981
 20
-30.32392299999999
 30
0.0
 11
-84.209766999999999
 21
-30.32392299999999
 31
0.0
  0
LINE
  5
6F7
  8
DETAIL
  6
CONTINUOUS
 62
     5
 10
-81.506061000000003
 20
-30.793922999999999
 30
0.0
 11
-83.493938999999983
 21
-30.793922999999999
 31
0.0
  0
LINE
  5
6F8
  8
DETAIL
  6
CONTINUOUS
 62
     5
 10
-80.790233000000015
 20
-30.32392299999999
 30
0.0
 11
-81.049431999999996
 21
-30.32392299999999
 31
0.0
  0
LINE
  5
6F9
  8
DETAIL
  6
CONTINUOUS
 62
     5
 10
-76.559432000000001
 20
-21.699999999999989
 30
0.0
 11
-76.559432000000001
 21
-20.633922999999982
 31
0.0
  0
LINE
  5
6FA
  8
DETAIL
  6
CONTINUOUS
 62
     5
 10
-76.089431999999974
 20
-21.699999999999989
 30
0.0
 11
-76.089431999999974
 21
-20.633922999999982
 31
0.0
  0
LINE
  5
6FB
  8
DETAIL
  6
CONTINUOUS
 62
     5
 10
-76.559432000000001
 20
-25.243922999999999
 30
0.0
 11
-76.559432000000001
 21
-21.699999999999989
 31
0.0
  0
LINE
  5
6FC
  8
DETAIL
  6
CONTINUOUS
 62
     5
 10
-76.089431999999974
 20
-25.243922999999999
 30
0.0
 11
-76.089431999999974
 21
-21.699999999999989
 31
0.0
  0
LINE
  5
6FD
  8
DETAIL
  6
CONTINUOUS
 62
     5
 10
-76.559432000000001
 20
-30.32392299999999
 30
0.0
 11
-76.559432000000001
 21
-25.713923000000001
 31
0.0
  0
LINE
  5
6FE
  8
DETAIL
  6
CONTINUOUS
 62
     5
 10
-76.089431999999974
 20
-30.32392299999999
 30
0.0
 11
-76.089431999999974
 21
-25.713923000000001
 31
0.0
  0
LINE
  5
6FF
  8
DETAIL
  6
CONTINUOUS
 62
     5
 10
-76.559432000000001
 20
-27.783923000000001
 30
0.0
 11
-77.5
 21
-27.783923000000001
 31
0.0
  0
LINE
  5
700
  8
DETAIL
  6
CONTINUOUS
 62
     5
 10
-72.5
 20
-27.783923000000001
 30
0.0
 11
-76.089431999999974
 21
-27.783923000000001
 31
0.0
  0
LINE
  5
701
  8
DETAIL
  6
CONTINUOUS
 62
     5
 10
-76.559432000000001
 20
-28.253922999999979
 30
0.0
 11
-77.5
 21
-28.253922999999979
 31
0.0
  0
LINE
  5
702
  8
DETAIL
  6
CONTINUOUS
 62
     5
 10
-72.5
 20
-28.253922999999979
 30
0.0
 11
-76.089431999999974
 21
-28.253922999999979
 31
0.0
  0
LINE
  5
703
  8
DETAIL
  6
CONTINUOUS
 62
     5
 10
-74.019431999999981
 20
-25.243922999999999
 30
0.0
 11
-77.5
 21
-25.243922999999999
 31
0.0
  0
LINE
  5
704
  8
DETAIL
  6
CONTINUOUS
 62
     5
 10
-74.019431999999981
 20
-25.713923000000001
 30
0.0
 11
-77.5
 21
-25.713923000000001
 31
0.0
  0
LINE
  5
705
  8
DETAIL
  6
CONTINUOUS
 62
     5
 10
-76.559432000000001
 20
-22.703923
 30
0.0
 11
-77.5
 21
-22.703923
 31
0.0
  0
LINE
  5
706
  8
DETAIL
  6
CONTINUOUS
 62
     5
 10
-72.5
 20
-22.703923
 30
0.0
 11
-76.089431999999974
 21
-22.703923
 31
0.0
  0
LINE
  5
707
  8
DETAIL
  6
CONTINUOUS
 62
     5
 10
-76.559432000000001
 20
-23.173922999999991
 30
0.0
 11
-77.5
 21
-23.173922999999991
 31
0.0
  0
LINE
  5
708
  8
DETAIL
  6
CONTINUOUS
 62
     5
 10
-72.5
 20
-23.173922999999991
 30
0.0
 11
-76.089431999999974
 21
-23.173922999999991
 31
0.0
  0
LINE
  5
709
  8
DETAIL
  6
CONTINUOUS
 62
     5
 10
-74.019431999999981
 20
-30.32392299999999
 30
0.0
 11
-76.709766999999999
 21
-30.32392299999999
 31
0.0
  0
LINE
  5
70A
  8
DETAIL
  6
CONTINUOUS
 62
     5
 10
-74.006061000000003
 20
-30.793922999999999
 30
0.0
 11
-75.993938999999983
 21
-30.793922999999999
 31
0.0
  0
LINE
  5
70B
  8
DETAIL
  6
CONTINUOUS
 62
     5
 10
-105.0
 20
-10.0
 30
0.0
 11
-105.0
 21
0.0
 31
0.0
  0
LINE
  5
70C
  8
DETAIL
  6
CONTINUOUS
 62
     5
 10
105.0
 20
0.0
 30
0.0
 11
-105.0
 21
0.0
 31
0.0
  0
LINE
  5
70D
  8
DETAIL
  6
CONTINUOUS
 62
     5
 10
105.0
 20
0.0
 30
0.0
 11
105.0
 21
-10.6
 31
0.0
  0
LINE
  5
70E
  8
DETAIL
  6
CONTINUOUS
 62
     5
 10
102.119861
 20
-0.8
 30
0.0
 11
105.0
 21
-0.8
 31
0.0
  0
LINE
  5
70F
  8
DETAIL
  6
CONTINUOUS
 62
     5
 10
-105.0
 20
-0.8
 30
0.0
 11
-101.8801389999999
 21
-0.8
 31
0.0
  0
LINE
  5
710
  8
DETAIL
  6
CONTINUOUS
 62
     5
 10
-105.975233
 20
-33.299999999999997
 30
0.0
 11
-101.380139
 21
-33.299999999999997
 31
0.0
  0
ARC
  5
711
  8
DETAIL
  6
CONTINUOUS
 62
     5
 10
-101.380139
 20
-32.79999999999999
 30
0.0
 40
0.5
 50
270.0
 51
90.0
  0
LINE
  5
712
  8
DETAIL
  6
CONTINUOUS
 62
     5
 10
-101.8801389999999
 20
-32.29999999999999
 30
0.0
 11
-101.380139
 21
-32.29999999999999
 31
0.0
  0
LINE
  5
713
  8
DETAIL
  6
CONTINUOUS
 62
     5
 10
-101.8801389999999
 20
-14.633042
 30
0.0
 11
-101.8801389999999
 21
-32.29999999999999
 31
0.0
  0
ARC
  5
714
  8
DETAIL
  6
CONTINUOUS
 62
     5
 10
101.619861
 20
-32.79999999999999
 30
0.0
 40
0.5
 50
90.0
 51
270.0
  0
LINE
  5
715
  8
DETAIL
  6
CONTINUOUS
 62
     5
 10
102.119861
 20
-32.29999999999999
 30
0.0
 11
101.619861
 21
-32.29999999999999
 31
0.0
  0
LINE
  5
716
  8
DETAIL
  6
CONTINUOUS
 62
     5
 10
105.975233
 20
-33.299999999999997
 30
0.0
 11
101.619861
 21
-33.299999999999997
 31
0.0
  0
LINE
  5
717
  8
DETAIL
  6
CONTINUOUS
 62
     5
 10
-101.8801389999999
 20
-0.8
 30
0.0
 11
102.119861
 21
-0.8
 31
0.0
  0
LINE
  5
718
  8
DETAIL
  6
CONTINUOUS
 62
     5
 10
102.119861
 20
-14.528376
 30
0.0
 11
102.119861
 21
-32.29999999999999
 31
0.0
  0
LINE
  5
719
  8
DETAIL
  6
CONTINUOUS
 62
     5
 10
-20.0
 20
-15.0
 30
0.0
 11
-20.0
 21
-28.5
 31
0.0
  0
LINE
  5
71A
  8
DETAIL
  6
CONTINUOUS
 62
     5
 10
-25.0
 20
-15.0
 30
0.0
 11
-25.0
 21
-28.5
 31
0.0
  0
LINE
  5
71B
  8
DETAIL
  6
CONTINUOUS
 62
     5
 10
-27.5
 20
-15.0
 30
0.0
 11
-27.5
 21
-28.5
 31
0.0
  0
LINE
  5
71C
  8
DETAIL
  6
CONTINUOUS
 62
     5
 10
-32.5
 20
-15.0
 30
0.0
 11
-32.5
 21
-28.5
 31
0.0
  0
LINE
  5
71D
  8
DETAIL
  6
CONTINUOUS
 62
     5
 10
-35.0
 20
-15.0
 30
0.0
 11
-35.0
 21
-28.5
 31
0.0
  0
LINE
  5
71E
  8
DETAIL
  6
CONTINUOUS
 62
     5
 10
-40.0
 20
-15.0
 30
0.0
 11
-40.0
 21
-28.5
 31
0.0
  0
LINE
  5
71F
  8
DETAIL
  6
CONTINUOUS
 62
     5
 10
-42.5
 20
-15.0
 30
0.0
 11
-42.5
 21
-28.5
 31
0.0
  0
LINE
  5
720
  8
DETAIL
  6
CONTINUOUS
 62
     5
 10
-47.5
 20
-15.0
 30
0.0
 11
-47.5
 21
-28.5
 31
0.0
  0
LINE
  5
721
  8
DETAIL
  6
CONTINUOUS
 62
     5
 10
-50.0
 20
-15.0
 30
0.0
 11
-50.0
 21
-28.5
 31
0.0
  0
LINE
  5
722
  8
DETAIL
  6
CONTINUOUS
 62
     5
 10
-55.0
 20
-15.0
 30
0.0
 11
-55.0
 21
-28.5
 31
0.0
  0
LINE
  5
723
  8
DETAIL
  6
CONTINUOUS
 62
     5
 10
-57.5
 20
-15.0
 30
0.0
 11
-57.5
 21
-28.5
 31
0.0
  0
LINE
  5
724
  8
DETAIL
  6
CONTINUOUS
 62
     5
 10
-62.5
 20
-15.0
 30
0.0
 11
-62.5
 21
-28.5
 31
0.0
  0
LINE
  5
725
  8
DETAIL
  6
CONTINUOUS
 62
     5
 10
-65.0
 20
-15.0
 30
0.0
 11
-65.0
 21
-28.5
 31
0.0
  0
LINE
  5
726
  8
DETAIL
  6
CONTINUOUS
 62
     5
 10
-70.0
 20
-15.0
 30
0.0
 11
-70.0
 21
-28.5
 31
0.0
  0
LINE
  5
727
  8
DETAIL
  6
CONTINUOUS
 62
     5
 10
-72.5
 20
-15.0
 30
0.0
 11
-72.5
 21
-28.5
 31
0.0
  0
ARC
  5
728
  8
DETAIL
  6
CONTINUOUS
 62
     5
 10
-67.5
 20
-28.5
 30
0.0
 40
2.5
 50
180.0
 51
0.0
  0
ARC
  5
729
  8
DETAIL
  6
CONTINUOUS
 62
     5
 10
-60.0
 20
-28.5
 30
0.0
 40
2.5
 50
180.0
 51
0.0
  0
ARC
  5
72A
  8
DETAIL
  6
CONTINUOUS
 62
     5
 10
-52.5
 20
-28.5
 30
0.0
 40
2.5
 50
180.0
 51
0.0
  0
ARC
  5
72B
  8
DETAIL
  6
CONTINUOUS
 62
     5
 10
-45.0
 20
-28.5
 30
0.0
 40
2.5
 50
180.0
 51
0.0
  0
ARC
  5
72C
  8
DETAIL
  6
CONTINUOUS
 62
     5
 10
-37.5
 20
-28.5
 30
0.0
 40
2.5
 50
180.0
 51
0.0
  0
ARC
  5
72D
  8
DETAIL
  6
CONTINUOUS
 62
     5
 10
-30.0
 20
-28.5
 30
0.0
 40
2.5
 50
180.0
 51
0.0
  0
ARC
  5
72E
  8
DETAIL
  6
CONTINUOUS
 62
     5
 10
-22.5
 20
-28.5
 30
0.0
 40
2.5
 50
180.0
 51
0.0
  0
LINE
  5
72F
  8
DETAIL
  6
CONTINUOUS
 62
     5
 10
-87.5
 20
-15.0
 30
0.0
 11
-87.5
 21
-28.5
 31
0.0
  0
LINE
  5
730
  8
DETAIL
  6
CONTINUOUS
 62
     5
 10
-92.5
 20
-15.0
 30
0.0
 11
-92.5
 21
-28.5
 31
0.0
  0
ARC
  5
731
  8
DETAIL
  6
CONTINUOUS
 62
     5
 10
-90.0
 20
-28.5
 30
0.0
 40
2.5
 50
180.0
 51
0.0
  0
LINE
  5
732
  8
DETAIL
  6
CONTINUOUS
 62
     5
 10
-80.0
 20
-15.0
 30
0.0
 11
-80.0
 21
-28.5
 31
0.0
  0
LINE
  5
733
  8
DETAIL
  6
CONTINUOUS
 62
     5
 10
-85.0
 20
-15.0
 30
0.0
 11
-85.0
 21
-28.5
 31
0.0
  0
ARC
  5
734
  8
DETAIL
  6
CONTINUOUS
 62
     5
 10
-82.5
 20
-28.5
 30
0.0
 40
2.5
 50
180.0
 51
0.0
  0
LINE
  5
735
  8
DETAIL
  6
CONTINUOUS
 62
     5
 10
-77.5
 20
-15.0
 30
0.0
 11
-77.5
 21
-28.5
 31
0.0
  0
ARC
  5
736
  8
DETAIL
  6
CONTINUOUS
 62
     5
 10
-75.0
 20
-28.5
 30
0.0
 40
2.5
 50
180.0
 51
0.0
  0
LINE
  5
737
  8
SIZE
  6
CONTINUOUS
 62
    30
 10
105.0
 20
20.0
 30
0.0
 11
105.0
 21
388.84615499999978
 31
0.0
  0
LINE
  5
738
  8
SIZE
  6
CONTINUOUS
 62
    30
 10
-105.0
 20
20.0
 30
0.0
 11
-105.0
 21
388.84615499999978
 31
0.0
  0
LINE
  5
739
  8
SIZE
  6
CONTINUOUS
 62
    30
 10
93.0
 20
368.84615499999978
 30
0.0
 11
-93.0
 21
368.84615499999978
 31
0.0
  0
CIRCLE
  5
73A
  8
SIZE
  6
CONTINUOUS
 62
    30
 10
105.0
 20
368.84615499999978
 30
0.0
 40
6.0
  0
LINE
  5
73B
  8
SIZE
  6
CONTINUOUS
 62
    30
 10
105.0
 20
368.84615499999978
 30
0.0
 11
93.0
 21
368.84615499999978
 31
0.0
  0
CIRCLE
  5
73C
  8
SIZE
  6
CONTINUOUS
 62
    30
 10
-105.0
 20
368.84615499999978
 30
0.0
 40
6.0
  0
LINE
  5
73D
  8
SIZE
  6
CONTINUOUS
 62
    30
 10
-105.0
 20
368.84615499999978
 30
0.0
 11
-93.0
 21
368.84615499999978
 31
0.0
  0
TEXT
  5
73E
  8
SIZE
  6
CONTINUOUS
 62
    30
 10
-68.571428571428555
 20
393.84615499999978
 30
0.0
 40
64.0
  1
210
 41
0.9
 72
     1
 11
0.0
 21
393.84615499999978
 31
0.0
  0
CIRCLE
  5
73F
  8
FIX
  6
CONTINUOUS
 62
    11
 39
50.0
 10
-85.0
 20
0.0
 30
0.0
 40
5.5
  0
CIRCLE
  5
740
  8
FIX
  6
CONTINUOUS
 62
    11
 39
50.0
 10
-70.0
 20
0.0
 30
0.0
 40
2.5
  0
LINE
  5
741
  8
NOTE
  6
CONTINUOUS
 62
     4
 10
-70.0
 20
-20.0
 30
0.0
 11
-70.0
 21
20.0
 31
0.0
  0
LINE
  5
742
  8
NOTE
  6
CONTINUOUS
 62
     4
 10
-90.0
 20
0.0
 30
0.0
 11
-50.0
 21
0.0
 31
0.0
  0
LINE
  5
743
  8
NOTE
  6
CONTINUOUS
 62
     4
 10
-85.0
 20
-20.0
 30
0.0
 11
-85.0
 21
20.0
 31
0.0
  0
LINE
  5
744
  8
NOTE
  6
CONTINUOUS
 62
     4
 10
-105.0
 20
0.0
 30
0.0
 11
-65.0
 21
0.0
 31
0.0
  0
LINE
  5
745
  8
NOTE
  6
CONTINUOUS
 62
     4
 10
85.0
 20
-20.0
 30
0.0
 11
85.0
 21
20.0
 31
0.0
  0
LINE
  5
746
  8
NOTE
  6
CONTINUOUS
 62
     4
 10
105.0
 20
0.0
 30
0.0
 11
65.0
 21
0.0
 31
0.0
  0
LINE
  5
747
  8
NOTE
  6
CONTINUOUS
 62
     4
 10
70.0
 20
-20.0
 30
0.0
 11
70.0
 21
20.0
 31
0.0
  0
LINE
  5
748
  8
NOTE
  6
CONTINUOUS
 62
     4
 10
90.0
 20
0.0
 30
0.0
 11
50.0
 21
0.0
 31
0.0
  0
CIRCLE
  5
749
  8
FIX
  6
CONTINUOUS
 62
    11
 39
50.0
 10
70.0
 20
0.0
 30
0.0
 40
2.5
  0
CIRCLE
  5
74A
  8
FIX
  6
CONTINUOUS
 62
    11
 39
50.0
 10
85.0
 20
0.0
 30
0.0
 40
5.5
  0
ARC
  5
74B
  8
DETAIL
  6
CONTINUOUS
 62
     5
 10
0.0
 20
-6.7494550000000002
 30
0.0
 40
109.2505449999999
 50
194.06511
 51
345.93489
  0
LINE
  5
74C
  8
SIZE
  6
CONTINUOUS
 62
    30
 10
125.0
 20
0.0
 30
0.0
 11
293.993313
 21
0.0
 31
0.0
  0
LINE
  5
74D
  8
SIZE
  6
CONTINUOUS
 62
    30
 10
20.0
 20
-116.0
 30
0.0
 11
293.993313
 21
-116.0
 31
0.0
  0
LINE
  5
74E
  8
SIZE
  6
CONTINUOUS
 62
    30
 10
273.993313
 20
-12.0
 30
0.0
 11
273.993313
 21
-104.0
 31
0.0
  0
LINE
  5
74F
  8
SIZE
  6
CONTINUOUS
 62
    30
 10
273.993313
 20
-313.13564100000002
 30
0.0
 11
273.993313
 21
-116.0
 31
0.0
  0
TEXT
  5
750
  8
SIZE
  6
CONTINUOUS
 62
    30
 10
248.993313
 20
-288.13564171428561
 30
0.0
 40
64.0
  1
116
 50
90.0
 41
0.9
 72
     1
 11
248.993313
 21
-226.42135599999989
 31
0.0
  0
CIRCLE
  5
751
  8
SIZE
  6
CONTINUOUS
 62
    30
 10
273.993313
 20
0.0
 30
0.0
 40
6.0
  0
LINE
  5
752
  8
SIZE
  6
CONTINUOUS
 62
    30
 10
273.993313
 20
0.0
 30
0.0
 11
273.993313
 21
-12.0
 31
0.0
  0
CIRCLE
  5
753
  8
SIZE
  6
CONTINUOUS
 62
    30
 10
273.993313
 20
-116.0
 30
0.0
 40
6.0
  0
LINE
  5
754
  8
SIZE
  6
CONTINUOUS
 62
    30
 10
273.993313
 20
-116.0
 30
0.0
 11
273.993313
 21
-104.0
 31
0.0
  0
ARC
  5
755
  8
DETAIL
  6
CONTINUOUS
 62
     5
 10
-100.0
 20
-10.0
 30
0.0
 40
5.0
 50
180.0
 51
270.0
  0
ARC
  5
756
  8
DETAIL
  6
CONTINUOUS
 62
     5
 10
100.0
 20
-10.0
 30
0.0
 40
5.0
 50
270.0
 51
0.0
  0
LINE
  5
757
  8
SIZE
  6
CONTINUOUS
 62
    30
 10
85.0
 20
40.0
 30
0.0
 11
85.0
 21
268.865882
 31
0.0
  0
LINE
  5
758
  8
SIZE
  6
CONTINUOUS
 62
    30
 10
-85.0
 20
40.0
 30
0.0
 11
-85.0
 21
268.865882
 31
0.0
  0
LINE
  5
759
  8
SIZE
  6
CONTINUOUS
 62
    30
 10
97.0
 20
248.86588199999991
 30
0.0
 11
109.0
 21
248.86588199999991
 31
0.0
  0
LINE
  5
75A
  8
SIZE
  6
CONTINUOUS
 62
    30
 10
-97.0
 20
248.86588199999991
 30
0.0
 11
-109.0
 21
248.86588199999991
 31
0.0
  0
LINE
  5
75B
  8
SIZE
  6
CONTINUOUS
 62
    30
 10
85.0
 20
248.86588199999991
 30
0.0
 11
-85.0
 21
248.86588199999991
 31
0.0
  0
CIRCLE
  5
75C
  8
SIZE
  6
CONTINUOUS
 62
    30
 10
85.0
 20
248.86588199999991
 30
0.0
 40
6.0
  0
LINE
  5
75D
  8
SIZE
  6
CONTINUOUS
 62
    30
 10
85.0
 20
248.86588199999991
 30
0.0
 11
97.0
 21
248.86588199999991
 31
0.0
  0
CIRCLE
  5
75E
  8
SIZE
  6
CONTINUOUS
 62
    30
 10
-85.0
 20
248.86588199999991
 30
0.0
 40
6.0
  0
LINE
  5
75F
  8
SIZE
  6
CONTINUOUS
 62
    30
 10
-85.0
 20
248.86588199999991
 30
0.0
 11
-97.0
 21
248.86588199999991
 31
0.0
  0
TEXT
  5
760
  8
SIZE
  6
CONTINUOUS
 62
    30
 10
-68.571428571428569
 20
273.86588199999989
 30
0.0
 40
64.0
  1
170
 41
0.9
 72
     1
 11
0.0
 21
273.86588199999989
 31
0.0
  0
LINE
  5
761
  8
SIZE
  6
CONTINUOUS
 62
    30
 10
70.0
 20
40.0
 30
0.0
 11
70.0
 21
148.7475389999999
 31
0.0
  0
LINE
  5
762
  8
SIZE
  6
CONTINUOUS
 62
    30
 10
-70.0
 20
40.0
 30
0.0
 11
-70.0
 21
148.7475389999999
 31
0.0
  0
LINE
  5
763
  8
SIZE
  6
CONTINUOUS
 62
    30
 10
82.0
 20
128.7475389999999
 30
0.0
 11
94.0
 21
128.7475389999999
 31
0.0
  0
LINE
  5
764
  8
SIZE
  6
CONTINUOUS
 62
    30
 10
-82.0
 20
128.7475389999999
 30
0.0
 11
-94.0
 21
128.7475389999999
 31
0.0
  0
LINE
  5
765
  8
SIZE
  6
CONTINUOUS
 62
    30
 10
70.0
 20
128.7475389999999
 30
0.0
 11
-70.0
 21
128.7475389999999
 31
0.0
  0
CIRCLE
  5
766
  8
SIZE
  6
CONTINUOUS
 62
    30
 10
70.0
 20
128.7475389999999
 30
0.0
 40
6.0
  0
LINE
  5
767
  8
SIZE
  6
CONTINUOUS
 62
    30
 10
70.0
 20
128.7475389999999
 30
0.0
 11
82.0
 21
128.7475389999999
 31
0.0
  0
CIRCLE
  5
768
  8
SIZE
  6
CONTINUOUS
 62
    30
 10
-70.0
 20
128.7475389999999
 30
0.0
 40
6.0
  0
LINE
  5
769
  8
SIZE
  6
CONTINUOUS
 62
    30
 10
-70.0
 20
128.7475389999999
 30
0.0
 11
-82.0
 21
128.7475389999999
 31
0.0
  0
TEXT
  5
76A
  8
SIZE
  6
CONTINUOUS
 62
    30
 10
-68.571428571428569
 20
153.7475389999999
 30
0.0
 40
64.0
  1
140
 41
0.9
 72
     1
 11
0.0
 21
153.7475389999999
 31
0.0
  0
LINE
  5
76B
  8
NOTE
  6
CONTINUOUS
 62
     4
 39
50.0
 10
-85.0
 20
0.0
 30
0.0
 11
-155.28111799999991
 21
152.89346
 31
0.0
  0
LINE
  5
76C
  8
NOTE
  6
CONTINUOUS
 62
     4
 10
-634.96016399999985
 20
152.89346
 30
0.0
 11
-155.28111799999991
 21
152.89346
 31
0.0
  0
LINE
  5
76D
  8
NOTE
  6
CONTINUOUS
 62
     4
 10
-111.014473
 20
30.384982999999998
 30
0.0
 11
-85.0
 21
0.0
 31
0.0
  0
LINE
  5
76E
  8
NOTE
  6
CONTINUOUS
 62
     4
 10
-85.0
 20
0.0
 30
0.0
 11
-92.336702000000002
 21
39.321404000000001
 31
0.0
  0
TEXT
  5
76F
  8
NOTE
  6
CONTINUOUS
 62
     4
 10
-617.88599899999986
 20
188.2481029999999
 30
0.0
 40
64.0
  1
4-φ11×22
 41
0.9
  0
LINE
  5
770
  8
NOTE
  6
CONTINUOUS
 62
     4
 39
50.0
 10
146.1637299999999
 20
187.6801249999998
 30
0.0
 11
70.0
 21
0.0
 31
0.0
  0
LINE
  5
771
  8
NOTE
  6
CONTINUOUS
 62
     4
 10
146.1637299999999
 20
187.6801249999998
 30
0.0
 11
413.81724699999972
 21
187.6801249999998
 31
0.0
  0
TEXT
  5
772
  8
NOTE
  6
CONTINUOUS
 62
     4
 10
165.0230419999998
 20
223.03476800000001
 30
0.0
 40
64.0
  1
4-φ5
 41
0.9
  0
LINE
  5
773
  8
NOTE
  6
CONTINUOUS
 62
     4
 10
74.818681999999981
 20
39.708692999999997
 30
0.0
 11
70.0
 21
0.0
 31
0.0
  0
LINE
  5
774
  8
NOTE
  6
CONTINUOUS
 62
     4
 10
70.0
 20
0.0
 30
0.0
 11
94.027447999999964
 21
31.979396000000001
 31
0.0
  0
LINE
  5
775
  8
DETAIL
  6
CONTINUOUS
 62
     5
 10
100.0
 20
-15.0
 30
0.0
 11
-100.0
 21
-15.0
 31
0.0
  0
ARC
  5
776
  8
DETAIL
  6
CONTINUOUS
 62
     5
 10
60.0
 20
-28.5
 30
0.0
 40
2.5
 50
180.0
 51
0.0
  0
LINE
  5
777
  8
DETAIL
  6
CONTINUOUS
 62
     5
 10
57.5
 20
-23.173922999999991
 30
0.0
 11
61.089431999999981
 21
-23.173922999999991
 31
0.0
  0
LINE
  5
778
  8
DETAIL
  6
CONTINUOUS
 62
     5
 10
57.5
 20
-22.703923
 30
0.0
 11
61.089431999999981
 21
-22.703923
 31
0.0
  0
LINE
  5
779
  8
DETAIL
  6
CONTINUOUS
 62
     5
 10
57.5
 20
-25.713923000000001
 30
0.0
 11
58.54943200000001
 21
-25.713923000000001
 31
0.0
  0
LINE
  5
77A
  8
DETAIL
  6
CONTINUOUS
 62
     5
 10
57.5
 20
-25.243922999999999
 30
0.0
 11
58.54943200000001
 21
-25.243922999999999
 31
0.0
  0
LINE
  5
77B
  8
DETAIL
  6
CONTINUOUS
 62
     5
 10
57.5
 20
-28.253922999999979
 30
0.0
 11
61.089431999999981
 21
-28.253922999999979
 31
0.0
  0
LINE
  5
77C
  8
DETAIL
  6
CONTINUOUS
 62
     5
 10
57.5
 20
-27.783923000000001
 30
0.0
 11
61.089431999999981
 21
-27.783923000000001
 31
0.0
  0
LINE
  5
77D
  8
DETAIL
  6
CONTINUOUS
 62
     5
 10
57.5
 20
-15.553922999999999
 30
0.0
 11
58.54943200000001
 21
-15.553922999999999
 31
0.0
  0
LINE
  5
77E
  8
DETAIL
  6
CONTINUOUS
 62
     5
 10
57.5
 20
-15.083923
 30
0.0
 11
58.54943200000001
 21
-15.083923
 31
0.0
  0
LINE
  5
77F
  8
DETAIL
  6
CONTINUOUS
 62
     5
 10
57.5
 20
-18.093923
 30
0.0
 11
61.089431999999981
 21
-18.093923
 31
0.0
  0
LINE
  5
780
  8
DETAIL
  6
CONTINUOUS
 62
     5
 10
57.5
 20
-17.623923000000001
 30
0.0
 11
61.089431999999981
 21
-17.623923000000001
 31
0.0
  0
LINE
  5
781
  8
DETAIL
  6
CONTINUOUS
 62
     5
 10
57.5
 20
-20.633922999999982
 30
0.0
 11
58.54943200000001
 21
-20.633922999999982
 31
0.0
  0
LINE
  5
782
  8
DETAIL
  6
CONTINUOUS
 62
     5
 10
57.5
 20
-20.163923
 30
0.0
 11
58.54943200000001
 21
-20.163923
 31
0.0
  0
LINE
  5
783
  8
DETAIL
  6
CONTINUOUS
 62
     5
 10
62.5
 20
-15.0
 30
0.0
 11
62.5
 21
-28.5
 31
0.0
  0
LINE
  5
784
  8
DETAIL
  6
CONTINUOUS
 62
     5
 10
61.559431999999987
 20
-15.083923
 30
0.0
 11
61.559431999999987
 21
-15.0
 31
0.0
  0
LINE
  5
785
  8
DETAIL
  6
CONTINUOUS
 62
     5
 10
61.089431999999981
 20
-15.083923
 30
0.0
 11
61.089431999999981
 21
-15.0
 31
0.0
  0
LINE
  5
786
  8
DETAIL
  6
CONTINUOUS
 62
     5
 10
59.019431999999981
 20
-17.623923000000001
 30
0.0
 11
59.019431999999981
 21
-15.0
 31
0.0
  0
LINE
  5
787
  8
DETAIL
  6
CONTINUOUS
 62
     5
 10
58.54943200000001
 20
-17.623923000000001
 30
0.0
 11
58.54943200000001
 21
-15.0
 31
0.0
  0
LINE
  5
788
  8
DETAIL
  6
CONTINUOUS
 62
     5
 10
65.0
 20
-15.0
 30
0.0
 11
65.0
 21
-28.5
 31
0.0
  0
LINE
  5
789
  8
DETAIL
  6
CONTINUOUS
 62
     5
 10
66.049431999999996
 20
-17.623923000000001
 30
0.0
 11
66.049431999999996
 21
-15.0
 31
0.0
  0
LINE
  5
78A
  8
DETAIL
  6
CONTINUOUS
 62
     5
 10
66.519431999999995
 20
-17.623923000000001
 30
0.0
 11
66.519431999999995
 21
-15.0
 31
0.0
  0
LINE
  5
78B
  8
DETAIL
  6
CONTINUOUS
 62
     5
 10
68.589431999999974
 20
-15.083923
 30
0.0
 11
68.589431999999974
 21
-15.0
 31
0.0
  0
LINE
  5
78C
  8
DETAIL
  6
CONTINUOUS
 62
     5
 10
69.059432000000001
 20
-15.083923
 30
0.0
 11
69.059432000000001
 21
-15.0
 31
0.0
  0
LINE
  5
78D
  8
DETAIL
  6
CONTINUOUS
 62
     5
 10
70.0
 20
-15.0
 30
0.0
 11
70.0
 21
-28.5
 31
0.0
  0
LINE
  5
78E
  8
DETAIL
  6
CONTINUOUS
 62
     5
 10
72.5
 20
-15.0
 30
0.0
 11
72.5
 21
-28.5
 31
0.0
  0
LINE
  5
78F
  8
DETAIL
  6
CONTINUOUS
 62
     5
 10
73.549431999999982
 20
-17.623923000000001
 30
0.0
 11
73.549431999999982
 21
-15.0
 31
0.0
  0
LINE
  5
790
  8
DETAIL
  6
CONTINUOUS
 62
     5
 10
74.019431999999981
 20
-17.623923000000001
 30
0.0
 11
74.019431999999981
 21
-15.0
 31
0.0
  0
LINE
  5
791
  8
DETAIL
  6
CONTINUOUS
 62
     5
 10
76.089431999999974
 20
-15.083923
 30
0.0
 11
76.089431999999974
 21
-15.0
 31
0.0
  0
LINE
  5
792
  8
DETAIL
  6
CONTINUOUS
 62
     5
 10
76.559432000000001
 20
-15.083923
 30
0.0
 11
76.559432000000001
 21
-15.0
 31
0.0
  0
LINE
  5
793
  8
DETAIL
  6
CONTINUOUS
 62
     5
 10
77.5
 20
-15.0
 30
0.0
 11
77.5
 21
-28.5
 31
0.0
  0
LINE
  5
794
  8
DETAIL
  6
CONTINUOUS
 62
     5
 10
80.0
 20
-15.0
 30
0.0
 11
80.0
 21
-28.5
 31
0.0
  0
LINE
  5
795
  8
DETAIL
  6
CONTINUOUS
 62
     5
 10
81.049431999999996
 20
-17.623923000000001
 30
0.0
 11
81.049431999999996
 21
-15.0
 31
0.0
  0
LINE
  5
796
  8
DETAIL
  6
CONTINUOUS
 62
     5
 10
81.519431999999981
 20
-17.623923000000001
 30
0.0
 11
81.519431999999981
 21
-15.0
 31
0.0
  0
LINE
  5
797
  8
DETAIL
  6
CONTINUOUS
 62
     5
 10
83.589431999999974
 20
-15.083923
 30
0.0
 11
83.589431999999974
 21
-15.0
 31
0.0
  0
LINE
  5
798
  8
DETAIL
  6
CONTINUOUS
 62
     5
 10
84.059432000000015
 20
-15.083923
 30
0.0
 11
84.059432000000015
 21
-15.0
 31
0.0
  0
LINE
  5
799
  8
DETAIL
  6
CONTINUOUS
 62
     5
 10
85.0
 20
-15.0
 30
0.0
 11
85.0
 21
-28.5
 31
0.0
  0
LINE
  5
79A
  8
DETAIL
  6
CONTINUOUS
 62
     5
 10
87.5
 20
-15.0
 30
0.0
 11
87.5
 21
-28.5
 31
0.0
  0
LINE
  5
79B
  8
DETAIL
  6
CONTINUOUS
 62
     5
 10
89.019431999999981
 20
-17.623923000000001
 30
0.0
 11
89.019431999999981
 21
-15.0
 31
0.0
  0
LINE
  5
79C
  8
DETAIL
  6
CONTINUOUS
 62
     5
 10
88.549431999999996
 20
-17.623923000000001
 30
0.0
 11
88.549431999999996
 21
-15.0
 31
0.0
  0
LINE
  5
79D
  8
DETAIL
  6
CONTINUOUS
 62
     5
 10
91.559432000000015
 20
-15.083923
 30
0.0
 11
91.559432000000015
 21
-15.0
 31
0.0
  0
LINE
  5
79E
  8
DETAIL
  6
CONTINUOUS
 62
     5
 10
91.089431999999974
 20
-15.083923
 30
0.0
 11
91.089431999999974
 21
-15.0
 31
0.0
  0
LINE
  5
79F
  8
DETAIL
  6
CONTINUOUS
 62
     5
 10
92.5
 20
-15.0
 30
0.0
 11
92.5
 21
-28.5
 31
0.0
  0
ARC
  5
7A0
  8
DETAIL
  6
CONTINUOUS
 62
     5
 10
75.0
 20
-28.5
 30
0.0
 40
2.5
 50
180.0
 51
0.0
  0
ARC
  5
7A1
  8
DETAIL
  6
CONTINUOUS
 62
     5
 10
82.5
 20
-28.5
 30
0.0
 40
2.5
 50
180.0
 51
0.0
  0
ARC
  5
7A2
  8
DETAIL
  6
CONTINUOUS
 62
     5
 10
90.0
 20
-28.5
 30
0.0
 40
2.5
 50
180.0
 51
0.0
  0
ARC
  5
7A3
  8
DETAIL
  6
CONTINUOUS
 62
     5
 10
67.5
 20
-28.5
 30
0.0
 40
2.5
 50
180.0
 51
0.0
  0
LINE
  5
7A4
  8
DETAIL
  6
CONTINUOUS
 62
     5
 10
74.006061000000003
 20
-30.793922999999999
 30
0.0
 11
75.993938999999983
 21
-30.793922999999999
 31
0.0
  0
LINE
  5
7A5
  8
DETAIL
  6
CONTINUOUS
 62
     5
 10
74.019431999999981
 20
-30.32392299999999
 30
0.0
 11
76.709766999999999
 21
-30.32392299999999
 31
0.0
  0
LINE
  5
7A6
  8
DETAIL
  6
CONTINUOUS
 62
     5
 10
72.5
 20
-23.173922999999991
 30
0.0
 11
76.089431999999974
 21
-23.173922999999991
 31
0.0
  0
LINE
  5
7A7
  8
DETAIL
  6
CONTINUOUS
 62
     5
 10
76.559432000000001
 20
-23.173922999999991
 30
0.0
 11
77.5
 21
-23.173922999999991
 31
0.0
  0
LINE
  5
7A8
  8
DETAIL
  6
CONTINUOUS
 62
     5
 10
72.5
 20
-22.703923
 30
0.0
 11
76.089431999999974
 21
-22.703923
 31
0.0
  0
LINE
  5
7A9
  8
DETAIL
  6
CONTINUOUS
 62
     5
 10
76.559432000000001
 20
-22.703923
 30
0.0
 11
77.5
 21
-22.703923
 31
0.0
  0
LINE
  5
7AA
  8
DETAIL
  6
CONTINUOUS
 62
     5
 10
74.019431999999981
 20
-25.713923000000001
 30
0.0
 11
77.5
 21
-25.713923000000001
 31
0.0
  0
LINE
  5
7AB
  8
DETAIL
  6
CONTINUOUS
 62
     5
 10
74.019431999999981
 20
-25.243922999999999
 30
0.0
 11
77.5
 21
-25.243922999999999
 31
0.0
  0
LINE
  5
7AC
  8
DETAIL
  6
CONTINUOUS
 62
     5
 10
72.5
 20
-28.253922999999979
 30
0.0
 11
76.089431999999974
 21
-28.253922999999979
 31
0.0
  0
LINE
  5
7AD
  8
DETAIL
  6
CONTINUOUS
 62
     5
 10
76.559432000000001
 20
-28.253922999999979
 30
0.0
 11
77.5
 21
-28.253922999999979
 31
0.0
  0
LINE
  5
7AE
  8
DETAIL
  6
CONTINUOUS
 62
     5
 10
72.5
 20
-27.783923000000001
 30
0.0
 11
76.089431999999974
 21
-27.783923000000001
 31
0.0
  0
LINE
  5
7AF
  8
DETAIL
  6
CONTINUOUS
 62
     5
 10
76.559432000000001
 20
-27.783923000000001
 30
0.0
 11
77.5
 21
-27.783923000000001
 31
0.0
  0
LINE
  5
7B0
  8
DETAIL
  6
CONTINUOUS
 62
     5
 10
76.089431999999974
 20
-30.32392299999999
 30
0.0
 11
76.089431999999974
 21
-25.713923000000001
 31
0.0
  0
LINE
  5
7B1
  8
DETAIL
  6
CONTINUOUS
 62
     5
 10
76.559432000000001
 20
-30.32392299999999
 30
0.0
 11
76.559432000000001
 21
-25.713923000000001
 31
0.0
  0
LINE
  5
7B2
  8
DETAIL
  6
CONTINUOUS
 62
     5
 10
76.089431999999974
 20
-25.243922999999999
 30
0.0
 11
76.089431999999974
 21
-21.699999999999989
 31
0.0
  0
LINE
  5
7B3
  8
DETAIL
  6
CONTINUOUS
 62
     5
 10
76.559432000000001
 20
-25.243922999999999
 30
0.0
 11
76.559432000000001
 21
-21.699999999999989
 31
0.0
  0
LINE
  5
7B4
  8
DETAIL
  6
CONTINUOUS
 62
     5
 10
76.089431999999974
 20
-21.699999999999989
 30
0.0
 11
76.089431999999974
 21
-20.633922999999982
 31
0.0
  0
LINE
  5
7B5
  8
DETAIL
  6
CONTINUOUS
 62
     5
 10
76.559432000000001
 20
-21.699999999999989
 30
0.0
 11
76.559432000000001
 21
-20.633922999999982
 31
0.0
  0
LINE
  5
7B6
  8
DETAIL
  6
CONTINUOUS
 62
     5
 10
80.790233000000015
 20
-30.32392299999999
 30
0.0
 11
81.049431999999996
 21
-30.32392299999999
 31
0.0
  0
LINE
  5
7B7
  8
DETAIL
  6
CONTINUOUS
 62
     5
 10
81.506061000000003
 20
-30.793922999999999
 30
0.0
 11
83.493938999999983
 21
-30.793922999999999
 31
0.0
  0
LINE
  5
7B8
  8
DETAIL
  6
CONTINUOUS
 62
     5
 10
81.519431999999981
 20
-30.32392299999999
 30
0.0
 11
84.209766999999999
 21
-30.32392299999999
 31
0.0
  0
LINE
  5
7B9
  8
DETAIL
  6
CONTINUOUS
 62
     5
 10
80.0
 20
-23.173922999999991
 30
0.0
 11
83.589431999999974
 21
-23.173922999999991
 31
0.0
  0
LINE
  5
7BA
  8
DETAIL
  6
CONTINUOUS
 62
     5
 10
84.059432000000015
 20
-23.173922999999991
 30
0.0
 11
85.0
 21
-23.173922999999991
 31
0.0
  0
LINE
  5
7BB
  8
DETAIL
  6
CONTINUOUS
 62
     5
 10
80.0
 20
-22.703923
 30
0.0
 11
83.589431999999974
 21
-22.703923
 31
0.0
  0
LINE
  5
7BC
  8
DETAIL
  6
CONTINUOUS
 62
     5
 10
84.059432000000015
 20
-22.703923
 30
0.0
 11
85.0
 21
-22.703923
 31
0.0
  0
LINE
  5
7BD
  8
DETAIL
  6
CONTINUOUS
 62
     5
 10
80.0
 20
-25.713923000000001
 30
0.0
 11
81.049431999999996
 21
-25.713923000000001
 31
0.0
  0
LINE
  5
7BE
  8
DETAIL
  6
CONTINUOUS
 62
     5
 10
81.519431999999981
 20
-25.713923000000001
 30
0.0
 11
85.0
 21
-25.713923000000001
 31
0.0
  0
LINE
  5
7BF
  8
DETAIL
  6
CONTINUOUS
 62
     5
 10
80.0
 20
-25.243922999999999
 30
0.0
 11
81.049431999999996
 21
-25.243922999999999
 31
0.0
  0
LINE
  5
7C0
  8
DETAIL
  6
CONTINUOUS
 62
     5
 10
81.519431999999981
 20
-25.243922999999999
 30
0.0
 11
85.0
 21
-25.243922999999999
 31
0.0
  0
LINE
  5
7C1
  8
DETAIL
  6
CONTINUOUS
 62
     5
 10
81.049431999999996
 20
-27.783923000000001
 30
0.0
 11
81.049431999999996
 21
-23.173922999999991
 31
0.0
  0
LINE
  5
7C2
  8
DETAIL
  6
CONTINUOUS
 62
     5
 10
81.519431999999981
 20
-27.783923000000001
 30
0.0
 11
81.519431999999981
 21
-23.173922999999991
 31
0.0
  0
LINE
  5
7C3
  8
DETAIL
  6
CONTINUOUS
 62
     5
 10
80.0
 20
-28.253922999999979
 30
0.0
 11
83.589431999999974
 21
-28.253922999999979
 31
0.0
  0
LINE
  5
7C4
  8
DETAIL
  6
CONTINUOUS
 62
     5
 10
84.059432000000015
 20
-28.253922999999979
 30
0.0
 11
85.0
 21
-28.253922999999979
 31
0.0
  0
LINE
  5
7C5
  8
DETAIL
  6
CONTINUOUS
 62
     5
 10
80.0
 20
-27.783923000000001
 30
0.0
 11
83.589431999999974
 21
-27.783923000000001
 31
0.0
  0
LINE
  5
7C6
  8
DETAIL
  6
CONTINUOUS
 62
     5
 10
84.059432000000015
 20
-27.783923000000001
 30
0.0
 11
85.0
 21
-27.783923000000001
 31
0.0
  0
LINE
  5
7C7
  8
DETAIL
  6
CONTINUOUS
 62
     5
 10
81.049431999999996
 20
-30.536135999999999
 30
0.0
 11
81.049431999999996
 21
-28.253922999999979
 31
0.0
  0
LINE
  5
7C8
  8
DETAIL
  6
CONTINUOUS
 62
     5
 10
81.519431999999981
 20
-30.799671000000011
 30
0.0
 11
81.519431999999981
 21
-28.253922999999979
 31
0.0
  0
LINE
  5
7C9
  8
DETAIL
  6
CONTINUOUS
 62
     5
 10
83.589431999999974
 20
-30.32392299999999
 30
0.0
 11
83.589431999999974
 21
-25.713923000000001
 31
0.0
  0
LINE
  5
7CA
  8
DETAIL
  6
CONTINUOUS
 62
     5
 10
84.059432000000015
 20
-30.32392299999999
 30
0.0
 11
84.059432000000015
 21
-25.713923000000001
 31
0.0
  0
LINE
  5
7CB
  8
DETAIL
  6
CONTINUOUS
 62
     5
 10
81.049431999999996
 20
-22.703923
 30
0.0
 11
81.049431999999996
 21
-21.699999999999989
 31
0.0
  0
LINE
  5
7CC
  8
DETAIL
  6
CONTINUOUS
 62
     5
 10
81.519431999999981
 20
-22.703923
 30
0.0
 11
81.519431999999981
 21
-21.699999999999989
 31
0.0
  0
LINE
  5
7CD
  8
DETAIL
  6
CONTINUOUS
 62
     5
 10
83.589431999999974
 20
-25.243922999999999
 30
0.0
 11
83.589431999999974
 21
-21.699999999999989
 31
0.0
  0
LINE
  5
7CE
  8
DETAIL
  6
CONTINUOUS
 62
     5
 10
84.059432000000015
 20
-25.243922999999999
 30
0.0
 11
84.059432000000015
 21
-21.699999999999989
 31
0.0
  0
LINE
  5
7CF
  8
DETAIL
  6
CONTINUOUS
 62
     5
 10
81.049431999999996
 20
-21.699999999999989
 30
0.0
 11
81.049431999999996
 21
-18.093923
 31
0.0
  0
LINE
  5
7D0
  8
DETAIL
  6
CONTINUOUS
 62
     5
 10
81.519431999999981
 20
-21.699999999999989
 30
0.0
 11
81.519431999999981
 21
-18.093923
 31
0.0
  0
LINE
  5
7D1
  8
DETAIL
  6
CONTINUOUS
 62
     5
 10
83.589431999999974
 20
-21.699999999999989
 30
0.0
 11
83.589431999999974
 21
-20.633922999999982
 31
0.0
  0
LINE
  5
7D2
  8
DETAIL
  6
CONTINUOUS
 62
     5
 10
84.059432000000015
 20
-21.699999999999989
 30
0.0
 11
84.059432000000015
 21
-20.633922999999982
 31
0.0
  0
LINE
  5
7D3
  8
DETAIL
  6
CONTINUOUS
 62
     5
 10
91.559432000000015
 20
-21.699999999999989
 30
0.0
 11
91.559432000000015
 21
-20.633922999999982
 31
0.0
  0
LINE
  5
7D4
  8
DETAIL
  6
CONTINUOUS
 62
     5
 10
91.089431999999974
 20
-21.699999999999989
 30
0.0
 11
91.089431999999974
 21
-20.633922999999982
 31
0.0
  0
LINE
  5
7D5
  8
DETAIL
  6
CONTINUOUS
 62
     5
 10
89.019431999999981
 20
-21.699999999999989
 30
0.0
 11
89.019431999999981
 21
-18.093923
 31
0.0
  0
LINE
  5
7D6
  8
DETAIL
  6
CONTINUOUS
 62
     5
 10
88.549431999999996
 20
-21.699999999999989
 30
0.0
 11
88.549431999999996
 21
-18.093923
 31
0.0
  0
LINE
  5
7D7
  8
DETAIL
  6
CONTINUOUS
 62
     5
 10
88.549431999999996
 20
-22.703923
 30
0.0
 11
88.549431999999996
 21
-21.699999999999989
 31
0.0
  0
LINE
  5
7D8
  8
DETAIL
  6
CONTINUOUS
 62
     5
 10
89.019431999999981
 20
-22.703923
 30
0.0
 11
89.019431999999981
 21
-21.699999999999989
 31
0.0
  0
LINE
  5
7D9
  8
DETAIL
  6
CONTINUOUS
 62
     5
 10
87.5
 20
-23.173922999999991
 30
0.0
 11
91.089431999999974
 21
-23.173922999999991
 31
0.0
  0
LINE
  5
7DA
  8
DETAIL
  6
CONTINUOUS
 62
     5
 10
91.559432000000015
 20
-23.173922999999991
 30
0.0
 11
92.5
 21
-23.173922999999991
 31
0.0
  0
LINE
  5
7DB
  8
DETAIL
  6
CONTINUOUS
 62
     5
 10
87.5
 20
-22.703923
 30
0.0
 11
91.089431999999974
 21
-22.703923
 31
0.0
  0
LINE
  5
7DC
  8
DETAIL
  6
CONTINUOUS
 62
     5
 10
91.559432000000015
 20
-22.703923
 30
0.0
 11
92.5
 21
-22.703923
 31
0.0
  0
LINE
  5
7DD
  8
DETAIL
  6
CONTINUOUS
 62
     5
 10
91.559432000000015
 20
-25.243922999999999
 30
0.0
 11
91.559432000000015
 21
-21.699999999999989
 31
0.0
  0
LINE
  5
7DE
  8
DETAIL
  6
CONTINUOUS
 62
     5
 10
91.089431999999974
 20
-25.243922999999999
 30
0.0
 11
91.089431999999974
 21
-21.699999999999989
 31
0.0
  0
LINE
  5
7DF
  8
DETAIL
  6
CONTINUOUS
 62
     5
 10
87.5
 20
-25.713923000000001
 30
0.0
 11
88.549431999999996
 21
-25.713923000000001
 31
0.0
  0
LINE
  5
7E0
  8
DETAIL
  6
CONTINUOUS
 62
     5
 10
89.019431999999981
 20
-25.713923000000001
 30
0.0
 11
92.5
 21
-25.713923000000001
 31
0.0
  0
LINE
  5
7E1
  8
DETAIL
  6
CONTINUOUS
 62
     5
 10
87.5
 20
-25.243922999999999
 30
0.0
 11
88.549431999999996
 21
-25.243922999999999
 31
0.0
  0
LINE
  5
7E2
  8
DETAIL
  6
CONTINUOUS
 62
     5
 10
89.019431999999981
 20
-25.243922999999999
 30
0.0
 11
92.5
 21
-25.243922999999999
 31
0.0
  0
LINE
  5
7E3
  8
DETAIL
  6
CONTINUOUS
 62
     5
 10
88.549431999999996
 20
-27.783923000000001
 30
0.0
 11
88.549431999999996
 21
-23.173922999999991
 31
0.0
  0
LINE
  5
7E4
  8
DETAIL
  6
CONTINUOUS
 62
     5
 10
89.019431999999981
 20
-27.783923000000001
 30
0.0
 11
89.019431999999981
 21
-23.173922999999991
 31
0.0
  0
LINE
  5
7E5
  8
DETAIL
  6
CONTINUOUS
 62
     5
 10
87.5
 20
-28.253922999999979
 30
0.0
 11
91.089431999999974
 21
-28.253922999999979
 31
0.0
  0
LINE
  5
7E6
  8
DETAIL
  6
CONTINUOUS
 62
     5
 10
91.559432000000015
 20
-28.253922999999979
 30
0.0
 11
92.5
 21
-28.253922999999979
 31
0.0
  0
LINE
  5
7E7
  8
DETAIL
  6
CONTINUOUS
 62
     5
 10
87.5
 20
-27.783923000000001
 30
0.0
 11
91.089431999999974
 21
-27.783923000000001
 31
0.0
  0
LINE
  5
7E8
  8
DETAIL
  6
CONTINUOUS
 62
     5
 10
91.559432000000015
 20
-27.783923000000001
 30
0.0
 11
92.5
 21
-27.783923000000001
 31
0.0
  0
LINE
  5
7E9
  8
DETAIL
  6
CONTINUOUS
 62
     5
 10
89.006061000000003
 20
-30.793922999999999
 30
0.0
 11
90.993938999999997
 21
-30.793922999999999
 31
0.0
  0
LINE
  5
7EA
  8
DETAIL
  6
CONTINUOUS
 62
     5
 10
88.290233000000015
 20
-30.32392299999999
 30
0.0
 11
88.549431999999996
 21
-30.32392299999999
 31
0.0
  0
LINE
  5
7EB
  8
DETAIL
  6
CONTINUOUS
 62
     5
 10
89.019431999999981
 20
-30.32392299999999
 30
0.0
 11
91.709766999999999
 21
-30.32392299999999
 31
0.0
  0
LINE
  5
7EC
  8
DETAIL
  6
CONTINUOUS
 62
     5
 10
88.549431999999996
 20
-30.536135999999999
 30
0.0
 11
88.549431999999996
 21
-28.253922999999979
 31
0.0
  0
LINE
  5
7ED
  8
DETAIL
  6
CONTINUOUS
 62
     5
 10
89.019431999999981
 20
-30.799671000000011
 30
0.0
 11
89.019431999999981
 21
-28.253922999999979
 31
0.0
  0
LINE
  5
7EE
  8
DETAIL
  6
CONTINUOUS
 62
     5
 10
91.089431999999974
 20
-30.32392299999999
 30
0.0
 11
91.089431999999974
 21
-25.713923000000001
 31
0.0
  0
LINE
  5
7EF
  8
DETAIL
  6
CONTINUOUS
 62
     5
 10
91.559432000000015
 20
-30.32392299999999
 30
0.0
 11
91.559432000000015
 21
-25.713923000000001
 31
0.0
  0
LINE
  5
7F0
  8
DETAIL
  6
CONTINUOUS
 62
     5
 10
58.290233000000001
 20
-30.32392299999999
 30
0.0
 11
58.54943200000001
 21
-30.32392299999999
 31
0.0
  0
LINE
  5
7F1
  8
DETAIL
  6
CONTINUOUS
 62
     5
 10
59.006061000000003
 20
-30.793922999999999
 30
0.0
 11
60.99393899999999
 21
-30.793922999999999
 31
0.0
  0
LINE
  5
7F2
  8
DETAIL
  6
CONTINUOUS
 62
     5
 10
59.019431999999981
 20
-30.32392299999999
 30
0.0
 11
61.709766999999999
 21
-30.32392299999999
 31
0.0
  0
LINE
  5
7F3
  8
DETAIL
  6
CONTINUOUS
 62
     5
 10
61.559431999999987
 20
-23.173922999999991
 30
0.0
 11
62.5
 21
-23.173922999999991
 31
0.0
  0
LINE
  5
7F4
  8
DETAIL
  6
CONTINUOUS
 62
     5
 10
61.559431999999987
 20
-22.703923
 30
0.0
 11
62.5
 21
-22.703923
 31
0.0
  0
LINE
  5
7F5
  8
DETAIL
  6
CONTINUOUS
 62
     5
 10
59.019431999999981
 20
-25.713923000000001
 30
0.0
 11
62.5
 21
-25.713923000000001
 31
0.0
  0
LINE
  5
7F6
  8
DETAIL
  6
CONTINUOUS
 62
     5
 10
59.019431999999981
 20
-25.243922999999999
 30
0.0
 11
62.5
 21
-25.243922999999999
 31
0.0
  0
LINE
  5
7F7
  8
DETAIL
  6
CONTINUOUS
 62
     5
 10
58.54943200000001
 20
-27.783923000000001
 30
0.0
 11
58.54943200000001
 21
-23.173922999999991
 31
0.0
  0
LINE
  5
7F8
  8
DETAIL
  6
CONTINUOUS
 62
     5
 10
59.019431999999981
 20
-27.783923000000001
 30
0.0
 11
59.019431999999981
 21
-23.173922999999991
 31
0.0
  0
LINE
  5
7F9
  8
DETAIL
  6
CONTINUOUS
 62
     5
 10
61.559431999999987
 20
-28.253922999999979
 30
0.0
 11
62.5
 21
-28.253922999999979
 31
0.0
  0
LINE
  5
7FA
  8
DETAIL
  6
CONTINUOUS
 62
     5
 10
61.559431999999987
 20
-27.783923000000001
 30
0.0
 11
62.5
 21
-27.783923000000001
 31
0.0
  0
LINE
  5
7FB
  8
DETAIL
  6
CONTINUOUS
 62
     5
 10
58.54943200000001
 20
-30.536135999999999
 30
0.0
 11
58.54943200000001
 21
-28.253922999999979
 31
0.0
  0
LINE
  5
7FC
  8
DETAIL
  6
CONTINUOUS
 62
     5
 10
59.019431999999981
 20
-30.799671000000011
 30
0.0
 11
59.019431999999981
 21
-28.253922999999979
 31
0.0
  0
LINE
  5
7FD
  8
DETAIL
  6
CONTINUOUS
 62
     5
 10
61.089431999999981
 20
-30.32392299999999
 30
0.0
 11
61.089431999999981
 21
-25.713923000000001
 31
0.0
  0
LINE
  5
7FE
  8
DETAIL
  6
CONTINUOUS
 62
     5
 10
61.559431999999987
 20
-30.32392299999999
 30
0.0
 11
61.559431999999987
 21
-25.713923000000001
 31
0.0
  0
LINE
  5
7FF
  8
DETAIL
  6
CONTINUOUS
 62
     5
 10
58.54943200000001
 20
-22.703923
 30
0.0
 11
58.54943200000001
 21
-21.699999999999989
 31
0.0
  0
LINE
  5
800
  8
DETAIL
  6
CONTINUOUS
 62
     5
 10
59.019431999999981
 20
-22.703923
 30
0.0
 11
59.019431999999981
 21
-21.699999999999989
 31
0.0
  0
LINE
  5
801
  8
DETAIL
  6
CONTINUOUS
 62
     5
 10
61.089431999999981
 20
-25.243922999999999
 30
0.0
 11
61.089431999999981
 21
-21.699999999999989
 31
0.0
  0
LINE
  5
802
  8
DETAIL
  6
CONTINUOUS
 62
     5
 10
61.559431999999987
 20
-25.243922999999999
 30
0.0
 11
61.559431999999987
 21
-21.699999999999989
 31
0.0
  0
LINE
  5
803
  8
DETAIL
  6
CONTINUOUS
 62
     5
 10
65.790233000000001
 20
-30.32392299999999
 30
0.0
 11
66.049431999999996
 21
-30.32392299999999
 31
0.0
  0
LINE
  5
804
  8
DETAIL
  6
CONTINUOUS
 62
     5
 10
66.506061000000003
 20
-30.793922999999999
 30
0.0
 11
68.493938999999983
 21
-30.793922999999999
 31
0.0
  0
LINE
  5
805
  8
DETAIL
  6
CONTINUOUS
 62
     5
 10
66.519431999999995
 20
-30.32392299999999
 30
0.0
 11
69.209766999999999
 21
-30.32392299999999
 31
0.0
  0
LINE
  5
806
  8
DETAIL
  6
CONTINUOUS
 62
     5
 10
65.0
 20
-23.173922999999991
 30
0.0
 11
68.589431999999974
 21
-23.173922999999991
 31
0.0
  0
LINE
  5
807
  8
DETAIL
  6
CONTINUOUS
 62
     5
 10
69.059432000000001
 20
-23.173922999999991
 30
0.0
 11
70.0
 21
-23.173922999999991
 31
0.0
  0
LINE
  5
808
  8
DETAIL
  6
CONTINUOUS
 62
     5
 10
65.0
 20
-22.703923
 30
0.0
 11
68.589431999999974
 21
-22.703923
 31
0.0
  0
LINE
  5
809
  8
DETAIL
  6
CONTINUOUS
 62
     5
 10
69.059432000000001
 20
-22.703923
 30
0.0
 11
70.0
 21
-22.703923
 31
0.0
  0
LINE
  5
80A
  8
DETAIL
  6
CONTINUOUS
 62
     5
 10
65.0
 20
-25.713923000000001
 30
0.0
 11
66.049431999999996
 21
-25.713923000000001
 31
0.0
  0
LINE
  5
80B
  8
DETAIL
  6
CONTINUOUS
 62
     5
 10
66.519431999999995
 20
-25.713923000000001
 30
0.0
 11
70.0
 21
-25.713923000000001
 31
0.0
  0
LINE
  5
80C
  8
DETAIL
  6
CONTINUOUS
 62
     5
 10
65.0
 20
-25.243922999999999
 30
0.0
 11
66.049431999999996
 21
-25.243922999999999
 31
0.0
  0
LINE
  5
80D
  8
DETAIL
  6
CONTINUOUS
 62
     5
 10
66.519431999999995
 20
-25.243922999999999
 30
0.0
 11
70.0
 21
-25.243922999999999
 31
0.0
  0
LINE
  5
80E
  8
DETAIL
  6
CONTINUOUS
 62
     5
 10
66.049431999999996
 20
-27.783923000000001
 30
0.0
 11
66.049431999999996
 21
-23.173922999999991
 31
0.0
  0
LINE
  5
80F
  8
DETAIL
  6
CONTINUOUS
 62
     5
 10
66.519431999999995
 20
-27.783923000000001
 30
0.0
 11
66.519431999999995
 21
-23.173922999999991
 31
0.0
  0
LINE
  5
810
  8
DETAIL
  6
CONTINUOUS
 62
     5
 10
65.0
 20
-28.253922999999979
 30
0.0
 11
68.589431999999974
 21
-28.253922999999979
 31
0.0
  0
LINE
  5
811
  8
DETAIL
  6
CONTINUOUS
 62
     5
 10
69.059432000000001
 20
-28.253922999999979
 30
0.0
 11
70.0
 21
-28.253922999999979
 31
0.0
  0
LINE
  5
812
  8
DETAIL
  6
CONTINUOUS
 62
     5
 10
65.0
 20
-27.783923000000001
 30
0.0
 11
68.589431999999974
 21
-27.783923000000001
 31
0.0
  0
LINE
  5
813
  8
DETAIL
  6
CONTINUOUS
 62
     5
 10
69.059432000000001
 20
-27.783923000000001
 30
0.0
 11
70.0
 21
-27.783923000000001
 31
0.0
  0
LINE
  5
814
  8
DETAIL
  6
CONTINUOUS
 62
     5
 10
66.049431999999996
 20
-30.536135999999999
 30
0.0
 11
66.049431999999996
 21
-28.253922999999979
 31
0.0
  0
LINE
  5
815
  8
DETAIL
  6
CONTINUOUS
 62
     5
 10
66.519431999999995
 20
-30.799671000000011
 30
0.0
 11
66.519431999999995
 21
-28.253922999999979
 31
0.0
  0
LINE
  5
816
  8
DETAIL
  6
CONTINUOUS
 62
     5
 10
68.589431999999974
 20
-30.32392299999999
 30
0.0
 11
68.589431999999974
 21
-25.713923000000001
 31
0.0
  0
LINE
  5
817
  8
DETAIL
  6
CONTINUOUS
 62
     5
 10
69.059432000000001
 20
-30.32392299999999
 30
0.0
 11
69.059432000000001
 21
-25.713923000000001
 31
0.0
  0
LINE
  5
818
  8
DETAIL
  6
CONTINUOUS
 62
     5
 10
66.049431999999996
 20
-22.703923
 30
0.0
 11
66.049431999999996
 21
-21.699999999999989
 31
0.0
  0
LINE
  5
819
  8
DETAIL
  6
CONTINUOUS
 62
     5
 10
66.519431999999995
 20
-22.703923
 30
0.0
 11
66.519431999999995
 21
-21.699999999999989
 31
0.0
  0
LINE
  5
81A
  8
DETAIL
  6
CONTINUOUS
 62
     5
 10
68.589431999999974
 20
-25.243922999999999
 30
0.0
 11
68.589431999999974
 21
-21.699999999999989
 31
0.0
  0
LINE
  5
81B
  8
DETAIL
  6
CONTINUOUS
 62
     5
 10
69.059432000000001
 20
-25.243922999999999
 30
0.0
 11
69.059432000000001
 21
-21.699999999999989
 31
0.0
  0
LINE
  5
81C
  8
DETAIL
  6
CONTINUOUS
 62
     5
 10
73.290233000000001
 20
-30.32392299999999
 30
0.0
 11
73.549431999999982
 21
-30.32392299999999
 31
0.0
  0
LINE
  5
81D
  8
DETAIL
  6
CONTINUOUS
 62
     5
 10
72.5
 20
-25.713923000000001
 30
0.0
 11
73.549431999999982
 21
-25.713923000000001
 31
0.0
  0
LINE
  5
81E
  8
DETAIL
  6
CONTINUOUS
 62
     5
 10
72.5
 20
-25.243922999999999
 30
0.0
 11
73.549431999999982
 21
-25.243922999999999
 31
0.0
  0
LINE
  5
81F
  8
DETAIL
  6
CONTINUOUS
 62
     5
 10
73.549431999999982
 20
-27.783923000000001
 30
0.0
 11
73.549431999999982
 21
-23.173922999999991
 31
0.0
  0
LINE
  5
820
  8
DETAIL
  6
CONTINUOUS
 62
     5
 10
74.019431999999981
 20
-27.783923000000001
 30
0.0
 11
74.019431999999981
 21
-23.173922999999991
 31
0.0
  0
LINE
  5
821
  8
DETAIL
  6
CONTINUOUS
 62
     5
 10
73.549431999999982
 20
-30.536135999999999
 30
0.0
 11
73.549431999999982
 21
-28.253922999999979
 31
0.0
  0
LINE
  5
822
  8
DETAIL
  6
CONTINUOUS
 62
     5
 10
74.019431999999981
 20
-30.799671000000011
 30
0.0
 11
74.019431999999981
 21
-28.253922999999979
 31
0.0
  0
LINE
  5
823
  8
DETAIL
  6
CONTINUOUS
 62
     5
 10
73.549431999999982
 20
-22.703923
 30
0.0
 11
73.549431999999982
 21
-21.699999999999989
 31
0.0
  0
LINE
  5
824
  8
DETAIL
  6
CONTINUOUS
 62
     5
 10
74.019431999999981
 20
-22.703923
 30
0.0
 11
74.019431999999981
 21
-21.699999999999989
 31
0.0
  0
LINE
  5
825
  8
DETAIL
  6
CONTINUOUS
 62
     5
 10
59.019431999999981
 20
-15.553922999999999
 30
0.0
 11
62.5
 21
-15.553922999999999
 31
0.0
  0
LINE
  5
826
  8
DETAIL
  6
CONTINUOUS
 62
     5
 10
59.019431999999981
 20
-15.083923
 30
0.0
 11
62.5
 21
-15.083923
 31
0.0
  0
LINE
  5
827
  8
DETAIL
  6
CONTINUOUS
 62
     5
 10
61.559431999999987
 20
-18.093923
 30
0.0
 11
62.5
 21
-18.093923
 31
0.0
  0
LINE
  5
828
  8
DETAIL
  6
CONTINUOUS
 62
     5
 10
61.559431999999987
 20
-17.623923000000001
 30
0.0
 11
62.5
 21
-17.623923000000001
 31
0.0
  0
LINE
  5
829
  8
DETAIL
  6
CONTINUOUS
 62
     5
 10
61.089431999999981
 20
-20.163923
 30
0.0
 11
61.089431999999981
 21
-15.553922999999999
 31
0.0
  0
LINE
  5
82A
  8
DETAIL
  6
CONTINUOUS
 62
     5
 10
61.559431999999987
 20
-20.163923
 30
0.0
 11
61.559431999999987
 21
-15.553922999999999
 31
0.0
  0
LINE
  5
82B
  8
DETAIL
  6
CONTINUOUS
 62
     5
 10
59.019431999999981
 20
-20.633922999999982
 30
0.0
 11
62.5
 21
-20.633922999999982
 31
0.0
  0
LINE
  5
82C
  8
DETAIL
  6
CONTINUOUS
 62
     5
 10
59.019431999999981
 20
-20.163923
 30
0.0
 11
62.5
 21
-20.163923
 31
0.0
  0
LINE
  5
82D
  8
DETAIL
  6
CONTINUOUS
 62
     5
 10
58.54943200000001
 20
-21.699999999999989
 30
0.0
 11
58.54943200000001
 21
-18.093923
 31
0.0
  0
LINE
  5
82E
  8
DETAIL
  6
CONTINUOUS
 62
     5
 10
59.019431999999981
 20
-21.699999999999989
 30
0.0
 11
59.019431999999981
 21
-18.093923
 31
0.0
  0
LINE
  5
82F
  8
DETAIL
  6
CONTINUOUS
 62
     5
 10
61.089431999999981
 20
-21.699999999999989
 30
0.0
 11
61.089431999999981
 21
-20.633922999999982
 31
0.0
  0
LINE
  5
830
  8
DETAIL
  6
CONTINUOUS
 62
     5
 10
61.559431999999987
 20
-21.699999999999989
 30
0.0
 11
61.559431999999987
 21
-20.633922999999982
 31
0.0
  0
LINE
  5
831
  8
DETAIL
  6
CONTINUOUS
 62
     5
 10
65.0
 20
-15.553922999999999
 30
0.0
 11
66.049431999999996
 21
-15.553922999999999
 31
0.0
  0
LINE
  5
832
  8
DETAIL
  6
CONTINUOUS
 62
     5
 10
66.519431999999995
 20
-15.553922999999999
 30
0.0
 11
70.0
 21
-15.553922999999999
 31
0.0
  0
LINE
  5
833
  8
DETAIL
  6
CONTINUOUS
 62
     5
 10
65.0
 20
-15.083923
 30
0.0
 11
66.049431999999996
 21
-15.083923
 31
0.0
  0
LINE
  5
834
  8
DETAIL
  6
CONTINUOUS
 62
     5
 10
66.519431999999995
 20
-15.083923
 30
0.0
 11
70.0
 21
-15.083923
 31
0.0
  0
LINE
  5
835
  8
DETAIL
  6
CONTINUOUS
 62
     5
 10
65.0
 20
-18.093923
 30
0.0
 11
68.589431999999974
 21
-18.093923
 31
0.0
  0
LINE
  5
836
  8
DETAIL
  6
CONTINUOUS
 62
     5
 10
69.059432000000001
 20
-18.093923
 30
0.0
 11
70.0
 21
-18.093923
 31
0.0
  0
LINE
  5
837
  8
DETAIL
  6
CONTINUOUS
 62
     5
 10
65.0
 20
-17.623923000000001
 30
0.0
 11
68.589431999999974
 21
-17.623923000000001
 31
0.0
  0
LINE
  5
838
  8
DETAIL
  6
CONTINUOUS
 62
     5
 10
69.059432000000001
 20
-17.623923000000001
 30
0.0
 11
70.0
 21
-17.623923000000001
 31
0.0
  0
LINE
  5
839
  8
DETAIL
  6
CONTINUOUS
 62
     5
 10
68.589431999999974
 20
-20.163923
 30
0.0
 11
68.589431999999974
 21
-15.553922999999999
 31
0.0
  0
LINE
  5
83A
  8
DETAIL
  6
CONTINUOUS
 62
     5
 10
69.059432000000001
 20
-20.163923
 30
0.0
 11
69.059432000000001
 21
-15.553922999999999
 31
0.0
  0
LINE
  5
83B
  8
DETAIL
  6
CONTINUOUS
 62
     5
 10
65.0
 20
-20.633922999999982
 30
0.0
 11
66.049431999999996
 21
-20.633922999999982
 31
0.0
  0
LINE
  5
83C
  8
DETAIL
  6
CONTINUOUS
 62
     5
 10
66.519431999999995
 20
-20.633922999999982
 30
0.0
 11
70.0
 21
-20.633922999999982
 31
0.0
  0
LINE
  5
83D
  8
DETAIL
  6
CONTINUOUS
 62
     5
 10
65.0
 20
-20.163923
 30
0.0
 11
66.049431999999996
 21
-20.163923
 31
0.0
  0
LINE
  5
83E
  8
DETAIL
  6
CONTINUOUS
 62
     5
 10
66.519431999999995
 20
-20.163923
 30
0.0
 11
70.0
 21
-20.163923
 31
0.0
  0
LINE
  5
83F
  8
DETAIL
  6
CONTINUOUS
 62
     5
 10
66.049431999999996
 20
-21.699999999999989
 30
0.0
 11
66.049431999999996
 21
-18.093923
 31
0.0
  0
LINE
  5
840
  8
DETAIL
  6
CONTINUOUS
 62
     5
 10
66.519431999999995
 20
-21.699999999999989
 30
0.0
 11
66.519431999999995
 21
-18.093923
 31
0.0
  0
LINE
  5
841
  8
DETAIL
  6
CONTINUOUS
 62
     5
 10
68.589431999999974
 20
-21.699999999999989
 30
0.0
 11
68.589431999999974
 21
-20.633922999999982
 31
0.0
  0
LINE
  5
842
  8
DETAIL
  6
CONTINUOUS
 62
     5
 10
69.059432000000001
 20
-21.699999999999989
 30
0.0
 11
69.059432000000001
 21
-20.633922999999982
 31
0.0
  0
LINE
  5
843
  8
DETAIL
  6
CONTINUOUS
 62
     5
 10
72.5
 20
-15.553922999999999
 30
0.0
 11
73.549431999999982
 21
-15.553922999999999
 31
0.0
  0
LINE
  5
844
  8
DETAIL
  6
CONTINUOUS
 62
     5
 10
74.019431999999981
 20
-15.553922999999999
 30
0.0
 11
77.5
 21
-15.553922999999999
 31
0.0
  0
LINE
  5
845
  8
DETAIL
  6
CONTINUOUS
 62
     5
 10
72.5
 20
-15.083923
 30
0.0
 11
73.549431999999982
 21
-15.083923
 31
0.0
  0
LINE
  5
846
  8
DETAIL
  6
CONTINUOUS
 62
     5
 10
74.019431999999981
 20
-15.083923
 30
0.0
 11
77.5
 21
-15.083923
 31
0.0
  0
LINE
  5
847
  8
DETAIL
  6
CONTINUOUS
 62
     5
 10
72.5
 20
-18.093923
 30
0.0
 11
76.089431999999974
 21
-18.093923
 31
0.0
  0
LINE
  5
848
  8
DETAIL
  6
CONTINUOUS
 62
     5
 10
76.559432000000001
 20
-18.093923
 30
0.0
 11
77.5
 21
-18.093923
 31
0.0
  0
LINE
  5
849
  8
DETAIL
  6
CONTINUOUS
 62
     5
 10
72.5
 20
-17.623923000000001
 30
0.0
 11
76.089431999999974
 21
-17.623923000000001
 31
0.0
  0
LINE
  5
84A
  8
DETAIL
  6
CONTINUOUS
 62
     5
 10
76.559432000000001
 20
-17.623923000000001
 30
0.0
 11
77.5
 21
-17.623923000000001
 31
0.0
  0
LINE
  5
84B
  8
DETAIL
  6
CONTINUOUS
 62
     5
 10
76.089431999999974
 20
-20.163923
 30
0.0
 11
76.089431999999974
 21
-15.553922999999999
 31
0.0
  0
LINE
  5
84C
  8
DETAIL
  6
CONTINUOUS
 62
     5
 10
76.559432000000001
 20
-20.163923
 30
0.0
 11
76.559432000000001
 21
-15.553922999999999
 31
0.0
  0
LINE
  5
84D
  8
DETAIL
  6
CONTINUOUS
 62
     5
 10
72.5
 20
-20.633922999999982
 30
0.0
 11
73.549431999999982
 21
-20.633922999999982
 31
0.0
  0
LINE
  5
84E
  8
DETAIL
  6
CONTINUOUS
 62
     5
 10
74.019431999999981
 20
-20.633922999999982
 30
0.0
 11
77.5
 21
-20.633922999999982
 31
0.0
  0
LINE
  5
84F
  8
DETAIL
  6
CONTINUOUS
 62
     5
 10
72.5
 20
-20.163923
 30
0.0
 11
73.549431999999982
 21
-20.163923
 31
0.0
  0
LINE
  5
850
  8
DETAIL
  6
CONTINUOUS
 62
     5
 10
74.019431999999981
 20
-20.163923
 30
0.0
 11
77.5
 21
-20.163923
 31
0.0
  0
LINE
  5
851
  8
DETAIL
  6
CONTINUOUS
 62
     5
 10
73.549431999999982
 20
-21.699999999999989
 30
0.0
 11
73.549431999999982
 21
-18.093923
 31
0.0
  0
LINE
  5
852
  8
DETAIL
  6
CONTINUOUS
 62
     5
 10
74.019431999999981
 20
-21.699999999999989
 30
0.0
 11
74.019431999999981
 21
-18.093923
 31
0.0
  0
LINE
  5
853
  8
DETAIL
  6
CONTINUOUS
 62
     5
 10
80.0
 20
-15.553922999999999
 30
0.0
 11
81.049431999999996
 21
-15.553922999999999
 31
0.0
  0
LINE
  5
854
  8
DETAIL
  6
CONTINUOUS
 62
     5
 10
81.519431999999981
 20
-15.553922999999999
 30
0.0
 11
85.0
 21
-15.553922999999999
 31
0.0
  0
LINE
  5
855
  8
DETAIL
  6
CONTINUOUS
 62
     5
 10
80.0
 20
-15.083923
 30
0.0
 11
81.049431999999996
 21
-15.083923
 31
0.0
  0
LINE
  5
856
  8
DETAIL
  6
CONTINUOUS
 62
     5
 10
81.519431999999981
 20
-15.083923
 30
0.0
 11
85.0
 21
-15.083923
 31
0.0
  0
LINE
  5
857
  8
DETAIL
  6
CONTINUOUS
 62
     5
 10
80.0
 20
-18.093923
 30
0.0
 11
83.589431999999974
 21
-18.093923
 31
0.0
  0
LINE
  5
858
  8
DETAIL
  6
CONTINUOUS
 62
     5
 10
84.059432000000015
 20
-18.093923
 30
0.0
 11
85.0
 21
-18.093923
 31
0.0
  0
LINE
  5
859
  8
DETAIL
  6
CONTINUOUS
 62
     5
 10
80.0
 20
-17.623923000000001
 30
0.0
 11
83.589431999999974
 21
-17.623923000000001
 31
0.0
  0
LINE
  5
85A
  8
DETAIL
  6
CONTINUOUS
 62
     5
 10
84.059432000000015
 20
-17.623923000000001
 30
0.0
 11
85.0
 21
-17.623923000000001
 31
0.0
  0
LINE
  5
85B
  8
DETAIL
  6
CONTINUOUS
 62
     5
 10
83.589431999999974
 20
-20.163923
 30
0.0
 11
83.589431999999974
 21
-15.553922999999999
 31
0.0
  0
LINE
  5
85C
  8
DETAIL
  6
CONTINUOUS
 62
     5
 10
84.059432000000015
 20
-20.163923
 30
0.0
 11
84.059432000000015
 21
-15.553922999999999
 31
0.0
  0
LINE
  5
85D
  8
DETAIL
  6
CONTINUOUS
 62
     5
 10
80.0
 20
-20.633922999999982
 30
0.0
 11
81.049431999999996
 21
-20.633922999999982
 31
0.0
  0
LINE
  5
85E
  8
DETAIL
  6
CONTINUOUS
 62
     5
 10
81.519431999999981
 20
-20.633922999999982
 30
0.0
 11
85.0
 21
-20.633922999999982
 31
0.0
  0
LINE
  5
85F
  8
DETAIL
  6
CONTINUOUS
 62
     5
 10
80.0
 20
-20.163923
 30
0.0
 11
81.049431999999996
 21
-20.163923
 31
0.0
  0
LINE
  5
860
  8
DETAIL
  6
CONTINUOUS
 62
     5
 10
81.519431999999981
 20
-20.163923
 30
0.0
 11
85.0
 21
-20.163923
 31
0.0
  0
LINE
  5
861
  8
DETAIL
  6
CONTINUOUS
 62
     5
 10
87.5
 20
-15.553922999999999
 30
0.0
 11
88.549431999999996
 21
-15.553922999999999
 31
0.0
  0
LINE
  5
862
  8
DETAIL
  6
CONTINUOUS
 62
     5
 10
89.019431999999981
 20
-15.553922999999999
 30
0.0
 11
92.5
 21
-15.553922999999999
 31
0.0
  0
LINE
  5
863
  8
DETAIL
  6
CONTINUOUS
 62
     5
 10
87.5
 20
-15.083923
 30
0.0
 11
88.549431999999996
 21
-15.083923
 31
0.0
  0
LINE
  5
864
  8
DETAIL
  6
CONTINUOUS
 62
     5
 10
89.019431999999981
 20
-15.083923
 30
0.0
 11
92.5
 21
-15.083923
 31
0.0
  0
LINE
  5
865
  8
DETAIL
  6
CONTINUOUS
 62
     5
 10
87.5
 20
-18.093923
 30
0.0
 11
91.089431999999974
 21
-18.093923
 31
0.0
  0
LINE
  5
866
  8
DETAIL
  6
CONTINUOUS
 62
     5
 10
91.559432000000015
 20
-18.093923
 30
0.0
 11
92.5
 21
-18.093923
 31
0.0
  0
LINE
  5
867
  8
DETAIL
  6
CONTINUOUS
 62
     5
 10
87.5
 20
-17.623923000000001
 30
0.0
 11
91.089431999999974
 21
-17.623923000000001
 31
0.0
  0
LINE
  5
868
  8
DETAIL
  6
CONTINUOUS
 62
     5
 10
91.559432000000015
 20
-17.623923000000001
 30
0.0
 11
92.5
 21
-17.623923000000001
 31
0.0
  0
LINE
  5
869
  8
DETAIL
  6
CONTINUOUS
 62
     5
 10
91.089431999999974
 20
-20.163923
 30
0.0
 11
91.089431999999974
 21
-15.553922999999999
 31
0.0
  0
LINE
  5
86A
  8
DETAIL
  6
CONTINUOUS
 62
     5
 10
91.559432000000015
 20
-20.163923
 30
0.0
 11
91.559432000000015
 21
-15.553922999999999
 31
0.0
  0
LINE
  5
86B
  8
DETAIL
  6
CONTINUOUS
 62
     5
 10
87.5
 20
-20.633922999999982
 30
0.0
 11
88.549431999999996
 21
-20.633922999999982
 31
0.0
  0
LINE
  5
86C
  8
DETAIL
  6
CONTINUOUS
 62
     5
 10
89.019431999999981
 20
-20.633922999999982
 30
0.0
 11
92.5
 21
-20.633922999999982
 31
0.0
  0
LINE
  5
86D
  8
DETAIL
  6
CONTINUOUS
 62
     5
 10
87.5
 20
-20.163923
 30
0.0
 11
88.549431999999996
 21
-20.163923
 31
0.0
  0
LINE
  5
86E
  8
DETAIL
  6
CONTINUOUS
 62
     5
 10
89.019431999999981
 20
-20.163923
 30
0.0
 11
92.5
 21
-20.163923
 31
0.0
  0
LINE
  5
86F
  8
DETAIL
  6
CONTINUOUS
 62
     5
 10
20.0
 20
-15.0
 30
0.0
 11
20.0
 21
-28.5
 31
0.0
  0
LINE
  5
870
  8
DETAIL
  6
CONTINUOUS
 62
     5
 10
21.049431999999999
 20
-17.623923000000001
 30
0.0
 11
21.049431999999999
 21
-15.0
 31
0.0
  0
LINE
  5
871
  8
DETAIL
  6
CONTINUOUS
 62
     5
 10
21.519431999999991
 20
-17.623923000000001
 30
0.0
 11
21.519431999999991
 21
-15.0
 31
0.0
  0
LINE
  5
872
  8
DETAIL
  6
CONTINUOUS
 62
     5
 10
23.589431999999999
 20
-15.083923
 30
0.0
 11
23.589431999999999
 21
-15.0
 31
0.0
  0
LINE
  5
873
  8
DETAIL
  6
CONTINUOUS
 62
     5
 10
24.059432000000001
 20
-15.083923
 30
0.0
 11
24.059432000000001
 21
-15.0
 31
0.0
  0
LINE
  5
874
  8
DETAIL
  6
CONTINUOUS
 62
     5
 10
25.0
 20
-15.0
 30
0.0
 11
25.0
 21
-28.5
 31
0.0
  0
LINE
  5
875
  8
DETAIL
  6
CONTINUOUS
 62
     5
 10
27.5
 20
-15.0
 30
0.0
 11
27.5
 21
-28.5
 31
0.0
  0
LINE
  5
876
  8
DETAIL
  6
CONTINUOUS
 62
     5
 10
29.019431999999991
 20
-17.623923000000001
 30
0.0
 11
29.019431999999991
 21
-15.0
 31
0.0
  0
LINE
  5
877
  8
DETAIL
  6
CONTINUOUS
 62
     5
 10
28.549431999999999
 20
-17.623923000000001
 30
0.0
 11
28.549431999999999
 21
-15.0
 31
0.0
  0
LINE
  5
878
  8
DETAIL
  6
CONTINUOUS
 62
     5
 10
31.559432000000001
 20
-15.083923
 30
0.0
 11
31.559432000000001
 21
-15.0
 31
0.0
  0
LINE
  5
879
  8
DETAIL
  6
CONTINUOUS
 62
     5
 10
31.089431999999999
 20
-15.083923
 30
0.0
 11
31.089431999999999
 21
-15.0
 31
0.0
  0
LINE
  5
87A
  8
DETAIL
  6
CONTINUOUS
 62
     5
 10
32.5
 20
-15.0
 30
0.0
 11
32.5
 21
-28.5
 31
0.0
  0
LINE
  5
87B
  8
DETAIL
  6
CONTINUOUS
 62
     5
 10
35.0
 20
-15.0
 30
0.0
 11
35.0
 21
-28.5
 31
0.0
  0
LINE
  5
87C
  8
DETAIL
  6
CONTINUOUS
 62
     5
 10
36.519432000000002
 20
-17.623923000000001
 30
0.0
 11
36.519432000000002
 21
-15.0
 31
0.0
  0
LINE
  5
87D
  8
DETAIL
  6
CONTINUOUS
 62
     5
 10
36.04943200000001
 20
-17.623923000000001
 30
0.0
 11
36.04943200000001
 21
-15.0
 31
0.0
  0
LINE
  5
87E
  8
DETAIL
  6
CONTINUOUS
 62
     5
 10
38.589432000000002
 20
-15.083923
 30
0.0
 11
38.589432000000002
 21
-15.0
 31
0.0
  0
LINE
  5
87F
  8
DETAIL
  6
CONTINUOUS
 62
     5
 10
39.059432000000001
 20
-15.083923
 30
0.0
 11
39.059432000000001
 21
-15.0
 31
0.0
  0
LINE
  5
880
  8
DETAIL
  6
CONTINUOUS
 62
     5
 10
40.0
 20
-15.0
 30
0.0
 11
40.0
 21
-28.5
 31
0.0
  0
LINE
  5
881
  8
DETAIL
  6
CONTINUOUS
 62
     5
 10
42.5
 20
-15.0
 30
0.0
 11
42.5
 21
-28.5
 31
0.0
  0
LINE
  5
882
  8
DETAIL
  6
CONTINUOUS
 62
     5
 10
43.549432000000003
 20
-17.623923000000001
 30
0.0
 11
43.549432000000003
 21
-15.0
 31
0.0
  0
LINE
  5
883
  8
DETAIL
  6
CONTINUOUS
 62
     5
 10
44.019432000000002
 20
-17.623923000000001
 30
0.0
 11
44.019432000000002
 21
-15.0
 31
0.0
  0
LINE
  5
884
  8
DETAIL
  6
CONTINUOUS
 62
     5
 10
46.559432000000001
 20
-15.083923
 30
0.0
 11
46.559432000000001
 21
-15.0
 31
0.0
  0
LINE
  5
885
  8
DETAIL
  6
CONTINUOUS
 62
     5
 10
46.089432000000002
 20
-15.083923
 30
0.0
 11
46.089432000000002
 21
-15.0
 31
0.0
  0
LINE
  5
886
  8
DETAIL
  6
CONTINUOUS
 62
     5
 10
47.5
 20
-15.0
 30
0.0
 11
47.5
 21
-28.5
 31
0.0
  0
LINE
  5
887
  8
DETAIL
  6
CONTINUOUS
 62
     5
 10
50.0
 20
-15.0
 30
0.0
 11
50.0
 21
-28.5
 31
0.0
  0
LINE
  5
888
  8
DETAIL
  6
CONTINUOUS
 62
     5
 10
51.04943200000001
 20
-17.623923000000001
 30
0.0
 11
51.04943200000001
 21
-15.0
 31
0.0
  0
LINE
  5
889
  8
DETAIL
  6
CONTINUOUS
 62
     5
 10
51.519432000000002
 20
-17.623923000000001
 30
0.0
 11
51.519432000000002
 21
-15.0
 31
0.0
  0
LINE
  5
88A
  8
DETAIL
  6
CONTINUOUS
 62
     5
 10
55.0
 20
-15.0
 30
0.0
 11
55.0
 21
-28.5
 31
0.0
  0
LINE
  5
88B
  8
DETAIL
  6
CONTINUOUS
 62
     5
 10
53.589431999999981
 20
-15.083923
 30
0.0
 11
53.589431999999981
 21
-15.0
 31
0.0
  0
LINE
  5
88C
  8
DETAIL
  6
CONTINUOUS
 62
     5
 10
54.059431999999987
 20
-15.083923
 30
0.0
 11
54.059431999999987
 21
-15.0
 31
0.0
  0
LINE
  5
88D
  8
DETAIL
  6
CONTINUOUS
 62
     5
 10
57.5
 20
-15.0
 30
0.0
 11
57.5
 21
-28.5
 31
0.0
  0
ARC
  5
88E
  8
DETAIL
  6
CONTINUOUS
 62
     5
 10
22.5
 20
-28.5
 30
0.0
 40
2.5
 50
180.0
 51
0.0
  0
ARC
  5
88F
  8
DETAIL
  6
CONTINUOUS
 62
     5
 10
30.0
 20
-28.5
 30
0.0
 40
2.5
 50
180.0
 51
0.0
  0
ARC
  5
890
  8
DETAIL
  6
CONTINUOUS
 62
     5
 10
37.5
 20
-28.5
 30
0.0
 40
2.5
 50
180.0
 51
0.0
  0
ARC
  5
891
  8
DETAIL
  6
CONTINUOUS
 62
     5
 10
45.0
 20
-28.5
 30
0.0
 40
2.5
 50
180.0
 51
0.0
  0
ARC
  5
892
  8
DETAIL
  6
CONTINUOUS
 62
     5
 10
52.5
 20
-28.5
 30
0.0
 40
2.5
 50
180.0
 51
0.0
  0
LINE
  5
893
  8
DETAIL
  6
CONTINUOUS
 62
     5
 10
20.790232999999979
 20
-30.32392299999999
 30
0.0
 11
21.049431999999999
 21
-30.32392299999999
 31
0.0
  0
LINE
  5
894
  8
DETAIL
  6
CONTINUOUS
 62
     5
 10
21.506060999999999
 20
-30.793922999999999
 30
0.0
 11
23.493939000000001
 21
-30.793922999999999
 31
0.0
  0
LINE
  5
895
  8
DETAIL
  6
CONTINUOUS
 62
     5
 10
21.519431999999991
 20
-30.32392299999999
 30
0.0
 11
24.209766999999999
 21
-30.32392299999999
 31
0.0
  0
LINE
  5
896
  8
DETAIL
  6
CONTINUOUS
 62
     5
 10
20.0
 20
-23.173922999999991
 30
0.0
 11
23.589431999999999
 21
-23.173922999999991
 31
0.0
  0
LINE
  5
897
  8
DETAIL
  6
CONTINUOUS
 62
     5
 10
24.059432000000001
 20
-23.173922999999991
 30
0.0
 11
25.0
 21
-23.173922999999991
 31
0.0
  0
LINE
  5
898
  8
DETAIL
  6
CONTINUOUS
 62
     5
 10
20.0
 20
-22.703923
 30
0.0
 11
23.589431999999999
 21
-22.703923
 31
0.0
  0
LINE
  5
899
  8
DETAIL
  6
CONTINUOUS
 62
     5
 10
24.059432000000001
 20
-22.703923
 30
0.0
 11
25.0
 21
-22.703923
 31
0.0
  0
LINE
  5
89A
  8
DETAIL
  6
CONTINUOUS
 62
     5
 10
20.0
 20
-25.713923000000001
 30
0.0
 11
21.049431999999999
 21
-25.713923000000001
 31
0.0
  0
LINE
  5
89B
  8
DETAIL
  6
CONTINUOUS
 62
     5
 10
21.519431999999991
 20
-25.713923000000001
 30
0.0
 11
25.0
 21
-25.713923000000001
 31
0.0
  0
LINE
  5
89C
  8
DETAIL
  6
CONTINUOUS
 62
     5
 10
20.0
 20
-25.243922999999999
 30
0.0
 11
21.049431999999999
 21
-25.243922999999999
 31
0.0
  0
LINE
  5
89D
  8
DETAIL
  6
CONTINUOUS
 62
     5
 10
21.519431999999991
 20
-25.243922999999999
 30
0.0
 11
25.0
 21
-25.243922999999999
 31
0.0
  0
LINE
  5
89E
  8
DETAIL
  6
CONTINUOUS
 62
     5
 10
21.049431999999999
 20
-27.783923000000001
 30
0.0
 11
21.049431999999999
 21
-23.173922999999991
 31
0.0
  0
LINE
  5
89F
  8
DETAIL
  6
CONTINUOUS
 62
     5
 10
21.519431999999991
 20
-27.783923000000001
 30
0.0
 11
21.519431999999991
 21
-23.173922999999991
 31
0.0
  0
LINE
  5
8A0
  8
DETAIL
  6
CONTINUOUS
 62
     5
 10
20.0
 20
-28.253922999999979
 30
0.0
 11
23.589431999999999
 21
-28.253922999999979
 31
0.0
  0
LINE
  5
8A1
  8
DETAIL
  6
CONTINUOUS
 62
     5
 10
24.059432000000001
 20
-28.253922999999979
 30
0.0
 11
25.0
 21
-28.253922999999979
 31
0.0
  0
LINE
  5
8A2
  8
DETAIL
  6
CONTINUOUS
 62
     5
 10
20.0
 20
-27.783923000000001
 30
0.0
 11
23.589431999999999
 21
-27.783923000000001
 31
0.0
  0
LINE
  5
8A3
  8
DETAIL
  6
CONTINUOUS
 62
     5
 10
24.059432000000001
 20
-27.783923000000001
 30
0.0
 11
25.0
 21
-27.783923000000001
 31
0.0
  0
LINE
  5
8A4
  8
DETAIL
  6
CONTINUOUS
 62
     5
 10
21.049431999999999
 20
-30.536135999999999
 30
0.0
 11
21.049431999999999
 21
-28.253922999999979
 31
0.0
  0
LINE
  5
8A5
  8
DETAIL
  6
CONTINUOUS
 62
     5
 10
21.519431999999991
 20
-30.799671000000011
 30
0.0
 11
21.519431999999991
 21
-28.253922999999979
 31
0.0
  0
LINE
  5
8A6
  8
DETAIL
  6
CONTINUOUS
 62
     5
 10
23.589431999999999
 20
-30.32392299999999
 30
0.0
 11
23.589431999999999
 21
-25.713923000000001
 31
0.0
  0
LINE
  5
8A7
  8
DETAIL
  6
CONTINUOUS
 62
     5
 10
24.059432000000001
 20
-30.32392299999999
 30
0.0
 11
24.059432000000001
 21
-25.713923000000001
 31
0.0
  0
LINE
  5
8A8
  8
DETAIL
  6
CONTINUOUS
 62
     5
 10
21.049431999999999
 20
-22.703923
 30
0.0
 11
21.049431999999999
 21
-21.699999999999989
 31
0.0
  0
LINE
  5
8A9
  8
DETAIL
  6
CONTINUOUS
 62
     5
 10
21.519431999999991
 20
-22.703923
 30
0.0
 11
21.519431999999991
 21
-21.699999999999989
 31
0.0
  0
LINE
  5
8AA
  8
DETAIL
  6
CONTINUOUS
 62
     5
 10
23.589431999999999
 20
-25.243922999999999
 30
0.0
 11
23.589431999999999
 21
-21.699999999999989
 31
0.0
  0
LINE
  5
8AB
  8
DETAIL
  6
CONTINUOUS
 62
     5
 10
24.059432000000001
 20
-25.243922999999999
 30
0.0
 11
24.059432000000001
 21
-21.699999999999989
 31
0.0
  0
LINE
  5
8AC
  8
DETAIL
  6
CONTINUOUS
 62
     5
 10
28.290233000000001
 20
-30.32392299999999
 30
0.0
 11
28.549431999999999
 21
-30.32392299999999
 31
0.0
  0
LINE
  5
8AD
  8
DETAIL
  6
CONTINUOUS
 62
     5
 10
29.006060999999999
 20
-30.793922999999999
 30
0.0
 11
30.993939000000001
 21
-30.793922999999999
 31
0.0
  0
LINE
  5
8AE
  8
DETAIL
  6
CONTINUOUS
 62
     5
 10
29.019431999999991
 20
-30.32392299999999
 30
0.0
 11
31.709766999999999
 21
-30.32392299999999
 31
0.0
  0
LINE
  5
8AF
  8
DETAIL
  6
CONTINUOUS
 62
     5
 10
27.5
 20
-23.173922999999991
 30
0.0
 11
31.089431999999999
 21
-23.173922999999991
 31
0.0
  0
LINE
  5
8B0
  8
DETAIL
  6
CONTINUOUS
 62
     5
 10
31.559432000000001
 20
-23.173922999999991
 30
0.0
 11
32.5
 21
-23.173922999999991
 31
0.0
  0
LINE
  5
8B1
  8
DETAIL
  6
CONTINUOUS
 62
     5
 10
27.5
 20
-22.703923
 30
0.0
 11
31.089431999999999
 21
-22.703923
 31
0.0
  0
LINE
  5
8B2
  8
DETAIL
  6
CONTINUOUS
 62
     5
 10
31.559432000000001
 20
-22.703923
 30
0.0
 11
32.5
 21
-22.703923
 31
0.0
  0
LINE
  5
8B3
  8
DETAIL
  6
CONTINUOUS
 62
     5
 10
27.5
 20
-25.713923000000001
 30
0.0
 11
28.549431999999999
 21
-25.713923000000001
 31
0.0
  0
LINE
  5
8B4
  8
DETAIL
  6
CONTINUOUS
 62
     5
 10
29.019431999999991
 20
-25.713923000000001
 30
0.0
 11
32.5
 21
-25.713923000000001
 31
0.0
  0
LINE
  5
8B5
  8
DETAIL
  6
CONTINUOUS
 62
     5
 10
27.5
 20
-25.243922999999999
 30
0.0
 11
28.549431999999999
 21
-25.243922999999999
 31
0.0
  0
LINE
  5
8B6
  8
DETAIL
  6
CONTINUOUS
 62
     5
 10
29.019431999999991
 20
-25.243922999999999
 30
0.0
 11
32.5
 21
-25.243922999999999
 31
0.0
  0
LINE
  5
8B7
  8
DETAIL
  6
CONTINUOUS
 62
     5
 10
28.549431999999999
 20
-27.783923000000001
 30
0.0
 11
28.549431999999999
 21
-23.173922999999991
 31
0.0
  0
LINE
  5
8B8
  8
DETAIL
  6
CONTINUOUS
 62
     5
 10
29.019431999999991
 20
-27.783923000000001
 30
0.0
 11
29.019431999999991
 21
-23.173922999999991
 31
0.0
  0
LINE
  5
8B9
  8
DETAIL
  6
CONTINUOUS
 62
     5
 10
27.5
 20
-28.253922999999979
 30
0.0
 11
31.089431999999999
 21
-28.253922999999979
 31
0.0
  0
LINE
  5
8BA
  8
DETAIL
  6
CONTINUOUS
 62
     5
 10
31.559432000000001
 20
-28.253922999999979
 30
0.0
 11
32.5
 21
-28.253922999999979
 31
0.0
  0
LINE
  5
8BB
  8
DETAIL
  6
CONTINUOUS
 62
     5
 10
27.5
 20
-27.783923000000001
 30
0.0
 11
31.089431999999999
 21
-27.783923000000001
 31
0.0
  0
LINE
  5
8BC
  8
DETAIL
  6
CONTINUOUS
 62
     5
 10
31.559432000000001
 20
-27.783923000000001
 30
0.0
 11
32.5
 21
-27.783923000000001
 31
0.0
  0
LINE
  5
8BD
  8
DETAIL
  6
CONTINUOUS
 62
     5
 10
28.549431999999999
 20
-30.536135999999999
 30
0.0
 11
28.549431999999999
 21
-28.253922999999979
 31
0.0
  0
LINE
  5
8BE
  8
DETAIL
  6
CONTINUOUS
 62
     5
 10
29.019431999999991
 20
-30.799671000000011
 30
0.0
 11
29.019431999999991
 21
-28.253922999999979
 31
0.0
  0
LINE
  5
8BF
  8
DETAIL
  6
CONTINUOUS
 62
     5
 10
31.089431999999999
 20
-30.32392299999999
 30
0.0
 11
31.089431999999999
 21
-25.713923000000001
 31
0.0
  0
LINE
  5
8C0
  8
DETAIL
  6
CONTINUOUS
 62
     5
 10
31.559432000000001
 20
-30.32392299999999
 30
0.0
 11
31.559432000000001
 21
-25.713923000000001
 31
0.0
  0
LINE
  5
8C1
  8
DETAIL
  6
CONTINUOUS
 62
     5
 10
28.549431999999999
 20
-22.703923
 30
0.0
 11
28.549431999999999
 21
-21.699999999999989
 31
0.0
  0
LINE
  5
8C2
  8
DETAIL
  6
CONTINUOUS
 62
     5
 10
29.019431999999991
 20
-22.703923
 30
0.0
 11
29.019431999999991
 21
-21.699999999999989
 31
0.0
  0
LINE
  5
8C3
  8
DETAIL
  6
CONTINUOUS
 62
     5
 10
31.089431999999999
 20
-25.243922999999999
 30
0.0
 11
31.089431999999999
 21
-21.699999999999989
 31
0.0
  0
LINE
  5
8C4
  8
DETAIL
  6
CONTINUOUS
 62
     5
 10
31.559432000000001
 20
-25.243922999999999
 30
0.0
 11
31.559432000000001
 21
-21.699999999999989
 31
0.0
  0
LINE
  5
8C5
  8
DETAIL
  6
CONTINUOUS
 62
     5
 10
35.790233000000001
 20
-30.32392299999999
 30
0.0
 11
36.04943200000001
 21
-30.32392299999999
 31
0.0
  0
LINE
  5
8C6
  8
DETAIL
  6
CONTINUOUS
 62
     5
 10
36.506060999999988
 20
-30.793922999999999
 30
0.0
 11
38.49393899999999
 21
-30.793922999999999
 31
0.0
  0
LINE
  5
8C7
  8
DETAIL
  6
CONTINUOUS
 62
     5
 10
36.519432000000002
 20
-30.32392299999999
 30
0.0
 11
39.209766999999999
 21
-30.32392299999999
 31
0.0
  0
LINE
  5
8C8
  8
DETAIL
  6
CONTINUOUS
 62
     5
 10
35.0
 20
-23.173922999999991
 30
0.0
 11
38.589432000000002
 21
-23.173922999999991
 31
0.0
  0
LINE
  5
8C9
  8
DETAIL
  6
CONTINUOUS
 62
     5
 10
39.059432000000001
 20
-23.173922999999991
 30
0.0
 11
40.0
 21
-23.173922999999991
 31
0.0
  0
LINE
  5
8CA
  8
DETAIL
  6
CONTINUOUS
 62
     5
 10
35.0
 20
-22.703923
 30
0.0
 11
38.589432000000002
 21
-22.703923
 31
0.0
  0
LINE
  5
8CB
  8
DETAIL
  6
CONTINUOUS
 62
     5
 10
39.059432000000001
 20
-22.703923
 30
0.0
 11
40.0
 21
-22.703923
 31
0.0
  0
LINE
  5
8CC
  8
DETAIL
  6
CONTINUOUS
 62
     5
 10
35.0
 20
-25.713923000000001
 30
0.0
 11
36.04943200000001
 21
-25.713923000000001
 31
0.0
  0
LINE
  5
8CD
  8
DETAIL
  6
CONTINUOUS
 62
     5
 10
36.519432000000002
 20
-25.713923000000001
 30
0.0
 11
40.0
 21
-25.713923000000001
 31
0.0
  0
LINE
  5
8CE
  8
DETAIL
  6
CONTINUOUS
 62
     5
 10
35.0
 20
-25.243922999999999
 30
0.0
 11
36.04943200000001
 21
-25.243922999999999
 31
0.0
  0
LINE
  5
8CF
  8
DETAIL
  6
CONTINUOUS
 62
     5
 10
36.519432000000002
 20
-25.243922999999999
 30
0.0
 11
40.0
 21
-25.243922999999999
 31
0.0
  0
LINE
  5
8D0
  8
DETAIL
  6
CONTINUOUS
 62
     5
 10
36.04943200000001
 20
-27.783923000000001
 30
0.0
 11
36.04943200000001
 21
-23.173922999999991
 31
0.0
  0
LINE
  5
8D1
  8
DETAIL
  6
CONTINUOUS
 62
     5
 10
36.519432000000002
 20
-27.783923000000001
 30
0.0
 11
36.519432000000002
 21
-23.173922999999991
 31
0.0
  0
LINE
  5
8D2
  8
DETAIL
  6
CONTINUOUS
 62
     5
 10
35.0
 20
-28.253922999999979
 30
0.0
 11
38.589432000000002
 21
-28.253922999999979
 31
0.0
  0
LINE
  5
8D3
  8
DETAIL
  6
CONTINUOUS
 62
     5
 10
39.059432000000001
 20
-28.253922999999979
 30
0.0
 11
40.0
 21
-28.253922999999979
 31
0.0
  0
LINE
  5
8D4
  8
DETAIL
  6
CONTINUOUS
 62
     5
 10
35.0
 20
-27.783923000000001
 30
0.0
 11
38.589432000000002
 21
-27.783923000000001
 31
0.0
  0
LINE
  5
8D5
  8
DETAIL
  6
CONTINUOUS
 62
     5
 10
39.059432000000001
 20
-27.783923000000001
 30
0.0
 11
40.0
 21
-27.783923000000001
 31
0.0
  0
LINE
  5
8D6
  8
DETAIL
  6
CONTINUOUS
 62
     5
 10
36.04943200000001
 20
-30.536135999999999
 30
0.0
 11
36.04943200000001
 21
-28.253922999999979
 31
0.0
  0
LINE
  5
8D7
  8
DETAIL
  6
CONTINUOUS
 62
     5
 10
36.519432000000002
 20
-30.799671000000011
 30
0.0
 11
36.519432000000002
 21
-28.253922999999979
 31
0.0
  0
LINE
  5
8D8
  8
DETAIL
  6
CONTINUOUS
 62
     5
 10
38.589432000000002
 20
-30.32392299999999
 30
0.0
 11
38.589432000000002
 21
-25.713923000000001
 31
0.0
  0
LINE
  5
8D9
  8
DETAIL
  6
CONTINUOUS
 62
     5
 10
39.059432000000001
 20
-30.32392299999999
 30
0.0
 11
39.059432000000001
 21
-25.713923000000001
 31
0.0
  0
LINE
  5
8DA
  8
DETAIL
  6
CONTINUOUS
 62
     5
 10
36.04943200000001
 20
-22.703923
 30
0.0
 11
36.04943200000001
 21
-21.699999999999989
 31
0.0
  0
LINE
  5
8DB
  8
DETAIL
  6
CONTINUOUS
 62
     5
 10
36.519432000000002
 20
-22.703923
 30
0.0
 11
36.519432000000002
 21
-21.699999999999989
 31
0.0
  0
LINE
  5
8DC
  8
DETAIL
  6
CONTINUOUS
 62
     5
 10
38.589432000000002
 20
-25.243922999999999
 30
0.0
 11
38.589432000000002
 21
-21.699999999999989
 31
0.0
  0
LINE
  5
8DD
  8
DETAIL
  6
CONTINUOUS
 62
     5
 10
39.059432000000001
 20
-25.243922999999999
 30
0.0
 11
39.059432000000001
 21
-21.699999999999989
 31
0.0
  0
LINE
  5
8DE
  8
DETAIL
  6
CONTINUOUS
 62
     5
 10
43.290233000000001
 20
-30.32392299999999
 30
0.0
 11
43.549432000000003
 21
-30.32392299999999
 31
0.0
  0
LINE
  5
8DF
  8
DETAIL
  6
CONTINUOUS
 62
     5
 10
44.006061000000003
 20
-30.793922999999999
 30
0.0
 11
45.99393899999999
 21
-30.793922999999999
 31
0.0
  0
LINE
  5
8E0
  8
DETAIL
  6
CONTINUOUS
 62
     5
 10
44.019432000000002
 20
-30.32392299999999
 30
0.0
 11
46.709766999999992
 21
-30.32392299999999
 31
0.0
  0
LINE
  5
8E1
  8
DETAIL
  6
CONTINUOUS
 62
     5
 10
42.5
 20
-23.173922999999991
 30
0.0
 11
46.089432000000002
 21
-23.173922999999991
 31
0.0
  0
LINE
  5
8E2
  8
DETAIL
  6
CONTINUOUS
 62
     5
 10
46.559432000000001
 20
-23.173922999999991
 30
0.0
 11
47.5
 21
-23.173922999999991
 31
0.0
  0
LINE
  5
8E3
  8
DETAIL
  6
CONTINUOUS
 62
     5
 10
42.5
 20
-22.703923
 30
0.0
 11
46.089432000000002
 21
-22.703923
 31
0.0
  0
LINE
  5
8E4
  8
DETAIL
  6
CONTINUOUS
 62
     5
 10
46.559432000000001
 20
-22.703923
 30
0.0
 11
47.5
 21
-22.703923
 31
0.0
  0
LINE
  5
8E5
  8
DETAIL
  6
CONTINUOUS
 62
     5
 10
42.5
 20
-25.713923000000001
 30
0.0
 11
43.549432000000003
 21
-25.713923000000001
 31
0.0
  0
LINE
  5
8E6
  8
DETAIL
  6
CONTINUOUS
 62
     5
 10
44.019432000000002
 20
-25.713923000000001
 30
0.0
 11
47.5
 21
-25.713923000000001
 31
0.0
  0
LINE
  5
8E7
  8
DETAIL
  6
CONTINUOUS
 62
     5
 10
42.5
 20
-25.243922999999999
 30
0.0
 11
43.549432000000003
 21
-25.243922999999999
 31
0.0
  0
LINE
  5
8E8
  8
DETAIL
  6
CONTINUOUS
 62
     5
 10
44.019432000000002
 20
-25.243922999999999
 30
0.0
 11
47.5
 21
-25.243922999999999
 31
0.0
  0
LINE
  5
8E9
  8
DETAIL
  6
CONTINUOUS
 62
     5
 10
43.549432000000003
 20
-27.783923000000001
 30
0.0
 11
43.549432000000003
 21
-23.173922999999991
 31
0.0
  0
LINE
  5
8EA
  8
DETAIL
  6
CONTINUOUS
 62
     5
 10
44.019432000000002
 20
-27.783923000000001
 30
0.0
 11
44.019432000000002
 21
-23.173922999999991
 31
0.0
  0
LINE
  5
8EB
  8
DETAIL
  6
CONTINUOUS
 62
     5
 10
42.5
 20
-28.253922999999979
 30
0.0
 11
46.089432000000002
 21
-28.253922999999979
 31
0.0
  0
LINE
  5
8EC
  8
DETAIL
  6
CONTINUOUS
 62
     5
 10
46.559432000000001
 20
-28.253922999999979
 30
0.0
 11
47.5
 21
-28.253922999999979
 31
0.0
  0
LINE
  5
8ED
  8
DETAIL
  6
CONTINUOUS
 62
     5
 10
42.5
 20
-27.783923000000001
 30
0.0
 11
46.089432000000002
 21
-27.783923000000001
 31
0.0
  0
LINE
  5
8EE
  8
DETAIL
  6
CONTINUOUS
 62
     5
 10
46.559432000000001
 20
-27.783923000000001
 30
0.0
 11
47.5
 21
-27.783923000000001
 31
0.0
  0
LINE
  5
8EF
  8
DETAIL
  6
CONTINUOUS
 62
     5
 10
43.549432000000003
 20
-30.536135999999999
 30
0.0
 11
43.549432000000003
 21
-28.253922999999979
 31
0.0
  0
LINE
  5
8F0
  8
DETAIL
  6
CONTINUOUS
 62
     5
 10
44.019432000000002
 20
-30.799671000000011
 30
0.0
 11
44.019432000000002
 21
-28.253922999999979
 31
0.0
  0
LINE
  5
8F1
  8
DETAIL
  6
CONTINUOUS
 62
     5
 10
46.089432000000002
 20
-30.32392299999999
 30
0.0
 11
46.089432000000002
 21
-25.713923000000001
 31
0.0
  0
LINE
  5
8F2
  8
DETAIL
  6
CONTINUOUS
 62
     5
 10
46.559432000000001
 20
-30.32392299999999
 30
0.0
 11
46.559432000000001
 21
-25.713923000000001
 31
0.0
  0
LINE
  5
8F3
  8
DETAIL
  6
CONTINUOUS
 62
     5
 10
43.549432000000003
 20
-22.703923
 30
0.0
 11
43.549432000000003
 21
-21.699999999999989
 31
0.0
  0
LINE
  5
8F4
  8
DETAIL
  6
CONTINUOUS
 62
     5
 10
44.019432000000002
 20
-22.703923
 30
0.0
 11
44.019432000000002
 21
-21.699999999999989
 31
0.0
  0
LINE
  5
8F5
  8
DETAIL
  6
CONTINUOUS
 62
     5
 10
46.089432000000002
 20
-25.243922999999999
 30
0.0
 11
46.089432000000002
 21
-21.699999999999989
 31
0.0
  0
LINE
  5
8F6
  8
DETAIL
  6
CONTINUOUS
 62
     5
 10
46.559432000000001
 20
-25.243922999999999
 30
0.0
 11
46.559432000000001
 21
-21.699999999999989
 31
0.0
  0
LINE
  5
8F7
  8
DETAIL
  6
CONTINUOUS
 62
     5
 10
50.790233000000001
 20
-30.32392299999999
 30
0.0
 11
51.04943200000001
 21
-30.32392299999999
 31
0.0
  0
LINE
  5
8F8
  8
DETAIL
  6
CONTINUOUS
 62
     5
 10
51.506061000000003
 20
-30.793922999999999
 30
0.0
 11
53.49393899999999
 21
-30.793922999999999
 31
0.0
  0
LINE
  5
8F9
  8
DETAIL
  6
CONTINUOUS
 62
     5
 10
51.519432000000002
 20
-30.32392299999999
 30
0.0
 11
54.209766999999999
 21
-30.32392299999999
 31
0.0
  0
LINE
  5
8FA
  8
DETAIL
  6
CONTINUOUS
 62
     5
 10
50.0
 20
-23.173922999999991
 30
0.0
 11
53.589431999999981
 21
-23.173922999999991
 31
0.0
  0
LINE
  5
8FB
  8
DETAIL
  6
CONTINUOUS
 62
     5
 10
54.059431999999987
 20
-23.173922999999991
 30
0.0
 11
55.0
 21
-23.173922999999991
 31
0.0
  0
LINE
  5
8FC
  8
DETAIL
  6
CONTINUOUS
 62
     5
 10
50.0
 20
-22.703923
 30
0.0
 11
53.589431999999981
 21
-22.703923
 31
0.0
  0
LINE
  5
8FD
  8
DETAIL
  6
CONTINUOUS
 62
     5
 10
54.059431999999987
 20
-22.703923
 30
0.0
 11
55.0
 21
-22.703923
 31
0.0
  0
LINE
  5
8FE
  8
DETAIL
  6
CONTINUOUS
 62
     5
 10
50.0
 20
-25.713923000000001
 30
0.0
 11
51.04943200000001
 21
-25.713923000000001
 31
0.0
  0
LINE
  5
8FF
  8
DETAIL
  6
CONTINUOUS
 62
     5
 10
51.519432000000002
 20
-25.713923000000001
 30
0.0
 11
55.0
 21
-25.713923000000001
 31
0.0
  0
LINE
  5
900
  8
DETAIL
  6
CONTINUOUS
 62
     5
 10
50.0
 20
-25.243922999999999
 30
0.0
 11
51.04943200000001
 21
-25.243922999999999
 31
0.0
  0
LINE
  5
901
  8
DETAIL
  6
CONTINUOUS
 62
     5
 10
51.519432000000002
 20
-25.243922999999999
 30
0.0
 11
55.0
 21
-25.243922999999999
 31
0.0
  0
LINE
  5
902
  8
DETAIL
  6
CONTINUOUS
 62
     5
 10
51.04943200000001
 20
-27.783923000000001
 30
0.0
 11
51.04943200000001
 21
-23.173922999999991
 31
0.0
  0
LINE
  5
903
  8
DETAIL
  6
CONTINUOUS
 62
     5
 10
51.519432000000002
 20
-27.783923000000001
 30
0.0
 11
51.519432000000002
 21
-23.173922999999991
 31
0.0
  0
LINE
  5
904
  8
DETAIL
  6
CONTINUOUS
 62
     5
 10
50.0
 20
-28.253922999999979
 30
0.0
 11
53.589431999999981
 21
-28.253922999999979
 31
0.0
  0
LINE
  5
905
  8
DETAIL
  6
CONTINUOUS
 62
     5
 10
54.059431999999987
 20
-28.253922999999979
 30
0.0
 11
55.0
 21
-28.253922999999979
 31
0.0
  0
LINE
  5
906
  8
DETAIL
  6
CONTINUOUS
 62
     5
 10
50.0
 20
-27.783923000000001
 30
0.0
 11
53.589431999999981
 21
-27.783923000000001
 31
0.0
  0
LINE
  5
907
  8
DETAIL
  6
CONTINUOUS
 62
     5
 10
54.059431999999987
 20
-27.783923000000001
 30
0.0
 11
55.0
 21
-27.783923000000001
 31
0.0
  0
LINE
  5
908
  8
DETAIL
  6
CONTINUOUS
 62
     5
 10
51.04943200000001
 20
-30.536135999999999
 30
0.0
 11
51.04943200000001
 21
-28.253922999999979
 31
0.0
  0
LINE
  5
909
  8
DETAIL
  6
CONTINUOUS
 62
     5
 10
51.519432000000002
 20
-30.799671000000011
 30
0.0
 11
51.519432000000002
 21
-28.253922999999979
 31
0.0
  0
LINE
  5
90A
  8
DETAIL
  6
CONTINUOUS
 62
     5
 10
53.589431999999981
 20
-30.32392299999999
 30
0.0
 11
53.589431999999981
 21
-25.713923000000001
 31
0.0
  0
LINE
  5
90B
  8
DETAIL
  6
CONTINUOUS
 62
     5
 10
54.059431999999987
 20
-30.32392299999999
 30
0.0
 11
54.059431999999987
 21
-25.713923000000001
 31
0.0
  0
LINE
  5
90C
  8
DETAIL
  6
CONTINUOUS
 62
     5
 10
51.04943200000001
 20
-22.703923
 30
0.0
 11
51.04943200000001
 21
-21.699999999999989
 31
0.0
  0
LINE
  5
90D
  8
DETAIL
  6
CONTINUOUS
 62
     5
 10
51.519432000000002
 20
-22.703923
 30
0.0
 11
51.519432000000002
 21
-21.699999999999989
 31
0.0
  0
LINE
  5
90E
  8
DETAIL
  6
CONTINUOUS
 62
     5
 10
53.589431999999981
 20
-25.243922999999999
 30
0.0
 11
53.589431999999981
 21
-21.699999999999989
 31
0.0
  0
LINE
  5
90F
  8
DETAIL
  6
CONTINUOUS
 62
     5
 10
54.059431999999987
 20
-25.243922999999999
 30
0.0
 11
54.059431999999987
 21
-21.699999999999989
 31
0.0
  0
LINE
  5
910
  8
DETAIL
  6
CONTINUOUS
 62
     5
 10
20.0
 20
-15.553922999999999
 30
0.0
 11
21.049431999999999
 21
-15.553922999999999
 31
0.0
  0
LINE
  5
911
  8
DETAIL
  6
CONTINUOUS
 62
     5
 10
21.519431999999991
 20
-15.553922999999999
 30
0.0
 11
25.0
 21
-15.553922999999999
 31
0.0
  0
LINE
  5
912
  8
DETAIL
  6
CONTINUOUS
 62
     5
 10
20.0
 20
-15.083923
 30
0.0
 11
21.049431999999999
 21
-15.083923
 31
0.0
  0
LINE
  5
913
  8
DETAIL
  6
CONTINUOUS
 62
     5
 10
21.519431999999991
 20
-15.083923
 30
0.0
 11
25.0
 21
-15.083923
 31
0.0
  0
LINE
  5
914
  8
DETAIL
  6
CONTINUOUS
 62
     5
 10
20.0
 20
-18.093923
 30
0.0
 11
23.589431999999999
 21
-18.093923
 31
0.0
  0
LINE
  5
915
  8
DETAIL
  6
CONTINUOUS
 62
     5
 10
24.059432000000001
 20
-18.093923
 30
0.0
 11
25.0
 21
-18.093923
 31
0.0
  0
LINE
  5
916
  8
DETAIL
  6
CONTINUOUS
 62
     5
 10
20.0
 20
-17.623923000000001
 30
0.0
 11
23.589431999999999
 21
-17.623923000000001
 31
0.0
  0
LINE
  5
917
  8
DETAIL
  6
CONTINUOUS
 62
     5
 10
24.059432000000001
 20
-17.623923000000001
 30
0.0
 11
25.0
 21
-17.623923000000001
 31
0.0
  0
LINE
  5
918
  8
DETAIL
  6
CONTINUOUS
 62
     5
 10
23.589431999999999
 20
-20.163923
 30
0.0
 11
23.589431999999999
 21
-15.553922999999999
 31
0.0
  0
LINE
  5
919
  8
DETAIL
  6
CONTINUOUS
 62
     5
 10
24.059432000000001
 20
-20.163923
 30
0.0
 11
24.059432000000001
 21
-15.553922999999999
 31
0.0
  0
LINE
  5
91A
  8
DETAIL
  6
CONTINUOUS
 62
     5
 10
20.0
 20
-20.633922999999982
 30
0.0
 11
21.049431999999999
 21
-20.633922999999982
 31
0.0
  0
LINE
  5
91B
  8
DETAIL
  6
CONTINUOUS
 62
     5
 10
21.519431999999991
 20
-20.633922999999982
 30
0.0
 11
25.0
 21
-20.633922999999982
 31
0.0
  0
LINE
  5
91C
  8
DETAIL
  6
CONTINUOUS
 62
     5
 10
20.0
 20
-20.163923
 30
0.0
 11
21.049431999999999
 21
-20.163923
 31
0.0
  0
LINE
  5
91D
  8
DETAIL
  6
CONTINUOUS
 62
     5
 10
21.519431999999991
 20
-20.163923
 30
0.0
 11
25.0
 21
-20.163923
 31
0.0
  0
LINE
  5
91E
  8
DETAIL
  6
CONTINUOUS
 62
     5
 10
21.049431999999999
 20
-21.699999999999989
 30
0.0
 11
21.049431999999999
 21
-18.093923
 31
0.0
  0
LINE
  5
91F
  8
DETAIL
  6
CONTINUOUS
 62
     5
 10
21.519431999999991
 20
-21.699999999999989
 30
0.0
 11
21.519431999999991
 21
-18.093923
 31
0.0
  0
LINE
  5
920
  8
DETAIL
  6
CONTINUOUS
 62
     5
 10
23.589431999999999
 20
-21.699999999999989
 30
0.0
 11
23.589431999999999
 21
-20.633922999999982
 31
0.0
  0
LINE
  5
921
  8
DETAIL
  6
CONTINUOUS
 62
     5
 10
24.059432000000001
 20
-21.699999999999989
 30
0.0
 11
24.059432000000001
 21
-20.633922999999982
 31
0.0
  0
LINE
  5
922
  8
DETAIL
  6
CONTINUOUS
 62
     5
 10
27.5
 20
-15.553922999999999
 30
0.0
 11
28.549431999999999
 21
-15.553922999999999
 31
0.0
  0
LINE
  5
923
  8
DETAIL
  6
CONTINUOUS
 62
     5
 10
29.019431999999991
 20
-15.553922999999999
 30
0.0
 11
32.5
 21
-15.553922999999999
 31
0.0
  0
LINE
  5
924
  8
DETAIL
  6
CONTINUOUS
 62
     5
 10
27.5
 20
-15.083923
 30
0.0
 11
28.549431999999999
 21
-15.083923
 31
0.0
  0
LINE
  5
925
  8
DETAIL
  6
CONTINUOUS
 62
     5
 10
29.019431999999991
 20
-15.083923
 30
0.0
 11
32.5
 21
-15.083923
 31
0.0
  0
LINE
  5
926
  8
DETAIL
  6
CONTINUOUS
 62
     5
 10
27.5
 20
-18.093923
 30
0.0
 11
31.089431999999999
 21
-18.093923
 31
0.0
  0
LINE
  5
927
  8
DETAIL
  6
CONTINUOUS
 62
     5
 10
31.559432000000001
 20
-18.093923
 30
0.0
 11
32.5
 21
-18.093923
 31
0.0
  0
LINE
  5
928
  8
DETAIL
  6
CONTINUOUS
 62
     5
 10
27.5
 20
-17.623923000000001
 30
0.0
 11
31.089431999999999
 21
-17.623923000000001
 31
0.0
  0
LINE
  5
929
  8
DETAIL
  6
CONTINUOUS
 62
     5
 10
31.559432000000001
 20
-17.623923000000001
 30
0.0
 11
32.5
 21
-17.623923000000001
 31
0.0
  0
LINE
  5
92A
  8
DETAIL
  6
CONTINUOUS
 62
     5
 10
31.089431999999999
 20
-20.163923
 30
0.0
 11
31.089431999999999
 21
-15.553922999999999
 31
0.0
  0
LINE
  5
92B
  8
DETAIL
  6
CONTINUOUS
 62
     5
 10
31.559432000000001
 20
-20.163923
 30
0.0
 11
31.559432000000001
 21
-15.553922999999999
 31
0.0
  0
LINE
  5
92C
  8
DETAIL
  6
CONTINUOUS
 62
     5
 10
27.5
 20
-20.633922999999982
 30
0.0
 11
28.549431999999999
 21
-20.633922999999982
 31
0.0
  0
LINE
  5
92D
  8
DETAIL
  6
CONTINUOUS
 62
     5
 10
29.019431999999991
 20
-20.633922999999982
 30
0.0
 11
32.5
 21
-20.633922999999982
 31
0.0
  0
LINE
  5
92E
  8
DETAIL
  6
CONTINUOUS
 62
     5
 10
27.5
 20
-20.163923
 30
0.0
 11
28.549431999999999
 21
-20.163923
 31
0.0
  0
LINE
  5
92F
  8
DETAIL
  6
CONTINUOUS
 62
     5
 10
29.019431999999991
 20
-20.163923
 30
0.0
 11
32.5
 21
-20.163923
 31
0.0
  0
LINE
  5
930
  8
DETAIL
  6
CONTINUOUS
 62
     5
 10
28.549431999999999
 20
-21.699999999999989
 30
0.0
 11
28.549431999999999
 21
-18.093923
 31
0.0
  0
LINE
  5
931
  8
DETAIL
  6
CONTINUOUS
 62
     5
 10
29.019431999999991
 20
-21.699999999999989
 30
0.0
 11
29.019431999999991
 21
-18.093923
 31
0.0
  0
LINE
  5
932
  8
DETAIL
  6
CONTINUOUS
 62
     5
 10
31.089431999999999
 20
-21.699999999999989
 30
0.0
 11
31.089431999999999
 21
-20.633922999999982
 31
0.0
  0
LINE
  5
933
  8
DETAIL
  6
CONTINUOUS
 62
     5
 10
31.559432000000001
 20
-21.699999999999989
 30
0.0
 11
31.559432000000001
 21
-20.633922999999982
 31
0.0
  0
LINE
  5
934
  8
DETAIL
  6
CONTINUOUS
 62
     5
 10
35.0
 20
-15.553922999999999
 30
0.0
 11
36.04943200000001
 21
-15.553922999999999
 31
0.0
  0
LINE
  5
935
  8
DETAIL
  6
CONTINUOUS
 62
     5
 10
36.519432000000002
 20
-15.553922999999999
 30
0.0
 11
40.0
 21
-15.553922999999999
 31
0.0
  0
LINE
  5
936
  8
DETAIL
  6
CONTINUOUS
 62
     5
 10
35.0
 20
-15.083923
 30
0.0
 11
36.04943200000001
 21
-15.083923
 31
0.0
  0
LINE
  5
937
  8
DETAIL
  6
CONTINUOUS
 62
     5
 10
36.519432000000002
 20
-15.083923
 30
0.0
 11
40.0
 21
-15.083923
 31
0.0
  0
LINE
  5
938
  8
DETAIL
  6
CONTINUOUS
 62
     5
 10
35.0
 20
-18.093923
 30
0.0
 11
38.589432000000002
 21
-18.093923
 31
0.0
  0
LINE
  5
939
  8
DETAIL
  6
CONTINUOUS
 62
     5
 10
39.059432000000001
 20
-18.093923
 30
0.0
 11
40.0
 21
-18.093923
 31
0.0
  0
LINE
  5
93A
  8
DETAIL
  6
CONTINUOUS
 62
     5
 10
35.0
 20
-17.623923000000001
 30
0.0
 11
38.589432000000002
 21
-17.623923000000001
 31
0.0
  0
LINE
  5
93B
  8
DETAIL
  6
CONTINUOUS
 62
     5
 10
39.059432000000001
 20
-17.623923000000001
 30
0.0
 11
40.0
 21
-17.623923000000001
 31
0.0
  0
LINE
  5
93C
  8
DETAIL
  6
CONTINUOUS
 62
     5
 10
38.589432000000002
 20
-20.163923
 30
0.0
 11
38.589432000000002
 21
-15.553922999999999
 31
0.0
  0
LINE
  5
93D
  8
DETAIL
  6
CONTINUOUS
 62
     5
 10
39.059432000000001
 20
-20.163923
 30
0.0
 11
39.059432000000001
 21
-15.553922999999999
 31
0.0
  0
LINE
  5
93E
  8
DETAIL
  6
CONTINUOUS
 62
     5
 10
35.0
 20
-20.633922999999982
 30
0.0
 11
36.04943200000001
 21
-20.633922999999982
 31
0.0
  0
LINE
  5
93F
  8
DETAIL
  6
CONTINUOUS
 62
     5
 10
36.519432000000002
 20
-20.633922999999982
 30
0.0
 11
40.0
 21
-20.633922999999982
 31
0.0
  0
LINE
  5
940
  8
DETAIL
  6
CONTINUOUS
 62
     5
 10
35.0
 20
-20.163923
 30
0.0
 11
36.04943200000001
 21
-20.163923
 31
0.0
  0
LINE
  5
941
  8
DETAIL
  6
CONTINUOUS
 62
     5
 10
36.519432000000002
 20
-20.163923
 30
0.0
 11
40.0
 21
-20.163923
 31
0.0
  0
LINE
  5
942
  8
DETAIL
  6
CONTINUOUS
 62
     5
 10
36.04943200000001
 20
-21.699999999999989
 30
0.0
 11
36.04943200000001
 21
-18.093923
 31
0.0
  0
LINE
  5
943
  8
DETAIL
  6
CONTINUOUS
 62
     5
 10
36.519432000000002
 20
-21.699999999999989
 30
0.0
 11
36.519432000000002
 21
-18.093923
 31
0.0
  0
LINE
  5
944
  8
DETAIL
  6
CONTINUOUS
 62
     5
 10
38.589432000000002
 20
-21.699999999999989
 30
0.0
 11
38.589432000000002
 21
-20.633922999999982
 31
0.0
  0
LINE
  5
945
  8
DETAIL
  6
CONTINUOUS
 62
     5
 10
39.059432000000001
 20
-21.699999999999989
 30
0.0
 11
39.059432000000001
 21
-20.633922999999982
 31
0.0
  0
LINE
  5
946
  8
DETAIL
  6
CONTINUOUS
 62
     5
 10
42.5
 20
-15.553922999999999
 30
0.0
 11
43.549432000000003
 21
-15.553922999999999
 31
0.0
  0
LINE
  5
947
  8
DETAIL
  6
CONTINUOUS
 62
     5
 10
44.019432000000002
 20
-15.553922999999999
 30
0.0
 11
47.5
 21
-15.553922999999999
 31
0.0
  0
LINE
  5
948
  8
DETAIL
  6
CONTINUOUS
 62
     5
 10
42.5
 20
-15.083923
 30
0.0
 11
43.549432000000003
 21
-15.083923
 31
0.0
  0
LINE
  5
949
  8
DETAIL
  6
CONTINUOUS
 62
     5
 10
44.019432000000002
 20
-15.083923
 30
0.0
 11
47.5
 21
-15.083923
 31
0.0
  0
LINE
  5
94A
  8
DETAIL
  6
CONTINUOUS
 62
     5
 10
42.5
 20
-18.093923
 30
0.0
 11
46.089432000000002
 21
-18.093923
 31
0.0
  0
LINE
  5
94B
  8
DETAIL
  6
CONTINUOUS
 62
     5
 10
46.559432000000001
 20
-18.093923
 30
0.0
 11
47.5
 21
-18.093923
 31
0.0
  0
LINE
  5
94C
  8
DETAIL
  6
CONTINUOUS
 62
     5
 10
42.5
 20
-17.623923000000001
 30
0.0
 11
46.089432000000002
 21
-17.623923000000001
 31
0.0
  0
LINE
  5
94D
  8
DETAIL
  6
CONTINUOUS
 62
     5
 10
46.559432000000001
 20
-17.623923000000001
 30
0.0
 11
47.5
 21
-17.623923000000001
 31
0.0
  0
LINE
  5
94E
  8
DETAIL
  6
CONTINUOUS
 62
     5
 10
46.089432000000002
 20
-20.163923
 30
0.0
 11
46.089432000000002
 21
-15.553922999999999
 31
0.0
  0
LINE
  5
94F
  8
DETAIL
  6
CONTINUOUS
 62
     5
 10
46.559432000000001
 20
-20.163923
 30
0.0
 11
46.559432000000001
 21
-15.553922999999999
 31
0.0
  0
LINE
  5
950
  8
DETAIL
  6
CONTINUOUS
 62
     5
 10
42.5
 20
-20.633922999999982
 30
0.0
 11
43.549432000000003
 21
-20.633922999999982
 31
0.0
  0
LINE
  5
951
  8
DETAIL
  6
CONTINUOUS
 62
     5
 10
44.019432000000002
 20
-20.633922999999982
 30
0.0
 11
47.5
 21
-20.633922999999982
 31
0.0
  0
LINE
  5
952
  8
DETAIL
  6
CONTINUOUS
 62
     5
 10
42.5
 20
-20.163923
 30
0.0
 11
43.549432000000003
 21
-20.163923
 31
0.0
  0
LINE
  5
953
  8
DETAIL
  6
CONTINUOUS
 62
     5
 10
44.019432000000002
 20
-20.163923
 30
0.0
 11
47.5
 21
-20.163923
 31
0.0
  0
LINE
  5
954
  8
DETAIL
  6
CONTINUOUS
 62
     5
 10
43.549432000000003
 20
-21.699999999999989
 30
0.0
 11
43.549432000000003
 21
-18.093923
 31
0.0
  0
LINE
  5
955
  8
DETAIL
  6
CONTINUOUS
 62
     5
 10
44.019432000000002
 20
-21.699999999999989
 30
0.0
 11
44.019432000000002
 21
-18.093923
 31
0.0
  0
LINE
  5
956
  8
DETAIL
  6
CONTINUOUS
 62
     5
 10
46.089432000000002
 20
-21.699999999999989
 30
0.0
 11
46.089432000000002
 21
-20.633922999999982
 31
0.0
  0
LINE
  5
957
  8
DETAIL
  6
CONTINUOUS
 62
     5
 10
46.559432000000001
 20
-21.699999999999989
 30
0.0
 11
46.559432000000001
 21
-20.633922999999982
 31
0.0
  0
LINE
  5
958
  8
DETAIL
  6
CONTINUOUS
 62
     5
 10
50.0
 20
-15.553922999999999
 30
0.0
 11
51.04943200000001
 21
-15.553922999999999
 31
0.0
  0
LINE
  5
959
  8
DETAIL
  6
CONTINUOUS
 62
     5
 10
51.519432000000002
 20
-15.553922999999999
 30
0.0
 11
55.0
 21
-15.553922999999999
 31
0.0
  0
LINE
  5
95A
  8
DETAIL
  6
CONTINUOUS
 62
     5
 10
50.0
 20
-15.083923
 30
0.0
 11
51.04943200000001
 21
-15.083923
 31
0.0
  0
LINE
  5
95B
  8
DETAIL
  6
CONTINUOUS
 62
     5
 10
51.519432000000002
 20
-15.083923
 30
0.0
 11
55.0
 21
-15.083923
 31
0.0
  0
LINE
  5
95C
  8
DETAIL
  6
CONTINUOUS
 62
     5
 10
50.0
 20
-18.093923
 30
0.0
 11
53.589431999999981
 21
-18.093923
 31
0.0
  0
LINE
  5
95D
  8
DETAIL
  6
CONTINUOUS
 62
     5
 10
54.059431999999987
 20
-18.093923
 30
0.0
 11
55.0
 21
-18.093923
 31
0.0
  0
LINE
  5
95E
  8
DETAIL
  6
CONTINUOUS
 62
     5
 10
50.0
 20
-17.623923000000001
 30
0.0
 11
53.589431999999981
 21
-17.623923000000001
 31
0.0
  0
LINE
  5
95F
  8
DETAIL
  6
CONTINUOUS
 62
     5
 10
54.059431999999987
 20
-17.623923000000001
 30
0.0
 11
55.0
 21
-17.623923000000001
 31
0.0
  0
LINE
  5
960
  8
DETAIL
  6
CONTINUOUS
 62
     5
 10
53.589431999999981
 20
-20.163923
 30
0.0
 11
53.589431999999981
 21
-15.553922999999999
 31
0.0
  0
LINE
  5
961
  8
DETAIL
  6
CONTINUOUS
 62
     5
 10
54.059431999999987
 20
-20.163923
 30
0.0
 11
54.059431999999987
 21
-15.553922999999999
 31
0.0
  0
LINE
  5
962
  8
DETAIL
  6
CONTINUOUS
 62
     5
 10
50.0
 20
-20.633922999999982
 30
0.0
 11
51.04943200000001
 21
-20.633922999999982
 31
0.0
  0
LINE
  5
963
  8
DETAIL
  6
CONTINUOUS
 62
     5
 10
51.519432000000002
 20
-20.633922999999982
 30
0.0
 11
55.0
 21
-20.633922999999982
 31
0.0
  0
LINE
  5
964
  8
DETAIL
  6
CONTINUOUS
 62
     5
 10
50.0
 20
-20.163923
 30
0.0
 11
51.04943200000001
 21
-20.163923
 31
0.0
  0
LINE
  5
965
  8
DETAIL
  6
CONTINUOUS
 62
     5
 10
51.519432000000002
 20
-20.163923
 30
0.0
 11
55.0
 21
-20.163923
 31
0.0
  0
LINE
  5
966
  8
DETAIL
  6
CONTINUOUS
 62
     5
 10
51.04943200000001
 20
-21.699999999999989
 30
0.0
 11
51.04943200000001
 21
-18.093923
 31
0.0
  0
LINE
  5
967
  8
DETAIL
  6
CONTINUOUS
 62
     5
 10
51.519432000000002
 20
-21.699999999999989
 30
0.0
 11
51.519432000000002
 21
-18.093923
 31
0.0
  0
LINE
  5
968
  8
DETAIL
  6
CONTINUOUS
 62
     5
 10
53.589431999999981
 20
-21.699999999999989
 30
0.0
 11
53.589431999999981
 21
-20.633922999999982
 31
0.0
  0
LINE
  5
969
  8
DETAIL
  6
CONTINUOUS
 62
     5
 10
54.059431999999987
 20
-21.699999999999989
 30
0.0
 11
54.059431999999987
 21
-20.633922999999982
 31
0.0
  0
LINE
  5
96A
  8
OUTLINE
  6
CONTINUOUS
 62
     3
 10
100.0
 20
-15.0
 30
0.0
 11
-100.0
 21
-15.0
 31
0.0
  0
ARC
  5
96B
  8
OUTLINE
  6
CONTINUOUS
 62
     3
 10
0.0
 20
-6.7494550000000002
 30
0.0
 40
109.2505449999999
 50
194.06511
 51
345.93489
  0
LINE
  5
96C
  8
OUTLINE
  6
CONTINUOUS
 62
     3
 10
105.0
 20
0.0
 30
0.0
 11
-105.0
 21
0.0
 31
0.0
  0
LINE
  5
96D
  8
OUTLINE
  6
CONTINUOUS
 62
     3
 10
-101.8801389999999
 20
-14.633042
 30
0.0
 11
-101.8801389999999
 21
-32.29999999999999
 31
0.0
  0
ARC
  5
96E
  8
OUTLINE
  6
CONTINUOUS
 62
     3
 10
-100.0
 20
-10.0
 30
0.0
 40
5.0
 50
180.0
 51
270.0
  0
LINE
  5
96F
  8
OUTLINE
  6
CONTINUOUS
 62
     3
 10
-101.8801389999999
 20
-32.29999999999999
 30
0.0
 11
-101.380139
 21
-32.29999999999999
 31
0.0
  0
ARC
  5
970
  8
OUTLINE
  6
CONTINUOUS
 62
     3
 10
-101.380139
 20
-32.79999999999999
 30
0.0
 40
0.5
 50
270.0
 51
90.0
  0
LINE
  5
971
  8
OUTLINE
  6
CONTINUOUS
 62
     3
 10
-105.975233
 20
-33.299999999999997
 30
0.0
 11
-101.380139
 21
-33.299999999999997
 31
0.0
  0
LINE
  5
972
  8
OUTLINE
  6
CONTINUOUS
 62
     3
 10
-105.0
 20
-10.0
 30
0.0
 11
-105.0
 21
0.0
 31
0.0
  0
LINE
  5
973
  8
OUTLINE
  6
CONTINUOUS
 62
     3
 10
102.119861
 20
-14.528376
 30
0.0
 11
102.119861
 21
-32.29999999999999
 31
0.0
  0
ARC
  5
974
  8
OUTLINE
  6
CONTINUOUS
 62
     3
 10
100.0
 20
-10.0
 30
0.0
 40
5.0
 50
270.0
 51
0.0
  0
LINE
  5
975
  8
OUTLINE
  6
CONTINUOUS
 62
     3
 10
105.975233
 20
-33.299999999999997
 30
0.0
 11
101.619861
 21
-33.299999999999997
 31
0.0
  0
LINE
  5
976
  8
OUTLINE
  6
CONTINUOUS
 62
     3
 10
102.119861
 20
-32.29999999999999
 30
0.0
 11
101.619861
 21
-32.29999999999999
 31
0.0
  0
ARC
  5
977
  8
OUTLINE
  6
CONTINUOUS
 62
     3
 10
101.619861
 20
-32.79999999999999
 30
0.0
 40
0.5
 50
90.0
 51
270.0
  0
LINE
  5
978
  8
OUTLINE
  6
CONTINUOUS
 62
     3
 10
105.0
 20
0.0
 30
0.0
 11
105.0
 21
-10.0
 31
0.0
  0
LINE
  5
979
  8
SIZE
  6
CONTINUOUS
 62
    30
 10
-125.0
 20
0.0
 30
0.0
 11
-225.11712299999999
 21
0.0
 31
0.0
  0
LINE
  5
97A
  8
SIZE
  6
CONTINUOUS
 62
    30
 10
-120.0
 20
-15.0
 30
0.0
 11
-225.11712299999999
 21
-15.0
 31
0.0
  0
LINE
  5
97B
  8
SIZE
  6
CONTINUOUS
 62
    30
 10
-205.11712299999999
 20
12.0
 30
0.0
 11
-205.11712299999999
 21
24.0
 31
0.0
  0
LINE
  5
97C
  8
SIZE
  6
CONTINUOUS
 62
    30
 10
-205.11712299999999
 20
-27.0
 30
0.0
 11
-205.11712299999999
 21
-39.0
 31
0.0
  0
LINE
  5
97D
  8
SIZE
  6
CONTINUOUS
 62
    30
 10
-205.11712299999999
 20
-178.0901069999999
 30
0.0
 11
-205.11712299999999
 21
-15.0
 31
0.0
  0
TEXT
  5
97E
  8
SIZE
  6
CONTINUOUS
 62
    30
 10
-230.11712299999999
 20
-153.090106142857
 30
0.0
 40
64.0
  1
15
 50
90.0
 41
0.9
 72
     1
 11
-230.11712299999999
 21
-111.9472489999999
 31
0.0
  0
LINE
  5
97F
  8
SIZE
  6
CONTINUOUS
 62
    30
 10
-205.11712299999999
 20
0.0
 30
0.0
 11
-205.11712299999999
 21
-15.0
 31
0.0
  0
LINE
  5
980
  8
SIZE
  6
CONTINUOUS
 62
    30
 10
-205.11712299999999
 20
0.0
 30
0.0
 11
-205.11712299999999
 21
-15.0
 31
0.0
  0
CIRCLE
  5
981
  8
SIZE
  6
CONTINUOUS
 62
    30
 10
-205.11712299999999
 20
0.0
 30
0.0
 40
6.0
  0
LINE
  5
982
  8
SIZE
  6
CONTINUOUS
 62
    30
 10
-205.11712299999999
 20
0.0
 30
0.0
 11
-205.11712299999999
 21
12.0
 31
0.0
  0
CIRCLE
  5
983
  8
SIZE
  6
CONTINUOUS
 62
    30
 10
-205.11712299999999
 20
-15.0
 30
0.0
 40
6.0
  0
LINE
  5
984
  8
SIZE
  6
CONTINUOUS
 62
    30
 10
-205.11712299999999
 20
-15.0
 30
0.0
 11
-205.11712299999999
 21
-27.0
 31
0.0
  0
TEXT
  5
985
  8
ETC
  6
CONTINUOUS
 62
    61
 10
468.84802423791638
 20
450.63627032474022
 30
0.0
 40
40.0
  1
P-50VSQ5_6
 41
0.9
  0
TEXT
  5
986
  8
ETC
  6
CONTINUOUS
 62
    61
 10
459.23393323791652
 20
374.43119032474021
 30
0.0
 40
40.0
  1
システム部材
 41
0.9
  0
TEXT
  5
987
  8
ETC
  6
CONTINUOUS
 62
    61
 10
565.65838488985264
 20
310.94455756815063
 30
0.0
 40
40.0
  1
P-50VSQ5
 41
0.9
  0
ENDSEC
  0
EOF
