  0
SECTION
  2
HEADER
  9
$ACADVER
  1
AC1009
  9
$INSBASE
 10
0.0
 20
0.0
 30
0.0
  9
$EXTMIN
 10
-288.18465499999991
 20
-337.22482400000001
 30
0.0
  9
$EXTMAX
 10
770.50300791674772
 20
259.48289828152349
 30
50.0
  9
$LIMMIN
 10
-2970.0
 20
-2100.0
  9
$LIMMAX
 10
2970.0
 20
2100.0
  9
$ORTHOMODE
 70
     0
  9
$REGENMODE
 70
     0
  9
$FILLMODE
 70
     1
  9
$QTEXTMODE
 70
     0
  9
$MIRRTEXT
 70
     0
  9
$DRAGMODE
 70
     2
  9
$LTSCALE
 40
20.0
  9
$OSMODE
 70
   167
  9
$ATTMODE
 70
     1
  9
$TEXTSIZE
 40
64.0
  9
$TRACEWID
 40
0.05
  9
$TEXTSTYLE
  7
STANDARD
  9
$CLAYER
  8
SIZE
  9
$CELTYPE
  6
CONTINUOUS
  9
$CECOLOR
 62
    30
  9
$DIMSCALE
 40
1.0
  9
$DIMASZ
 40
12.0
  9
$DIMEXO
 40
20.0
  9
$DIMDLI
 40
200.0
  9
$DIMRND
 40
0.0
  9
$DIMDLE
 40
0.0
  9
$DIMEXE
 40
20.0
  9
$DIMTP
 40
0.0
  9
$DIMTM
 40
0.0
  9
$DIMTXT
 40
64.0
  9
$DIMCEN
 40
0.09
  9
$DIMTSZ
 40
0.0
  9
$DIMTOL
 70
     0
  9
$DIMLIM
 70
     0
  9
$DIMTIH
 70
     0
  9
$DIMTOH
 70
     0
  9
$DIMSE1
 70
     0
  9
$DIMSE2
 70
     0
  9
$DIMTAD
 70
     1
  9
$DIMZIN
 70
     8
  9
$DIMBLK
  1
DOT1
  9
$DIMASO
 70
     1
  9
$DIMSHO
 70
     0
  9
$DIMPOST
  1

  9
$DIMAPOST
  1

  9
$DIMALT
 70
     0
  9
$DIMALTD
 70
     2
  9
$DIMALTF
 40
25.399999999999999
  9
$DIMLFAC
 40
1.0
  9
$DIMTOFL
 70
     1
  9
$DIMTVP
 40
0.0
  9
$DIMTIX
 70
     1
  9
$DIMSOXD
 70
     0
  9
$DIMSAH
 70
     1
  9
$DIMBLK1
  1
ORIGIN
  9
$DIMBLK2
  1
ORIGIN
  9
$DIMSTYLE
  2
STANDARD
  9
$DIMCLRD
 70
     7
  9
$DIMCLRE
 70
     7
  9
$DIMCLRT
 70
     7
  9
$DIMTFAC
 40
1.0
  9
$DIMGAP
 40
25.0
  9
$LUNITS
 70
     2
  9
$LUPREC
 70
     4
  9
$SKETCHINC
 40
0.1
  9
$FILLETRAD
 40
4.0
  9
$AUNITS
 70
     1
  9
$AUPREC
 70
     3
  9
$MENU
  1
ACAD
  9
$ELEVATION
 40
0.0
  9
$PELEVATION
 40
0.0
  9
$THICKNESS
 40
50.0
  9
$LIMCHECK
 70
     0
  9
$BLIPMODE
 70
     0
  9
$CHAMFERA
 40
0.0
  9
$CHAMFERB
 40
0.0
  9
$SKPOLY
 70
     0
  9
$TDCREATE
 40
2453151.42464309
  9
$TDUPDATE
 40
2454576.5893690279
  9
$TDINDWG
 40
0.0687979398
  9
$TDUSRTIMER
 40
0.0687977662
  9
$USRTIMER
 70
     1
  9
$ANGBASE
 50
0.0
  9
$ANGDIR
 70
     0
  9
$PDMODE
 70
     3
  9
$PDSIZE
 40
-2.0
  9
$PLINEWID
 40
0.0
  9
$COORDS
 70
     2
  9
$SPLFRAME
 70
     0
  9
$SPLINETYPE
 70
     6
  9
$SPLINESEGS
 70
     8
  9
$ATTDIA
 70
     0
  9
$ATTREQ
 70
     1
  9
$HANDLING
 70
 22529
  9
$HANDSEED
  5
226
  9
$SURFTAB1
 70
     6
  9
$SURFTAB2
 70
     6
  9
$SURFTYPE
 70
     6
  9
$SURFU
 70
     6
  9
$SURFV
 70
     6
  9
$UCSNAME
  2

  9
$UCSORG
 10
0.0
 20
0.0
 30
0.0
  9
$UCSXDIR
 10
1.0
 20
0.0
 30
0.0
  9
$UCSYDIR
 10
0.0
 20
1.0
 30
0.0
  9
$PUCSNAME
  2

  9
$PUCSORG
 10
0.0
 20
0.0
 30
0.0
  9
$PUCSXDIR
 10
1.0
 20
0.0
 30
0.0
  9
$PUCSYDIR
 10
0.0
 20
1.0
 30
0.0
  9
$USERI1
 70
     0
  9
$USERI2
 70
     0
  9
$USERI3
 70
     0
  9
$USERI4
 70
     0
  9
$USERI5
 70
     0
  9
$USERR1
 40
20.0
  9
$USERR2
 40
0.0
  9
$USERR3
 40
0.0
  9
$USERR4
 40
0.0
  9
$USERR5
 40
0.0
  9
$WORLDVIEW
 70
     1
  9
$SHADEDGE
 70
     3
  9
$SHADEDIF
 70
    70
  9
$TILEMODE
 70
     1
  9
$MAXACTVP
 70
    48
  9
$PLIMCHECK
 70
     0
  9
$PEXTMIN
 10
-1.0000000000000000E+020
 20
-1.0000000000000000E+020
 30
-1.0000000000000000E+020
  9
$PEXTMAX
 10
1.0000000000000000E+020
 20
1.0000000000000000E+020
 30
1.0000000000000000E+020
  9
$PLIMMIN
 10
0.0
 20
0.0
  9
$PLIMMAX
 10
12.0
 20
9.0
  9
$UNITMODE
 70
     0
  9
$VISRETAIN
 70
     0
  9
$PLINEGEN
 70
     0
  9
$PSLTSCALE
 70
     0
  0
ENDSEC
  0
SECTION
  2
TABLES
  0
TABLE
  2
VPORT
 70
     3
  0
VPORT
  2
*ACTIVE
 70
     0
 10
0.0
 20
0.0
 11
1.0
 21
1.0
 12
216.2643700915828
 22
-42.1635795820116
 13
0.0
 23
0.0
 14
1.0
 24
1.0
 15
0.0
 25
0.0
 16
0.0
 26
0.0
 36
1.0
 17
0.0
 27
0.0
 37
0.0
 40
939.04288427768824
 41
1.670382165605095
 42
50.0
 43
0.0
 44
0.0
 50
0.0
 51
0.0
 71
     0
 72
  1000
 73
     1
 74
     0
 75
     0
 76
     0
 77
     0
 78
     0
  0
ENDTAB
  0
TABLE
  2
LTYPE
 70
     3
  0
LTYPE
  2
CONTINUOUS
 70
     0
  3
実線
 72
    65
 73
     0
 40
0.0
  0
LTYPE
  2
DASHDOT
 70
     0
  3
____ _ ____ _ ____ _ ____ _ ____ _ ____ _ ____
 72
    65
 73
     4
 40
5.5
 49
4.0
 49
-0.6
 49
0.3
 49
-0.6
  0
LTYPE
  2
DASHED
 70
     0
  3
-- -- -- -- -- -- -- -- -- -- -- -- -- -- --
 72
    65
 73
     2
 40
0.75
 49
0.5
 49
-0.25
  0
ENDTAB
  0
TABLE
  2
LAYER
 70
    12
  0
LAYER
  2
0
 70
     0
 62
     7
  6
CONTINUOUS
  0
LAYER
  2
SIZE
 70
     0
 62
    30
  6
CONTINUOUS
  0
LAYER
  2
BASIS
 70
     0
 62
     6
  6
DASHDOT
  0
LAYER
  2
OUTLINE
 70
     0
 62
     3
  6
CONTINUOUS
  0
LAYER
  2
DETAIL
 70
     0
 62
     5
  6
CONTINUOUS
  0
LAYER
  2
ARRANGE
 70
     0
 62
     1
  6
CONTINUOUS
  0
LAYER
  2
DEFPOINTS
 70
     0
 62
     7
  6
CONTINUOUS
  0
LAYER
  2
ETC
 70
     0
 62
    61
  6
CONTINUOUS
  0
LAYER
  2
FIX
 70
     0
 62
    11
  6
CONTINUOUS
  0
LAYER
  2
NOTE
 70
     0
 62
     4
  6
CONTINUOUS
  0
LAYER
  2
SERVICESPACE
 70
     0
 62
     2
  6
DASHDOT
  0
LAYER
  2
SYMBOLLINE
 70
     0
 62
    15
  6
CONTINUOUS
  0
ENDTAB
  0
TABLE
  2
STYLE
 70
     1
  0
STYLE
  2
STANDARD
 70
     0
 40
64.0
 41
0.9
 50
0.0
 71
     0
 42
64.0
  3
SIMPLEX.shx
  4
BIGFONT.shx
  0
ENDTAB
  0
TABLE
  2
VIEW
 70
     1
  0
VIEW
  2
ALL
 70
     0
 40
4282.6198079999976
 10
0.0
 20
41.309903999999989
 41
5940.0
 11
0.0
 21
0.0
 31
1.0
 12
0.0
 22
0.0
 32
0.0
 42
50.0
 43
0.0
 44
0.0
 50
0.0
 71
     0
  0
ENDTAB
  0
TABLE
  2
UCS
 70
     0
  0
ENDTAB
  0
TABLE
  2
APPID
 70
     2
  0
APPID
  2
ACAD
 70
     0
  0
APPID
  2
AUTOCAD_POSTSCRIPT_FIGURE
 70
     0
  0
ENDTAB
  0
TABLE
  2
DIMSTYLE
 70
     1
  0
DIMSTYLE
  2
STANDARD
 70
     0
  3

  4

  5

  6

  7

 40
1.0
 41
0.18
 42
0.0625
 43
0.38
 44
0.18
 45
0.0
 46
0.0
 47
0.0
 48
0.0
140
0.18
141
0.09
142
0.0
143
25.399999999999999
144
1.0
145
0.0
146
1.0
147
0.09
 71
     0
 72
     0
 73
     1
 74
     1
 75
     0
 76
     0
 77
     0
 78
     0
170
     0
171
     2
172
     0
173
     0
174
     0
175
     0
176
     7
177
     7
178
     7
  0
ENDTAB
  0
ENDSEC
  0
SECTION
  2
BLOCKS
  0
BLOCK
  8
0
  2
$MODEL_SPACE
 70
     0
 10
0.0
 20
0.0
 30
0.0
  3
$MODEL_SPACE
  1

  0
ENDBLK
  5
11E
  8
0
  0
BLOCK
 67
     1
  8
0
  2
$PAPER_SPACE
 70
     0
 10
0.0
 20
0.0
 30
0.0
  3
$PAPER_SPACE
  1

  0
ENDBLK
  5
11A
 67
     1
  8
0
  0
BLOCK
  8
0
  2
DOT1
 70
     0
 10
0.0
 20
0.0
 30
0.0
  3
DOT1
  1

  0
CIRCLE
  5
13B
  8
SIZE
  6
CONTINUOUS
 62
     7
 10
0.0
 20
0.0
 30
0.0
 40
3.0
  0
ENDBLK
  5
13C
  8
0
  0
BLOCK
  8
0
  2
_ORIGIN
 70
     0
 10
0.0
 20
0.0
 30
0.0
  3
_ORIGIN
  1

  0
CIRCLE
  5
13F
  8
0
  6
CONTINUOUS
 62
     7
 10
0.0
 20
0.0
 30
0.0
 40
0.5
  0
LINE
  5
140
  8
0
  6
CONTINUOUS
 62
     7
 10
0.0
 20
0.0
 30
0.0
 11
-1.0
 21
0.0
 31
0.0
  0
ENDBLK
  5
141
  8
0
  0
ENDSEC
  0
SECTION
  2
ENTITIES
  0
LINE
  5
142
  8
BASIS
  6
DASHDOT
 62
     6
 39
50.0
 10
0.0
 20
-167.0779409999999
 30
0.0
 11
0.0
 21
153.45478199999999
 31
0.0
  0
LINE
  5
143
  8
BASIS
  6
DASHDOT
 62
     6
 39
50.0
 10
-143.85668799999991
 20
0.0
 30
0.0
 11
142.32852199999991
 21
0.0
 31
0.0
  0
LINE
  5
144
  8
DETAIL
  6
CONTINUOUS
 62
     5
 10
104.4999999999999
 20
86.224070999999981
 30
0.0
 11
104.4999999999999
 21
-101.000281
 31
0.0
  0
LINE
  5
145
  8
DETAIL
  6
CONTINUOUS
 62
     5
 10
-104.4999999999999
 20
86.224390999999983
 30
0.0
 11
-104.4999999999999
 21
-101.000281
 31
0.0
  0
LINE
  5
146
  8
SIZE
  6
CONTINUOUS
 62
    30
 10
105.0
 20
-133.9209899999999
 30
0.0
 11
105.0
 21
-337.22482400000001
 31
0.0
  0
LINE
  5
147
  8
SIZE
  6
CONTINUOUS
 62
    30
 10
-105.0
 20
-133.9209899999999
 30
0.0
 11
-105.0
 21
-337.22482400000001
 31
0.0
  0
LINE
  5
148
  8
SIZE
  6
CONTINUOUS
 62
    30
 10
93.0
 20
-317.22482400000001
 30
0.0
 11
-93.0
 21
-317.22482400000001
 31
0.0
  0
CIRCLE
  5
149
  8
SIZE
  6
CONTINUOUS
 62
    30
 10
105.0
 20
-317.22482400000001
 30
0.0
 40
6.0
  0
LINE
  5
14A
  8
SIZE
  6
CONTINUOUS
 62
    30
 10
105.0
 20
-317.22482400000001
 30
0.0
 11
93.0
 21
-317.22482400000001
 31
0.0
  0
CIRCLE
  5
14B
  8
SIZE
  6
CONTINUOUS
 62
    30
 10
-105.0
 20
-317.22482400000001
 30
0.0
 40
6.0
  0
LINE
  5
14C
  8
SIZE
  6
CONTINUOUS
 62
    30
 10
-105.0
 20
-317.22482400000001
 30
0.0
 11
-93.0
 21
-317.22482400000001
 31
0.0
  0
TEXT
  5
14D
  8
SIZE
  6
CONTINUOUS
 62
    30
 10
-68.571428571428555
 20
-292.22482400000001
 30
0.0
 40
64.0
  1
210
 41
0.9
 72
     1
 11
0.0
 21
-292.22482400000001
 31
0.0
  0
LINE
  5
14E
  8
DETAIL
  6
CONTINUOUS
 62
     5
 10
100.0
 20
-118.9209899999999
 30
0.0
 11
-100.0
 21
-118.9209899999999
 31
0.0
  0
LINE
  5
14F
  8
DETAIL
  6
CONTINUOUS
 62
     5
 10
100.0
 20
-120.0
 30
0.0
 11
-100.0
 21
-120.0
 31
0.0
  0
LINE
  5
150
  8
DETAIL
  6
CONTINUOUS
 62
     5
 10
-103.415272
 20
-104.363288
 30
0.0
 11
103.50346500000001
 21
-104.363288
 31
0.0
  0
LINE
  5
151
  8
DETAIL
  6
CONTINUOUS
 62
     5
 10
-104.4999999999999
 20
-101.000281
 30
0.0
 11
104.4999999999999
 21
-101.000281
 31
0.0
  0
LINE
  5
152
  8
DETAIL
  6
CONTINUOUS
 62
     5
 10
-105.0
 20
-103.4999999999999
 30
0.0
 11
-105.0
 21
-115.0
 31
0.0
  0
ARC
  5
153
  8
DETAIL
  6
CONTINUOUS
 62
     5
 10
-100.0
 20
-115.0
 30
0.0
 40
5.0
 50
180.0
 51
270.0
  0
ARC
  5
154
  8
DETAIL
  6
CONTINUOUS
 62
     5
 10
-100.0
 20
-113.9209899999999
 30
0.0
 40
5.0
 50
180.0
 51
270.0
  0
LINE
  5
155
  8
DETAIL
  6
CONTINUOUS
 62
     5
 10
-103.4999999999999
 20
-102.0
 30
0.0
 11
-102.4999999999999
 21
-102.0
 31
0.0
  0
LINE
  5
156
  8
DETAIL
  6
DASHED
 62
     5
 10
-104.4999999999999
 20
-100.0
 30
0.0
 11
-102.4999999999999
 21
-100.0
 31
0.0
  0
ARC
  5
157
  8
DETAIL
  6
CONTINUOUS
 62
     5
 10
-102.4999999999999
 20
-101.0
 30
0.0
 40
1.0
 50
270.0
 51
359.98392799999982
  0
ARC
  5
158
  8
DETAIL
  6
CONTINUOUS
 62
     5
 10
-103.4999999999999
 20
-103.4999999999999
 30
0.0
 40
1.5
 50
90.0
 51
180.0
  0
ARC
  5
159
  8
DETAIL
  6
DASHED
 62
     5
 10
-102.4999999999999
 20
-101.0
 30
0.0
 40
1.0
 50
359.98392799999982
 51
90.0
  0
ARC
  5
15A
  8
DETAIL
  6
CONTINUOUS
 62
     5
 10
100.0
 20
-113.9209899999999
 30
0.0
 40
5.0
 50
270.0
 51
0.0
  0
ARC
  5
15B
  8
DETAIL
  6
CONTINUOUS
 62
     5
 10
100.0
 20
-115.0
 30
0.0
 40
5.0
 50
270.0
 51
0.0
  0
LINE
  5
15C
  8
DETAIL
  6
CONTINUOUS
 62
     5
 10
105.0
 20
-103.4999999999999
 30
0.0
 11
105.0
 21
-115.0
 31
0.0
  0
LINE
  5
15D
  8
DETAIL
  6
CONTINUOUS
 62
     5
 10
102.4999999999999
 20
-102.0
 30
0.0
 11
103.4999999999999
 21
-102.0
 31
0.0
  0
LINE
  5
15E
  8
DETAIL
  6
DASHED
 62
     5
 10
102.4999999999999
 20
-100.0
 30
0.0
 11
104.4999999999999
 21
-100.0
 31
0.0
  0
ARC
  5
15F
  8
DETAIL
  6
DASHED
 62
     5
 10
102.4999999999999
 20
-101.0
 30
0.0
 40
1.0
 50
90.0
 51
180.01607200000001
  0
ARC
  5
160
  8
DETAIL
  6
CONTINUOUS
 62
     5
 10
103.4999999999999
 20
-103.4999999999999
 30
0.0
 40
1.5
 50
0.0
 51
90.0
  0
ARC
  5
161
  8
DETAIL
  6
CONTINUOUS
 62
     5
 10
102.4999999999999
 20
-101.0
 30
0.0
 40
1.0
 50
180.01607200000001
 51
270.0
  0
LINE
  5
162
  8
DETAIL
  6
CONTINUOUS
 62
     5
 10
-101.5
 20
103.0
 30
0.0
 11
101.5
 21
103.0
 31
0.0
  0
LINE
  5
163
  8
DETAIL
  6
CONTINUOUS
 62
     5
 10
-101.5
 20
104.0
 30
0.0
 11
101.5
 21
104.0
 31
0.0
  0
ARC
  5
164
  8
DETAIL
  6
CONTINUOUS
 62
     5
 10
0.000239
 20
242.29508799999999
 30
0.0
 40
187.848872
 50
235.647368
 51
304.35245600000002
  0
ARC
  5
165
  8
DETAIL
  6
CONTINUOUS
 62
     5
 10
0.000285
 20
255.69990699999991
 30
0.0
 40
186.7001869999998
 50
235.538433
 51
304.46145000000001
  0
LINE
  5
166
  8
DETAIL
  6
CONTINUOUS
 62
     5
 10
105.0
 20
102.0
 30
0.0
 11
-105.0
 21
102.0
 31
0.0
  0
LINE
  5
167
  8
DETAIL
  6
CONTINUOUS
 62
     5
 10
-101.5
 20
104.0
 30
0.0
 11
-101.5
 21
102.0
 31
0.0
  0
ARC
  5
168
  8
DETAIL
  6
CONTINUOUS
 62
     5
 10
-105.0
 20
101.0
 30
0.0
 40
1.0
 50
90.0
 51
180.0
  0
LINE
  5
169
  8
DETAIL
  6
CONTINUOUS
 62
     5
 10
-106.0
 20
101.0
 30
0.0
 11
-106.0
 21
87.210762000000003
 31
0.0
  0
LINE
  5
16A
  8
DETAIL
  6
CONTINUOUS
 62
     5
 10
101.5
 20
104.0
 30
0.0
 11
101.5
 21
102.0
 31
0.0
  0
ARC
  5
16B
  8
DETAIL
  6
CONTINUOUS
 62
     5
 10
105.0
 20
101.0
 30
0.0
 40
1.0
 50
0.0
 51
90.0
  0
LINE
  5
16C
  8
DETAIL
  6
CONTINUOUS
 62
     5
 10
106.0
 20
101.0
 30
0.0
 11
106.0
 21
87.210435999999987
 31
0.0
  0
LINE
  5
16D
  8
SIZE
  6
CONTINUOUS
 62
    30
 10
-124.5
 20
-101.000281
 30
0.0
 11
-219.18465499999999
 21
-101.000281
 31
0.0
  0
LINE
  5
16E
  8
SIZE
  6
CONTINUOUS
 62
    30
 10
-20.0
 20
68.999718999999999
 30
0.0
 11
-219.18465499999999
 21
68.999718999999999
 31
0.0
  0
LINE
  5
16F
  8
SIZE
  6
CONTINUOUS
 62
    30
 10
-199.18465499999991
 20
-113.000281
 30
0.0
 11
-199.18465499999991
 21
-125.000281
 31
0.0
  0
LINE
  5
170
  8
SIZE
  6
CONTINUOUS
 62
    30
 10
-199.18465499999991
 20
80.999718999999985
 30
0.0
 11
-199.18465499999991
 21
92.999718999999999
 31
0.0
  0
LINE
  5
171
  8
SIZE
  6
CONTINUOUS
 62
    30
 10
-199.18465499999991
 20
-101.000281
 30
0.0
 11
-199.18465499999991
 21
68.999718999999999
 31
0.0
  0
CIRCLE
  5
172
  8
SIZE
  6
CONTINUOUS
 62
    30
 10
-199.18465499999991
 20
-101.000281
 30
0.0
 40
6.0
  0
LINE
  5
173
  8
SIZE
  6
CONTINUOUS
 62
    30
 10
-199.18465499999991
 20
-101.000281
 30
0.0
 11
-199.18465499999991
 21
-113.000281
 31
0.0
  0
CIRCLE
  5
174
  8
SIZE
  6
CONTINUOUS
 62
    30
 10
-199.18465499999991
 20
68.999718999999999
 30
0.0
 40
6.0
  0
LINE
  5
175
  8
SIZE
  6
CONTINUOUS
 62
    30
 10
-199.18465499999991
 20
68.999718999999999
 30
0.0
 11
-199.18465499999991
 21
80.999718999999985
 31
0.0
  0
TEXT
  5
176
  8
SIZE
  6
CONTINUOUS
 62
    30
 10
-224.18465499999991
 20
-84.57170957142857
 30
0.0
 40
64.0
  1
170
 50
90.0
 41
0.9
 72
     1
 11
-224.18465499999991
 21
-16.000281000000001
 31
0.0
  0
LINE
  5
177
  8
SIZE
  6
CONTINUOUS
 62
    30
 10
124.5
 20
-100.0
 30
0.0
 11
304.36033700000002
 21
-100.0
 31
0.0
  0
LINE
  5
178
  8
SIZE
  6
CONTINUOUS
 62
    30
 10
121.5
 20
104.0
 30
0.0
 11
304.36033700000002
 21
104.0
 31
0.0
  0
LINE
  5
179
  8
SIZE
  6
CONTINUOUS
 62
    30
 10
284.36033700000002
 20
-88.0
 30
0.0
 11
284.36033700000002
 21
92.0
 31
0.0
  0
CIRCLE
  5
17A
  8
SIZE
  6
CONTINUOUS
 62
    30
 10
284.36033700000002
 20
-100.0
 30
0.0
 40
6.0
  0
LINE
  5
17B
  8
SIZE
  6
CONTINUOUS
 62
    30
 10
284.36033700000002
 20
-100.0
 30
0.0
 11
284.36033700000002
 21
-88.0
 31
0.0
  0
CIRCLE
  5
17C
  8
SIZE
  6
CONTINUOUS
 62
    30
 10
284.36033700000002
 20
104.0
 30
0.0
 40
6.0
  0
LINE
  5
17D
  8
SIZE
  6
CONTINUOUS
 62
    30
 10
284.36033700000002
 20
104.0
 30
0.0
 11
284.36033700000002
 21
92.0
 31
0.0
  0
TEXT
  5
17E
  8
SIZE
  6
CONTINUOUS
 62
    30
 10
259.36033700000002
 20
-73.428571428571416
 30
0.0
 40
64.0
  1
204
 50
90.0
 41
0.9
 72
     1
 11
259.36033700000002
 21
2.0
 31
0.0
  0
LINE
  5
17F
  8
SIZE
  6
CONTINUOUS
 62
    30
 10
124.5
 20
-100.0
 30
0.0
 11
304.36033700000002
 21
-100.0
 31
0.0
  0
LINE
  5
180
  8
SIZE
  6
CONTINUOUS
 62
    30
 10
120.0
 20
-120.0
 30
0.0
 11
304.36033700000002
 21
-120.0
 31
0.0
  0
LINE
  5
181
  8
SIZE
  6
CONTINUOUS
 62
    30
 10
284.36033700000002
 20
-88.0
 30
0.0
 11
284.36033700000002
 21
-76.0
 31
0.0
  0
LINE
  5
182
  8
SIZE
  6
CONTINUOUS
 62
    30
 10
284.36033700000002
 20
-132.0
 30
0.0
 11
284.36033700000002
 21
-144.0
 31
0.0
  0
LINE
  5
183
  8
SIZE
  6
CONTINUOUS
 62
    30
 10
284.36033700000002
 20
-291.46342799999991
 30
0.0
 11
284.36033700000002
 21
-120.0
 31
0.0
  0
TEXT
  5
184
  8
SIZE
  6
CONTINUOUS
 62
    30
 10
259.36033700000002
 20
-266.46342742857132
 30
0.0
 40
64.0
  1
20
 50
90.0
 41
0.9
 72
     1
 11
259.36033700000002
 21
-219.83485599999989
 31
0.0
  0
LINE
  5
185
  8
SIZE
  6
CONTINUOUS
 62
    30
 10
284.36033700000002
 20
-100.0
 30
0.0
 11
284.36033700000002
 21
-120.0
 31
0.0
  0
LINE
  5
186
  8
SIZE
  6
CONTINUOUS
 62
    30
 10
284.36033700000002
 20
-100.0
 30
0.0
 11
284.36033700000002
 21
-120.0
 31
0.0
  0
CIRCLE
  5
187
  8
SIZE
  6
CONTINUOUS
 62
    30
 10
284.36033700000002
 20
-100.0
 30
0.0
 40
6.0
  0
LINE
  5
188
  8
SIZE
  6
CONTINUOUS
 62
    30
 10
284.36033700000002
 20
-100.0
 30
0.0
 11
284.36033700000002
 21
-88.0
 31
0.0
  0
CIRCLE
  5
189
  8
SIZE
  6
CONTINUOUS
 62
    30
 10
284.36033700000002
 20
-120.0
 30
0.0
 40
6.0
  0
LINE
  5
18A
  8
SIZE
  6
CONTINUOUS
 62
    30
 10
284.36033700000002
 20
-120.0
 30
0.0
 11
284.36033700000002
 21
-132.0
 31
0.0
  0
CIRCLE
  5
18B
  8
ARRANGE
  6
CONTINUOUS
 62
     1
 39
50.0
 10
0.0
 20
0.0
 30
0.0
 40
40.0
  0
POINT
  5
18C
  8
ARRANGE
  6
CONTINUOUS
 62
     1
 10
0.0
 20
0.0
 30
0.0
 39
50.0
  0
LINE
  5
18D
  8
OUTLINE
  6
CONTINUOUS
 62
     3
 10
105.0
 20
102.0
 30
0.0
 11
-105.0
 21
102.0
 31
0.0
  0
ARC
  5
18E
  8
OUTLINE
  6
CONTINUOUS
 62
     3
 10
0.000285
 20
255.69990699999991
 30
0.0
 40
186.7001869999998
 50
235.538433
 51
304.46145000000001
  0
ARC
  5
18F
  8
OUTLINE
  6
CONTINUOUS
 62
     3
 10
0.000239
 20
242.29508799999999
 30
0.0
 40
187.848872
 50
235.647368
 51
304.35245600000002
  0
LINE
  5
190
  8
OUTLINE
  6
CONTINUOUS
 62
     3
 10
-101.5
 20
104.0
 30
0.0
 11
101.5
 21
104.0
 31
0.0
  0
LINE
  5
191
  8
OUTLINE
  6
CONTINUOUS
 62
     3
 10
-104.4999999999999
 20
-101.000281
 30
0.0
 11
104.4999999999999
 21
-101.000281
 31
0.0
  0
LINE
  5
192
  8
OUTLINE
  6
CONTINUOUS
 62
     3
 10
100.0
 20
-120.0
 30
0.0
 11
-100.0
 21
-120.0
 31
0.0
  0
LINE
  5
193
  8
OUTLINE
  6
CONTINUOUS
 62
     3
 10
-104.4999999999999
 20
86.224390999999983
 30
0.0
 11
-104.4999999999999
 21
-101.000281
 31
0.0
  0
LINE
  5
194
  8
OUTLINE
  6
DASHED
 62
     3
 10
-104.4999999999999
 20
-100.0
 30
0.0
 11
-102.4999999999999
 21
-100.0
 31
0.0
  0
ARC
  5
195
  8
OUTLINE
  6
DASHED
 62
     3
 10
-102.4999999999999
 20
-101.0
 30
0.0
 40
1.0
 50
359.98392799999982
 51
90.0
  0
ARC
  5
196
  8
OUTLINE
  6
CONTINUOUS
 62
     3
 10
-103.4999999999999
 20
-103.4999999999999
 30
0.0
 40
1.5
 50
90.0
 51
180.0
  0
ARC
  5
197
  8
OUTLINE
  6
CONTINUOUS
 62
     3
 10
-102.4999999999999
 20
-101.0
 30
0.0
 40
1.0
 50
270.0
 51
359.98392799999982
  0
LINE
  5
198
  8
OUTLINE
  6
CONTINUOUS
 62
     3
 10
-103.4999999999999
 20
-102.0
 30
0.0
 11
-102.4999999999999
 21
-102.0
 31
0.0
  0
ARC
  5
199
  8
OUTLINE
  6
CONTINUOUS
 62
     3
 10
-100.0
 20
-115.0
 30
0.0
 40
5.0
 50
180.0
 51
270.0
  0
LINE
  5
19A
  8
OUTLINE
  6
CONTINUOUS
 62
     3
 10
-105.0
 20
-103.4999999999999
 30
0.0
 11
-105.0
 21
-115.0
 31
0.0
  0
LINE
  5
19B
  8
OUTLINE
  6
CONTINUOUS
 62
     3
 10
-106.0
 20
101.0
 30
0.0
 11
-106.0
 21
87.210762000000003
 31
0.0
  0
ARC
  5
19C
  8
OUTLINE
  6
CONTINUOUS
 62
     3
 10
-105.0
 20
101.0
 30
0.0
 40
1.0
 50
90.0
 51
180.0
  0
LINE
  5
19D
  8
OUTLINE
  6
CONTINUOUS
 62
     3
 10
-101.5
 20
104.0
 30
0.0
 11
-101.5
 21
102.0
 31
0.0
  0
LINE
  5
19E
  8
OUTLINE
  6
CONTINUOUS
 62
     3
 10
104.4999999999999
 20
86.224070999999981
 30
0.0
 11
104.4999999999999
 21
-101.000281
 31
0.0
  0
LINE
  5
19F
  8
OUTLINE
  6
DASHED
 62
     3
 10
102.4999999999999
 20
-100.0
 30
0.0
 11
104.4999999999999
 21
-100.0
 31
0.0
  0
ARC
  5
1A0
  8
OUTLINE
  6
CONTINUOUS
 62
     3
 10
102.4999999999999
 20
-101.0
 30
0.0
 40
1.0
 50
180.01607200000001
 51
270.0
  0
ARC
  5
1A1
  8
OUTLINE
  6
CONTINUOUS
 62
     3
 10
103.4999999999999
 20
-103.4999999999999
 30
0.0
 40
1.5
 50
0.0
 51
90.0
  0
ARC
  5
1A2
  8
OUTLINE
  6
DASHED
 62
     3
 10
102.4999999999999
 20
-101.0
 30
0.0
 40
1.0
 50
90.0
 51
180.01607200000001
  0
LINE
  5
1A3
  8
OUTLINE
  6
CONTINUOUS
 62
     3
 10
102.4999999999999
 20
-102.0
 30
0.0
 11
103.4999999999999
 21
-102.0
 31
0.0
  0
LINE
  5
1A4
  8
OUTLINE
  6
CONTINUOUS
 62
     3
 10
105.0
 20
-103.4999999999999
 30
0.0
 11
105.0
 21
-115.0
 31
0.0
  0
ARC
  5
1A5
  8
OUTLINE
  6
CONTINUOUS
 62
     3
 10
100.0
 20
-115.0
 30
0.0
 40
5.0
 50
270.0
 51
0.0
  0
LINE
  5
1A6
  8
OUTLINE
  6
CONTINUOUS
 62
     3
 10
106.0
 20
101.0
 30
0.0
 11
106.0
 21
87.210435999999987
 31
0.0
  0
ARC
  5
1A7
  8
OUTLINE
  6
CONTINUOUS
 62
     3
 10
105.0
 20
101.0
 30
0.0
 40
1.0
 50
0.0
 51
90.0
  0
LINE
  5
1A8
  8
OUTLINE
  6
CONTINUOUS
 62
     3
 10
101.5
 20
104.0
 30
0.0
 11
101.5
 21
102.0
 31
0.0
  0
TEXT
  5
1A9
  8
ETC
  6
CONTINUOUS
 62
    61
 10
455.07443648817622
 20
97.723438904184675
 30
0.0
 40
40.0
  1
P-50VSQD5
 41
0.9
  0
TEXT
  5
1AA
  8
ETC
  6
CONTINUOUS
 62
    61
 10
348.75339431746409
 20
219.4828982815234
 30
0.0
 40
40.0
  1
P-50VSQD5_2
 41
0.9
  0
TEXT
  5
1AB
  8
ETC
  6
CONTINUOUS
 62
    61
 10
340.83768831746409
 20
154.91805922083151
 30
0.0
 40
40.0
  1
システム部材
 41
0.9
  0
ENDSEC
  0
EOF
