  0
SECTION
  2
HEADER
  9
$ACADVER
  1
AC1009
  9
$DWGCODEPAGE
  3
ansi_932
  9
$INSBASE
 10
0.0
 20
0.0
 30
0.0
  9
$EXTMIN
 10
-342.461542
 20
-550.1727009999998
 30
0.0
  9
$EXTMAX
 10
1010.020988571428
 20
453.091347
 30
50.0
  9
$LIMMIN
 10
-2970.0
 20
-2100.0
  9
$LIMMAX
 10
2970.0
 20
2100.0
  9
$ORTHOMODE
 70
     1
  9
$REGENMODE
 70
     0
  9
$FILLMODE
 70
     1
  9
$QTEXTMODE
 70
     0
  9
$MIRRTEXT
 70
     0
  9
$DRAGMODE
 70
     2
  9
$LTSCALE
 40
20.0
  9
$OSMODE
 70
    37
  9
$ATTMODE
 70
     1
  9
$TEXTSIZE
 40
64.0
  9
$TRACEWID
 40
0.05
  9
$TEXTSTYLE
  7
STANDARD
  9
$CLAYER
  8
SIZE
  9
$CELTYPE
  6
CONTINUOUS
  9
$CECOLOR
 62
    30
  9
$DIMSCALE
 40
1.0
  9
$DIMASZ
 40
12.0
  9
$DIMEXO
 40
20.0
  9
$DIMDLI
 40
200.0
  9
$DIMRND
 40
0.0
  9
$DIMDLE
 40
0.0
  9
$DIMEXE
 40
20.0
  9
$DIMTP
 40
0.0
  9
$DIMTM
 40
0.0
  9
$DIMTXT
 40
64.0
  9
$DIMCEN
 40
0.09
  9
$DIMTSZ
 40
0.0
  9
$DIMTOL
 70
     0
  9
$DIMLIM
 70
     0
  9
$DIMTIH
 70
     0
  9
$DIMTOH
 70
     0
  9
$DIMSE1
 70
     0
  9
$DIMSE2
 70
     0
  9
$DIMTAD
 70
     1
  9
$DIMZIN
 70
     8
  9
$DIMBLK
  1
DOT1
  9
$DIMASO
 70
     1
  9
$DIMSHO
 70
     0
  9
$DIMPOST
  1

  9
$DIMAPOST
  1

  9
$DIMALT
 70
     0
  9
$DIMALTD
 70
     2
  9
$DIMALTF
 40
25.4
  9
$DIMLFAC
 40
1.0
  9
$DIMTOFL
 70
     1
  9
$DIMTVP
 40
0.0
  9
$DIMTIX
 70
     1
  9
$DIMSOXD
 70
     0
  9
$DIMSAH
 70
     1
  9
$DIMBLK1
  1
ORIGIN
  9
$DIMBLK2
  1
ORIGIN
  9
$DIMSTYLE
  2
STANDARD
  9
$DIMCLRD
 70
     7
  9
$DIMCLRE
 70
     7
  9
$DIMCLRT
 70
     7
  9
$DIMTFAC
 40
1.0
  9
$DIMGAP
 40
25.0
  9
$LUNITS
 70
     2
  9
$LUPREC
 70
     4
  9
$SKETCHINC
 40
0.1
  9
$FILLETRAD
 40
4.0
  9
$AUNITS
 70
     1
  9
$AUPREC
 70
     3
  9
$MENU
  1
ACAD
  9
$ELEVATION
 40
0.0
  9
$PELEVATION
 40
0.0
  9
$THICKNESS
 40
50.0
  9
$LIMCHECK
 70
     0
  9
$CHAMFERA
 40
0.0
  9
$CHAMFERB
 40
0.0
  9
$SKPOLY
 70
     0
  9
$TDCREATE
 40
2453151.424643079
  9
$TDUPDATE
 40
2457485.573441077
  9
$TDINDWG
 40
0.1476268866
  9
$TDUSRTIMER
 40
0.147626713
  9
$USRTIMER
 70
     1
  9
$ANGBASE
 50
0.0
  9
$ANGDIR
 70
     0
  9
$PDMODE
 70
     3
  9
$PDSIZE
 40
-2.0
  9
$PLINEWID
 40
0.0
  9
$COORDS
 70
     1
  9
$SPLFRAME
 70
     0
  9
$SPLINETYPE
 70
     6
  9
$SPLINESEGS
 70
     8
  9
$ATTDIA
 70
     0
  9
$ATTREQ
 70
     1
  9
$HANDLING
 70
     1
  9
$HANDSEED
  5
6D2
  9
$SURFTAB1
 70
     6
  9
$SURFTAB2
 70
     6
  9
$SURFTYPE
 70
     6
  9
$SURFU
 70
     6
  9
$SURFV
 70
     6
  9
$UCSNAME
  2

  9
$UCSORG
 10
0.0
 20
0.0
 30
0.0
  9
$UCSXDIR
 10
1.0
 20
0.0
 30
0.0
  9
$UCSYDIR
 10
0.0
 20
1.0
 30
0.0
  9
$PUCSNAME
  2

  9
$PUCSORG
 10
0.0
 20
0.0
 30
0.0
  9
$PUCSXDIR
 10
1.0
 20
0.0
 30
0.0
  9
$PUCSYDIR
 10
0.0
 20
1.0
 30
0.0
  9
$USERI1
 70
     0
  9
$USERI2
 70
     0
  9
$USERI3
 70
     0
  9
$USERI4
 70
     0
  9
$USERI5
 70
     0
  9
$USERR1
 40
20.0
  9
$USERR2
 40
0.0
  9
$USERR3
 40
0.0
  9
$USERR4
 40
0.0
  9
$USERR5
 40
0.0
  9
$WORLDVIEW
 70
     1
  9
$SHADEDGE
 70
     3
  9
$SHADEDIF
 70
    70
  9
$TILEMODE
 70
     1
  9
$MAXACTVP
 70
    48
  9
$PLIMCHECK
 70
     0
  9
$PEXTMIN
 10
-1.000000000000000E+20
 20
-1.000000000000000E+20
 30
-1.000000000000000E+20
  9
$PEXTMAX
 10
1.000000000000000E+20
 20
1.000000000000000E+20
 30
1.000000000000000E+20
  9
$PLIMMIN
 10
0.0
 20
0.0
  9
$PLIMMAX
 10
12.0
 20
9.0
  9
$UNITMODE
 70
     0
  9
$VISRETAIN
 70
     0
  9
$PLINEGEN
 70
     0
  9
$PSLTSCALE
 70
     0
  0
ENDSEC
  0
SECTION
  2
TABLES
  0
TABLE
  2
VPORT
 70
     1
  0
VPORT
  2
*ACTIVE
 70
     0
 10
0.0
 20
0.0
 11
1.0
 21
1.0
 12
328.9973849814868
 22
-48.1717474131616
 13
0.0
 23
0.0
 14
1.0
 24
1.0
 15
0.0
 25
0.0
 16
0.0
 26
0.0
 36
1.0
 17
0.0
 27
0.0
 37
0.0
 40
1011.339114529062
 41
1.670382165605095
 42
50.0
 43
0.0
 44
0.0
 50
0.0
 51
0.0
 71
     0
 72
  1000
 73
     1
 74
     0
 75
     0
 76
     0
 77
     0
 78
     0
  0
ENDTAB
  0
TABLE
  2
LTYPE
 70
     2
  0
LTYPE
  2
CONTINUOUS
 70
     0
  3
実線
 72
    65
 73
     0
 40
0.0
  0
LTYPE
  2
DASHDOT
 70
     0
  3
____ _ ____ _ ____ _ ____ _ ____ _ ____ _ ____
 72
    65
 73
     4
 40
5.5
 49
4.0
 49
-0.6
 49
0.3
 49
-0.6
  0
ENDTAB
  0
TABLE
  2
LAYER
 70
    12
  0
LAYER
  2
0
 70
     0
 62
     7
  6
CONTINUOUS
  0
LAYER
  2
SIZE
 70
     0
 62
    30
  6
CONTINUOUS
  0
LAYER
  2
BASIS
 70
     0
 62
     6
  6
DASHDOT
  0
LAYER
  2
OUTLINE
 70
     0
 62
     3
  6
CONTINUOUS
  0
LAYER
  2
DETAIL
 70
     0
 62
     5
  6
CONTINUOUS
  0
LAYER
  2
ARRANGE
 70
     0
 62
     1
  6
CONTINUOUS
  0
LAYER
  2
DEFPOINTS
 70
     0
 62
     7
  6
CONTINUOUS
  0
LAYER
  2
ETC
 70
     0
 62
    61
  6
CONTINUOUS
  0
LAYER
  2
FIX
 70
     0
 62
    11
  6
CONTINUOUS
  0
LAYER
  2
NOTE
 70
     0
 62
     4
  6
CONTINUOUS
  0
LAYER
  2
SERVICESPACE
 70
     0
 62
     2
  6
DASHDOT
  0
LAYER
  2
SYMBOLLINE
 70
     0
 62
    15
  6
CONTINUOUS
  0
ENDTAB
  0
TABLE
  2
STYLE
 70
     1
  0
STYLE
  2
STANDARD
 70
     0
 40
64.0
 41
0.9
 50
0.0
 71
     0
 42
64.0
  3
SIMPLEX.shx
  4
BIGFONT.shx
  0
ENDTAB
  0
TABLE
  2
VIEW
 70
     1
  0
VIEW
  2
ALL
 70
     0
 40
4282.619807999999
 10
0.0
 20
41.30990399999999
 41
5940.0
 11
0.0
 21
0.0
 31
1.0
 12
0.0
 22
0.0
 32
0.0
 42
50.0
 43
0.0
 44
0.0
 50
0.0
 71
     0
  0
ENDTAB
  0
TABLE
  2
UCS
 70
     0
  0
ENDTAB
  0
TABLE
  2
APPID
 70
     2
  0
APPID
  2
ACAD
 70
     0
  0
APPID
  2
AUTOCAD_POSTSCRIPT_FIGURE
 70
     0
  0
ENDTAB
  0
TABLE
  2
DIMSTYLE
 70
     1
  0
DIMSTYLE
  2
STANDARD
 70
     0
  3

  4

  5

  6

  7

 40
1.0
 41
0.18
 42
0.0625
 43
0.38
 44
0.18
 45
0.0
 46
0.0
 47
0.0
 48
0.0
140
0.18
141
0.09
142
0.0
143
25.4
144
1.0
145
0.0
146
1.0
147
0.09
 71
     0
 72
     0
 73
     1
 74
     1
 75
     0
 76
     0
 77
     0
 78
     0
170
     0
171
     2
172
     0
173
     0
174
     0
175
     0
176
     7
177
     7
178
     7
  0
ENDTAB
  0
ENDSEC
  0
SECTION
  2
BLOCKS
  0
BLOCK
  8
0
  2
$MODEL_SPACE
 70
     0
 10
0.0
 20
0.0
 30
0.0
  3
$MODEL_SPACE
  1

  0
ENDBLK
  5
20
  8
0
  0
BLOCK
 67
     1
  8
0
  2
$PAPER_SPACE
 70
     0
 10
0.0
 20
0.0
 30
0.0
  3
$PAPER_SPACE
  1

  0
ENDBLK
  5
1C
 67
     1
  8
0
  0
BLOCK
  8
0
  2
DOT1
 70
     0
 10
0.0
 20
0.0
 30
0.0
  3
DOT1
  1

  0
CIRCLE
  5
36
  8
SIZE
  6
CONTINUOUS
 62
     7
 10
0.0
 20
0.0
 30
0.0
 40
3.0
  0
ENDBLK
  5
37
  8
0
  0
BLOCK
  8
0
  2
_ORIGIN
 70
     0
 10
0.0
 20
0.0
 30
0.0
  3
_ORIGIN
  1

  0
CIRCLE
  5
3A
  8
0
  6
CONTINUOUS
 62
     7
 10
0.0
 20
0.0
 30
0.0
 40
0.5
  0
LINE
  5
3B
  8
0
  6
CONTINUOUS
 62
     7
 10
0.0
 20
0.0
 30
0.0
 11
-1.0
 21
0.0
 31
0.0
  0
ENDBLK
  5
3C
  8
0
  0
ENDSEC
  0
SECTION
  2
ENTITIES
  0
LINE
  5
3D
  8
BASIS
  6
DASHDOT
 62
     6
 39
50.0
 10
-145.056688
 20
0.0
 30
0.0
 11
46.32841800000001
 21
0.0
 31
0.0
  0
CIRCLE
  5
3E
  8
ARRANGE
  6
CONTINUOUS
 62
     1
 39
50.0
 10
0.0
 20
0.0
 30
0.0
 40
40.0
  0
POINT
  5
3F
  8
ARRANGE
  6
CONTINUOUS
 62
     1
 39
50.0
 10
0.0
 20
0.0
 30
0.0
  0
ARC
  5
40
  8
DETAIL
  6
CONTINUOUS
 62
     5
 10
-1.100000000000001
 20
-104.363288
 30
0.0
 40
1.1
 50
314.9999999999998
 51
0.0
  0
ARC
  5
41
  8
DETAIL
  6
CONTINUOUS
 62
     5
 10
-1.100000000000001
 20
-104.363288
 30
0.0
 40
0.3
 50
314.999999999999
 51
0.0
  0
LINE
  5
42
  8
DETAIL
  6
CONTINUOUS
 62
     5
 10
-4.866092999999999
 20
103.9999999999999
 30
0.0
 11
-5.005011000000003
 21
103.2121539999999
 31
0.0
  0
LINE
  5
43
  8
DETAIL
  6
CONTINUOUS
 62
     5
 10
-4.866092999999999
 20
103.9999999999999
 30
0.0
 11
-0.9089870000000033
 21
103.3315589999999
 31
0.0
  0
ARC
  5
44
  8
DETAIL
  6
CONTINUOUS
 62
     5
 10
-1.100000000000001
 20
102.2482699999999
 30
0.0
 40
1.1
 50
0.0
 51
79.99999999999999
  0
ARC
  5
45
  8
DETAIL
  6
CONTINUOUS
 62
     5
 10
-1.100000000000001
 20
102.2482699999999
 30
0.0
 40
0.3
 50
0.0
 51
79.99999999999967
  0
LINE
  5
46
  8
DETAIL
  6
CONTINUOUS
 62
     5
 10
-5.005011000000003
 20
103.2121539999999
 30
0.0
 11
-1.047906000000005
 21
102.5437119999999
 31
0.0
  0
ARC
  5
47
  8
DETAIL
  6
CONTINUOUS
 62
     5
 10
-3.0
 20
-98.0
 30
0.0
 40
2.0
 50
180.0
 51
270.0
  0
LINE
  5
48
  8
DETAIL
  6
CONTINUOUS
 62
     5
 10
-0.79999999999999
 20
-102.0
 30
0.0
 11
0.0
 21
-102.0
 31
0.0
  0
LINE
  5
49
  8
DETAIL
  6
CONTINUOUS
 62
     5
 10
-0.3221830000000026
 20
-105.141105
 30
0.0
 11
-15.0
 21
-120.0
 31
0.0
  0
LINE
  5
4A
  8
DETAIL
  6
CONTINUOUS
 62
     5
 10
-0.8878680000000045
 20
-104.57542
 30
0.0
 11
-15.565685
 21
-119.434315
 31
0.0
  0
LINE
  5
4B
  8
DETAIL
  6
CONTINUOUS
 62
     5
 10
-15.565685
 20
-119.434315
 30
0.0
 11
-15.0
 21
-120.0
 31
0.0
  0
LINE
  5
4C
  8
DETAIL
  6
CONTINUOUS
 62
     5
 10
-0.79999999999999
 20
-100.0
 30
0.0
 11
-0.79999999999999
 21
-104.363288
 31
0.0
  0
LINE
  5
4D
  8
DETAIL
  6
CONTINUOUS
 62
     5
 10
-5.0
 20
101.9999999999999
 30
0.0
 11
-5.0
 21
-98.0
 31
0.0
  0
LINE
  5
4E
  8
DETAIL
  6
CONTINUOUS
 62
     5
 10
0.0
 20
102.2482699999999
 30
0.0
 11
0.0
 21
-104.363288
 31
0.0
  0
ARC
  5
4F
  8
DETAIL
  6
CONTINUOUS
 62
     5
 10
-33.110143
 20
101.0000119999999
 30
0.0
 40
1.0
 50
90.281096
 51
111.4999770000001
  0
LINE
  5
50
  8
DETAIL
  6
CONTINUOUS
 62
     5
 10
-118.000017
 20
68.99971899999993
 30
0.0
 11
-118.000024
 21
56.21108299999993
 31
0.0
  0
LINE
  5
51
  8
DETAIL
  6
CONTINUOUS
 62
     5
 10
-33.8
 20
101.803056
 30
0.0
 11
-33.8
 21
-100.999405
 31
0.0
  0
LINE
  5
52
  8
DETAIL
  6
CONTINUOUS
 62
     5
 10
-117.0
 20
56.60405499999993
 30
0.0
 11
-117.0
 21
-101.000281
 31
0.0
  0
ARC
  5
53
  8
DETAIL
  6
CONTINUOUS
 62
     5
 10
-2.800000000000004
 20
-99.000281
 30
0.0
 40
2.0
 50
270.0
 51
330.009279
  0
LINE
  5
54
  8
SIZE
  6
CONTINUOUS
 62
    30
 10
-117.0
 20
-120.999405
 30
0.0
 11
-117.0
 21
-550.172701
 31
0.0
  0
LINE
  5
55
  8
SIZE
  6
CONTINUOUS
 62
    30
 10
0.0
 20
-124.363288
 30
0.0
 11
0.0
 21
-550.172701
 31
0.0
  0
LINE
  5
56
  8
SIZE
  6
CONTINUOUS
 62
    30
 10
-105.0
 20
-530.172701
 30
0.0
 11
-12.0
 21
-530.172701
 31
0.0
  0
LINE
  5
57
  8
SIZE
  6
CONTINUOUS
 62
    30
 10
-308.826983
 20
-530.172701
 30
0.0
 11
-117.0
 21
-530.172701
 31
0.0
  0
TEXT
  5
58
  8
SIZE
  6
CONTINUOUS
 62
    30
 10
-307.141269
 20
-505.172701
 30
0.0
 40
64.0
  1
117
 41
0.9
 72
     1
 11
-220.741269
 21
-505.172701
 31
0.0
  0
CIRCLE
  5
59
  8
SIZE
  6
CONTINUOUS
 62
    30
 10
-117.0
 20
-530.172701
 30
0.0
 40
6.0
  0
LINE
  5
5A
  8
SIZE
  6
CONTINUOUS
 62
    30
 10
-117.0
 20
-530.172701
 30
0.0
 11
-105.0
 21
-530.172701
 31
0.0
  0
CIRCLE
  5
5B
  8
SIZE
  6
CONTINUOUS
 62
    30
 10
0.0
 20
-530.172701
 30
0.0
 40
6.0
  0
LINE
  5
5C
  8
SIZE
  6
CONTINUOUS
 62
    30
 10
0.0
 20
-530.172701
 30
0.0
 11
-12.0
 21
-530.172701
 31
0.0
  0
LINE
  5
60
  8
DETAIL
  6
CONTINUOUS
 62
     5
 39
50.0
 10
-0.79999999999999
 20
102.2482699999999
 30
0.0
 11
-0.79999999999999
 21
101.9999999999999
 31
0.0
  0
LINE
  5
61
  8
DETAIL
  6
CONTINUOUS
 62
     5
 10
-33.115049
 20
101.9999999999999
 30
0.0
 11
0.0
 21
101.9999999999999
 31
0.0
  0
LINE
  5
62
  8
DETAIL
  6
CONTINUOUS
 62
     5
 10
-3.0
 20
-100.0
 30
0.0
 11
0.0
 21
-100.0
 31
0.0
  0
LINE
  5
63
  8
DETAIL
  6
CONTINUOUS
 62
     5
 10
-117.0
 20
-101.000281
 30
0.0
 11
-2.800000000000004
 21
-101.000281
 31
0.0
  0
LINE
  5
64
  8
DETAIL
  6
CONTINUOUS
 62
     5
 10
-33.8
 20
89.01430599999992
 30
0.0
 11
-5.0
 21
89.01430599999992
 31
0.0
  0
LINE
  5
65
  8
DETAIL
  6
CONTINUOUS
 62
     5
 10
-33.476643
 20
101.9304299999999
 30
0.0
 11
-118.000017
 21
68.99971899999993
 31
0.0
  0
LINE
  5
66
  8
DETAIL
  6
CONTINUOUS
 62
     5
 10
-33.8
 20
89.01430599999992
 30
0.0
 11
-118.000024
 21
56.21108299999993
 31
0.0
  0
LINE
  5
67
  8
SIZE
  6
CONTINUOUS
 62
    30
 10
-137.0
 20
-101.000281
 30
0.0
 11
-273.461542
 21
-101.000281
 31
0.0
  0
LINE
  5
68
  8
SIZE
  6
CONTINUOUS
 62
    30
 10
-138.000017
 20
68.99971899999993
 30
0.0
 11
-273.461542
 21
68.99971899999993
 31
0.0
  0
LINE
  5
69
  8
SIZE
  6
CONTINUOUS
 62
    30
 10
-253.461542
 20
-113.000281
 30
0.0
 11
-253.461542
 21
-125.000281
 31
0.0
  0
LINE
  5
6A
  8
SIZE
  6
CONTINUOUS
 62
    30
 10
-253.461542
 20
80.99971899999991
 30
0.0
 11
-253.461542
 21
92.99971899999991
 31
0.0
  0
LINE
  5
6B
  8
SIZE
  6
CONTINUOUS
 62
    30
 10
-253.461542
 20
-101.000281
 30
0.0
 11
-253.461542
 21
68.99971899999993
 31
0.0
  0
CIRCLE
  5
6C
  8
SIZE
  6
CONTINUOUS
 62
    30
 10
-253.461542
 20
-101.000281
 30
0.0
 40
6.0
  0
LINE
  5
6D
  8
SIZE
  6
CONTINUOUS
 62
    30
 10
-253.461542
 20
-101.000281
 30
0.0
 11
-253.461542
 21
-113.000281
 31
0.0
  0
CIRCLE
  5
6E
  8
SIZE
  6
CONTINUOUS
 62
    30
 10
-253.461542
 20
68.99971899999993
 30
0.0
 40
6.0
  0
LINE
  5
6F
  8
SIZE
  6
CONTINUOUS
 62
    30
 10
-253.461542
 20
68.99971899999993
 30
0.0
 11
-253.461542
 21
80.99971899999991
 31
0.0
  0
TEXT
  5
70
  8
SIZE
  6
CONTINUOUS
 62
    30
 10
-278.461542
 20
-102.400281
 30
0.0
 40
64.0
  1
170
 50
90.0
 41
0.9
 72
     1
 11
-278.461542
 21
-16.000281
 31
0.0
  0
LINE
  5
74
  8
SIZE
  6
CONTINUOUS
 62
    30
 10
0.0
 20
-120.0
 30
0.0
 11
0.0
 21
-309.357616
 31
0.0
  0
LINE
  5
75
  8
SIZE
  6
CONTINUOUS
 62
    30
 10
-15.0
 20
-140.0
 30
0.0
 11
-15.0
 21
-309.357616
 31
0.0
  0
LINE
  5
76
  8
SIZE
  6
CONTINUOUS
 62
    30
 10
12.0
 20
-289.357616
 30
0.0
 11
24.0
 21
-289.357616
 31
0.0
  0
LINE
  5
77
  8
SIZE
  6
CONTINUOUS
 62
    30
 10
-27.0
 20
-289.357616
 30
0.0
 11
-39.0
 21
-289.357616
 31
0.0
  0
LINE
  5
78
  8
SIZE
  6
CONTINUOUS
 62
    30
 10
162.9266659999999
 20
-289.357616
 30
0.0
 11
0.0
 21
-289.357616
 31
0.0
  0
TEXT
  5
79
  8
SIZE
  6
CONTINUOUS
 62
    30
 10
37.81238042857136
 20
-264.357616
 30
0.0
 40
64.0
  1
15
 41
0.9
 72
     1
 11
96.78380899999993
 21
-264.357616
 31
0.0
  0
LINE
  5
7A
  8
SIZE
  6
CONTINUOUS
 62
    30
 10
0.0
 20
-289.357616
 30
0.0
 11
-15.0
 21
-289.357616
 31
0.0
  0
LINE
  5
7B
  8
SIZE
  6
CONTINUOUS
 62
    30
 10
0.0
 20
-289.357616
 30
0.0
 11
-15.0
 21
-289.357616
 31
0.0
  0
CIRCLE
  5
7C
  8
SIZE
  6
CONTINUOUS
 62
    30
 10
0.0
 20
-289.357616
 30
0.0
 40
6.0
  0
LINE
  5
7D
  8
SIZE
  6
CONTINUOUS
 62
    30
 10
0.0
 20
-289.357616
 30
0.0
 11
12.0
 21
-289.357616
 31
0.0
  0
CIRCLE
  5
7E
  8
SIZE
  6
CONTINUOUS
 62
    30
 10
-15.0
 20
-289.357616
 30
0.0
 40
6.0
  0
LINE
  5
7F
  8
SIZE
  6
CONTINUOUS
 62
    30
 10
-15.0
 20
-289.357616
 30
0.0
 11
-27.0
 21
-289.357616
 31
0.0
  0
LINE
  5
83
  8
SIZE
  6
CONTINUOUS
 62
    30
 10
20.0
 20
-100.0
 30
0.0
 11
321.0559959999999
 21
-100.0
 31
0.0
  0
LINE
  5
84
  8
SIZE
  6
CONTINUOUS
 62
    30
 10
5.0
 20
-120.0
 30
0.0
 11
321.0559959999999
 21
-120.0
 31
0.0
  0
LINE
  5
85
  8
SIZE
  6
CONTINUOUS
 62
    30
 10
301.0559959999999
 20
-88.0
 30
0.0
 11
301.0559959999999
 21
-76.0
 31
0.0
  0
LINE
  5
86
  8
SIZE
  6
CONTINUOUS
 62
    30
 10
301.0559959999999
 20
-132.0
 30
0.0
 11
301.0559959999999
 21
-144.0
 31
0.0
  0
LINE
  5
87
  8
SIZE
  6
CONTINUOUS
 62
    30
 10
301.0559959999999
 20
-289.731037
 30
0.0
 11
301.0559959999999
 21
-120.0
 31
0.0
  0
TEXT
  5
88
  8
SIZE
  6
CONTINUOUS
 62
    30
 10
276.0559959999999
 20
-272.9596078571428
 30
0.0
 40
64.0
  1
20
 50
90.0
 41
0.9
 72
     1
 11
276.0559959999999
 21
-218.102465
 31
0.0
  0
LINE
  5
89
  8
SIZE
  6
CONTINUOUS
 62
    30
 10
301.0559959999999
 20
-100.0
 30
0.0
 11
301.0559959999999
 21
-120.0
 31
0.0
  0
LINE
  5
8A
  8
SIZE
  6
CONTINUOUS
 62
    30
 10
301.0559959999999
 20
-100.0
 30
0.0
 11
301.0559959999999
 21
-120.0
 31
0.0
  0
CIRCLE
  5
8B
  8
SIZE
  6
CONTINUOUS
 62
    30
 10
301.0559959999999
 20
-100.0
 30
0.0
 40
6.0
  0
LINE
  5
8C
  8
SIZE
  6
CONTINUOUS
 62
    30
 10
301.0559959999999
 20
-100.0
 30
0.0
 11
301.0559959999999
 21
-88.0
 31
0.0
  0
CIRCLE
  5
8D
  8
SIZE
  6
CONTINUOUS
 62
    30
 10
301.0559959999999
 20
-120.0
 30
0.0
 40
6.0
  0
LINE
  5
8E
  8
SIZE
  6
CONTINUOUS
 62
    30
 10
301.0559959999999
 20
-120.0
 30
0.0
 11
301.0559959999999
 21
-132.0
 31
0.0
  0
LINE
  5
92
  8
SIZE
  6
CONTINUOUS
 62
    30
 10
-32.0
 20
-105.000299
 30
0.0
 11
-32.0
 21
-430.8027519999999
 31
0.0
  0
LINE
  5
93
  8
SIZE
  6
CONTINUOUS
 62
    30
 10
-7.0
 20
-105.000299
 30
0.0
 11
-7.0
 21
-430.8027519999999
 31
0.0
  0
LINE
  5
94
  8
SIZE
  6
CONTINUOUS
 62
    30
 10
-44.0
 20
-410.802752
 30
0.0
 11
-56.0
 21
-410.802752
 31
0.0
  0
LINE
  5
95
  8
SIZE
  6
CONTINUOUS
 62
    30
 10
5.0
 20
-410.802752
 30
0.0
 11
17.0
 21
-410.802752
 31
0.0
  0
LINE
  5
96
  8
SIZE
  6
CONTINUOUS
 62
    30
 10
-271.136403
 20
-410.802752
 30
0.0
 11
-32.0
 21
-410.802752
 31
0.0
  0
TEXT
  5
97
  8
SIZE
  6
CONTINUOUS
 62
    30
 10
-254.3649738571428
 20
-385.802752
 30
0.0
 40
64.0
  1
25
 41
0.9
 72
     1
 11
-199.507831
 21
-385.802752
 31
0.0
  0
LINE
  5
98
  8
SIZE
  6
CONTINUOUS
 62
    30
 10
-32.0
 20
-410.802752
 30
0.0
 11
-7.0
 21
-410.802752
 31
0.0
  0
LINE
  5
99
  8
SIZE
  6
CONTINUOUS
 62
    30
 10
-32.0
 20
-410.802752
 30
0.0
 11
-7.0
 21
-410.802752
 31
0.0
  0
CIRCLE
  5
9A
  8
SIZE
  6
CONTINUOUS
 62
    30
 10
-32.0
 20
-410.802752
 30
0.0
 40
6.0
  0
LINE
  5
9B
  8
SIZE
  6
CONTINUOUS
 62
    30
 10
-32.0
 20
-410.802752
 30
0.0
 11
-44.0
 21
-410.802752
 31
0.0
  0
CIRCLE
  5
9C
  8
SIZE
  6
CONTINUOUS
 62
    30
 10
-7.0
 20
-410.802752
 30
0.0
 40
6.0
  0
LINE
  5
9D
  8
SIZE
  6
CONTINUOUS
 62
    30
 10
-7.0
 20
-410.802752
 30
0.0
 11
5.0
 21
-410.802752
 31
0.0
  0
LINE
  5
A1
  8
DETAIL
  6
CONTINUOUS
 62
     5
 10
-30.536077
 20
85.98086699999993
 30
0.0
 11
-31.79967100000001
 21
85.98086699999993
 31
0.0
  0
LINE
  5
A2
  8
DETAIL
  6
CONTINUOUS
 62
     5
 10
-30.536077
 20
86.45086699999993
 30
0.0
 11
-31.536136
 21
86.45086699999993
 31
0.0
  0
LINE
  5
A3
  8
DETAIL
  6
CONTINUOUS
 62
     5
 10
-30.536077
 20
87.27550099999993
 30
0.0
 11
-30.536077
 21
83.91086699999994
 31
0.0
  0
LINE
  5
A4
  8
DETAIL
  6
CONTINUOUS
 62
     5
 10
-30.06607700000001
 20
87.43536699999993
 30
0.0
 11
-30.06607700000001
 21
83.91086699999994
 31
0.0
  0
LINE
  5
A5
  8
DETAIL
  6
CONTINUOUS
 62
     5
 10
-27.526077
 20
87.50029899999993
 30
0.0
 11
-27.526077
 21
86.45086699999993
 31
0.0
  0
LINE
  5
A6
  8
DETAIL
  6
CONTINUOUS
 62
     5
 10
-27.996077
 20
87.50029899999993
 30
0.0
 11
-27.996077
 21
86.45086699999993
 31
0.0
  0
LINE
  5
A7
  8
DETAIL
  6
CONTINUOUS
 62
     5
 10
-27.996077
 20
85.98086699999993
 30
0.0
 11
-27.996077
 21
82.50029899999993
 31
0.0
  0
LINE
  5
A8
  8
DETAIL
  6
CONTINUOUS
 62
     5
 10
-27.526077
 20
85.98086699999993
 30
0.0
 11
-27.526077
 21
82.50029899999993
 31
0.0
  0
LINE
  5
A9
  8
DETAIL
  6
CONTINUOUS
 62
     5
 10
-30.06607700000001
 20
83.44086699999994
 30
0.0
 11
-30.06607700000001
 21
82.56522999999993
 31
0.0
  0
LINE
  5
AA
  8
DETAIL
  6
CONTINUOUS
 62
     5
 10
-30.536077
 20
83.44086699999994
 30
0.0
 11
-30.536077
 21
82.72509599999992
 31
0.0
  0
LINE
  5
AB
  8
DETAIL
  6
CONTINUOUS
 62
     5
 10
-27.996077
 20
83.91086699999994
 30
0.0
 11
-31.750142
 21
83.91086699999994
 31
0.0
  0
LINE
  5
AC
  8
DETAIL
  6
CONTINUOUS
 62
     5
 10
-27.996077
 20
83.44086699999994
 30
0.0
 11
-31.454015
 21
83.44086699999994
 31
0.0
  0
LINE
  5
AD
  8
DETAIL
  6
CONTINUOUS
 62
     5
 10
-25.456077
 20
86.45086699999993
 30
0.0
 11
-30.06607700000001
 21
86.45086699999993
 31
0.0
  0
LINE
  5
AE
  8
DETAIL
  6
CONTINUOUS
 62
     5
 10
-25.456077
 20
85.98086699999993
 30
0.0
 11
-30.06607700000001
 21
85.98086699999993
 31
0.0
  0
LINE
  5
AF
  8
DETAIL
  6
CONTINUOUS
 62
     5
 10
-24.986077
 20
87.50029899999993
 30
0.0
 11
-24.986077
 21
83.91086699999994
 31
0.0
  0
LINE
  5
B0
  8
DETAIL
  6
CONTINUOUS
 62
     5
 10
-24.986077
 20
83.44086699999994
 30
0.0
 11
-24.986077
 21
82.50029899999993
 31
0.0
  0
LINE
  5
B1
  8
DETAIL
  6
CONTINUOUS
 62
     5
 10
-25.456077
 20
87.50029899999993
 30
0.0
 11
-25.456077
 21
83.91086699999994
 31
0.0
  0
LINE
  5
B2
  8
DETAIL
  6
CONTINUOUS
 62
     5
 10
-25.456077
 20
83.44086699999994
 30
0.0
 11
-25.456077
 21
82.50029899999993
 31
0.0
  0
LINE
  5
B3
  8
DETAIL
  6
CONTINUOUS
 62
     5
 10
-22.916077
 20
83.91086699999994
 30
0.0
 11
-27.526077
 21
83.91086699999994
 31
0.0
  0
LINE
  5
B4
  8
DETAIL
  6
CONTINUOUS
 62
     5
 10
-22.916077
 20
83.44086699999994
 30
0.0
 11
-27.526077
 21
83.44086699999994
 31
0.0
  0
LINE
  5
B5
  8
DETAIL
  6
CONTINUOUS
 62
     5
 10
-22.446077
 20
87.50029899999993
 30
0.0
 11
-22.446077
 21
86.45086699999993
 31
0.0
  0
LINE
  5
B6
  8
DETAIL
  6
CONTINUOUS
 62
     5
 10
-22.446077
 20
85.98086699999993
 30
0.0
 11
-22.446077
 21
82.50029899999993
 31
0.0
  0
LINE
  5
B7
  8
DETAIL
  6
CONTINUOUS
 62
     5
 10
-22.916077
 20
87.50029899999993
 30
0.0
 11
-22.916077
 21
86.45086699999993
 31
0.0
  0
LINE
  5
B8
  8
DETAIL
  6
CONTINUOUS
 62
     5
 10
-22.916077
 20
85.98086699999993
 30
0.0
 11
-22.916077
 21
82.50029899999993
 31
0.0
  0
LINE
  5
B9
  8
DETAIL
  6
CONTINUOUS
 62
     5
 10
-20.376077
 20
86.45086699999993
 30
0.0
 11
-24.986077
 21
86.45086699999993
 31
0.0
  0
LINE
  5
BA
  8
DETAIL
  6
CONTINUOUS
 62
     5
 10
-20.376077
 20
85.98086699999993
 30
0.0
 11
-24.986077
 21
85.98086699999993
 31
0.0
  0
LINE
  5
BB
  8
DETAIL
  6
CONTINUOUS
 62
     5
 10
-19.906077
 20
87.50029899999993
 30
0.0
 11
-19.906077
 21
83.91086699999994
 31
0.0
  0
LINE
  5
BC
  8
DETAIL
  6
CONTINUOUS
 62
     5
 10
-19.906077
 20
83.44086699999994
 30
0.0
 11
-19.906077
 21
82.50029899999993
 31
0.0
  0
LINE
  5
BD
  8
DETAIL
  6
CONTINUOUS
 62
     5
 10
-20.376077
 20
87.50029899999993
 30
0.0
 11
-20.376077
 21
83.91086699999994
 31
0.0
  0
LINE
  5
BE
  8
DETAIL
  6
CONTINUOUS
 62
     5
 10
-20.376077
 20
83.44086699999994
 30
0.0
 11
-20.376077
 21
82.50029899999993
 31
0.0
  0
LINE
  5
BF
  8
DETAIL
  6
CONTINUOUS
 62
     5
 10
-17.836077
 20
83.91086699999994
 30
0.0
 11
-22.446077
 21
83.91086699999994
 31
0.0
  0
LINE
  5
C0
  8
DETAIL
  6
CONTINUOUS
 62
     5
 10
-17.836077
 20
83.44086699999994
 30
0.0
 11
-22.446077
 21
83.44086699999994
 31
0.0
  0
LINE
  5
C1
  8
DETAIL
  6
CONTINUOUS
 62
     5
 10
-17.36607700000001
 20
87.50029899999993
 30
0.0
 11
-17.36607700000001
 21
86.45086699999993
 31
0.0
  0
LINE
  5
C2
  8
DETAIL
  6
CONTINUOUS
 62
     5
 10
-17.36607700000001
 20
85.98086699999993
 30
0.0
 11
-17.36607700000001
 21
82.50029899999993
 31
0.0
  0
LINE
  5
C3
  8
DETAIL
  6
CONTINUOUS
 62
     5
 10
-17.836077
 20
87.50029899999993
 30
0.0
 11
-17.836077
 21
86.45086699999993
 31
0.0
  0
LINE
  5
C4
  8
DETAIL
  6
CONTINUOUS
 62
     5
 10
-17.836077
 20
85.98086699999993
 30
0.0
 11
-17.836077
 21
82.50029899999993
 31
0.0
  0
LINE
  5
C5
  8
DETAIL
  6
CONTINUOUS
 62
     5
 10
-15.296077
 20
86.45086699999993
 30
0.0
 11
-19.906077
 21
86.45086699999993
 31
0.0
  0
LINE
  5
C6
  8
DETAIL
  6
CONTINUOUS
 62
     5
 10
-15.296077
 20
85.98086699999993
 30
0.0
 11
-19.906077
 21
85.98086699999993
 31
0.0
  0
LINE
  5
C7
  8
DETAIL
  6
CONTINUOUS
 62
     5
 10
-14.82607700000001
 20
87.50029899999993
 30
0.0
 11
-14.82607700000001
 21
83.91086699999994
 31
0.0
  0
LINE
  5
C8
  8
DETAIL
  6
CONTINUOUS
 62
     5
 10
-14.82607700000001
 20
83.44086699999994
 30
0.0
 11
-14.82607700000001
 21
82.50029899999993
 31
0.0
  0
LINE
  5
C9
  8
DETAIL
  6
CONTINUOUS
 62
     5
 10
-15.296077
 20
87.50029899999993
 30
0.0
 11
-15.296077
 21
83.91086699999994
 31
0.0
  0
LINE
  5
CA
  8
DETAIL
  6
CONTINUOUS
 62
     5
 10
-15.296077
 20
83.44086699999994
 30
0.0
 11
-15.296077
 21
82.50029899999993
 31
0.0
  0
LINE
  5
CB
  8
DETAIL
  6
CONTINUOUS
 62
     5
 10
-12.756077
 20
83.44086699999994
 30
0.0
 11
-17.36607700000001
 21
83.44086699999994
 31
0.0
  0
LINE
  5
CC
  8
DETAIL
  6
CONTINUOUS
 62
     5
 10
-12.756077
 20
83.91086699999994
 30
0.0
 11
-17.36607700000001
 21
83.91086699999994
 31
0.0
  0
LINE
  5
CD
  8
DETAIL
  6
CONTINUOUS
 62
     5
 10
-12.28607700000001
 20
87.50029899999993
 30
0.0
 11
-12.28607700000001
 21
86.45086699999993
 31
0.0
  0
LINE
  5
CE
  8
DETAIL
  6
CONTINUOUS
 62
     5
 10
-12.28607700000001
 20
85.98086699999993
 30
0.0
 11
-12.28607700000001
 21
82.50029899999993
 31
0.0
  0
LINE
  5
CF
  8
DETAIL
  6
CONTINUOUS
 62
     5
 10
-12.756077
 20
87.50029899999993
 30
0.0
 11
-12.756077
 21
86.45086699999993
 31
0.0
  0
LINE
  5
D0
  8
DETAIL
  6
CONTINUOUS
 62
     5
 10
-12.756077
 20
85.98086699999993
 30
0.0
 11
-12.756077
 21
82.50029899999993
 31
0.0
  0
LINE
  5
D1
  8
DETAIL
  6
CONTINUOUS
 62
     5
 10
-10.21607700000001
 20
86.45086699999993
 30
0.0
 11
-14.82607700000001
 21
86.45086699999993
 31
0.0
  0
LINE
  5
D2
  8
DETAIL
  6
CONTINUOUS
 62
     5
 10
-10.21607700000001
 20
85.98086699999993
 30
0.0
 11
-14.82607700000001
 21
85.98086699999993
 31
0.0
  0
LINE
  5
D3
  8
DETAIL
  6
CONTINUOUS
 62
     5
 10
-9.746077
 20
87.50029899999993
 30
0.0
 11
-9.746077
 21
83.91086699999994
 31
0.0
  0
LINE
  5
D4
  8
DETAIL
  6
CONTINUOUS
 62
     5
 10
-9.746077
 20
83.44086699999994
 30
0.0
 11
-9.746077
 21
82.50029899999993
 31
0.0
  0
LINE
  5
D5
  8
DETAIL
  6
CONTINUOUS
 62
     5
 10
-10.21607700000001
 20
87.50029899999993
 30
0.0
 11
-10.21607700000001
 21
83.91086699999994
 31
0.0
  0
LINE
  5
D6
  8
DETAIL
  6
CONTINUOUS
 62
     5
 10
-10.21607700000001
 20
83.44086699999994
 30
0.0
 11
-10.21607700000001
 21
82.50029899999993
 31
0.0
  0
LINE
  5
D7
  8
DETAIL
  6
CONTINUOUS
 62
     5
 10
-7.206077000000001
 20
85.99423799999994
 30
0.0
 11
-7.206077000000001
 21
84.00635899999992
 31
0.0
  0
LINE
  5
D8
  8
DETAIL
  6
CONTINUOUS
 62
     5
 10
-7.676076999999999
 20
86.71006599999993
 30
0.0
 11
-7.676076999999999
 21
86.45086699999993
 31
0.0
  0
LINE
  5
D9
  8
DETAIL
  6
CONTINUOUS
 62
     5
 10
-7.676076999999999
 20
85.98086699999993
 30
0.0
 11
-7.676076999999999
 21
83.29053199999993
 31
0.0
  0
LINE
  5
DA
  8
DETAIL
  6
CONTINUOUS
 62
     5
 10
-7.463864000000001
 20
86.45086699999993
 30
0.0
 11
-9.746077
 21
86.45086699999993
 31
0.0
  0
LINE
  5
DB
  8
DETAIL
  6
CONTINUOUS
 62
     5
 10
-7.200329000000004
 20
85.98086699999993
 30
0.0
 11
-9.746077
 21
85.98086699999993
 31
0.0
  0
LINE
  5
DC
  8
DETAIL
  6
CONTINUOUS
 62
     5
 10
-7.676076999999999
 20
83.91086699999994
 30
0.0
 11
-12.28607700000001
 21
83.91086699999994
 31
0.0
  0
LINE
  5
DD
  8
DETAIL
  6
CONTINUOUS
 62
     5
 10
-7.676076999999999
 20
83.44086699999994
 30
0.0
 11
-12.28607700000001
 21
83.44086699999994
 31
0.0
  0
ARC
  5
DE
  8
DETAIL
  6
CONTINUOUS
 62
     5
 10
-29.5
 20
85.00029899999993
 30
0.0
 40
2.5
 50
90.0
 51
270.0
  0
ARC
  5
DF
  8
DETAIL
  6
CONTINUOUS
 62
     5
 10
-9.5
 20
85.00029899999993
 30
0.0
 40
2.5
 50
270.0
 51
90.0
  0
LINE
  5
E0
  8
DETAIL
  6
CONTINUOUS
 62
     5
 10
-29.5
 20
87.50029899999993
 30
0.0
 11
-9.5
 21
87.50029899999993
 31
0.0
  0
LINE
  5
E1
  8
DETAIL
  6
CONTINUOUS
 62
     5
 10
-29.5
 20
82.50029899999993
 30
0.0
 11
-9.5
 21
82.50029899999993
 31
0.0
  0
LINE
  5
E2
  8
DETAIL
  6
CONTINUOUS
 62
     5
 10
-30.06607700000001
 20
38.44086700000001
 30
0.0
 11
-30.06607700000001
 21
37.56523
 31
0.0
  0
LINE
  5
E3
  8
DETAIL
  6
CONTINUOUS
 62
     5
 10
-30.536077
 20
38.44086700000001
 30
0.0
 11
-30.536077
 21
37.72509600000002
 31
0.0
  0
LINE
  5
E4
  8
DETAIL
  6
CONTINUOUS
 62
     5
 10
-27.996077
 20
38.91086699999998
 30
0.0
 11
-31.750142
 21
38.91086699999998
 31
0.0
  0
LINE
  5
E5
  8
DETAIL
  6
CONTINUOUS
 62
     5
 10
-27.996077
 20
38.44086700000001
 30
0.0
 11
-31.454015
 21
38.44086700000001
 31
0.0
  0
LINE
  5
E6
  8
DETAIL
  6
CONTINUOUS
 62
     5
 10
-24.986077
 20
38.44086700000001
 30
0.0
 11
-24.986077
 21
37.500299
 31
0.0
  0
LINE
  5
E7
  8
DETAIL
  6
CONTINUOUS
 62
     5
 10
-25.456077
 20
38.44086700000001
 30
0.0
 11
-25.456077
 21
37.500299
 31
0.0
  0
LINE
  5
E8
  8
DETAIL
  6
CONTINUOUS
 62
     5
 10
-22.916077
 20
38.91086699999998
 30
0.0
 11
-27.526077
 21
38.91086699999998
 31
0.0
  0
LINE
  5
E9
  8
DETAIL
  6
CONTINUOUS
 62
     5
 10
-22.916077
 20
38.44086700000001
 30
0.0
 11
-27.526077
 21
38.44086700000001
 31
0.0
  0
LINE
  5
EA
  8
DETAIL
  6
CONTINUOUS
 62
     5
 10
-19.906077
 20
38.44086700000001
 30
0.0
 11
-19.906077
 21
37.500299
 31
0.0
  0
LINE
  5
EB
  8
DETAIL
  6
CONTINUOUS
 62
     5
 10
-20.376077
 20
38.44086700000001
 30
0.0
 11
-20.376077
 21
37.500299
 31
0.0
  0
LINE
  5
EC
  8
DETAIL
  6
CONTINUOUS
 62
     5
 10
-17.836077
 20
38.91086699999998
 30
0.0
 11
-22.446077
 21
38.91086699999998
 31
0.0
  0
LINE
  5
ED
  8
DETAIL
  6
CONTINUOUS
 62
     5
 10
-17.836077
 20
38.44086700000001
 30
0.0
 11
-22.446077
 21
38.44086700000001
 31
0.0
  0
LINE
  5
EE
  8
DETAIL
  6
CONTINUOUS
 62
     5
 10
-14.82607700000001
 20
38.44086700000001
 30
0.0
 11
-14.82607700000001
 21
37.500299
 31
0.0
  0
LINE
  5
EF
  8
DETAIL
  6
CONTINUOUS
 62
     5
 10
-15.296077
 20
38.44086700000001
 30
0.0
 11
-15.296077
 21
37.500299
 31
0.0
  0
LINE
  5
F0
  8
DETAIL
  6
CONTINUOUS
 62
     5
 10
-12.756077
 20
38.44086700000001
 30
0.0
 11
-17.36607700000001
 21
38.44086700000001
 31
0.0
  0
LINE
  5
F1
  8
DETAIL
  6
CONTINUOUS
 62
     5
 10
-12.756077
 20
38.91086699999998
 30
0.0
 11
-17.36607700000001
 21
38.91086699999998
 31
0.0
  0
LINE
  5
F2
  8
DETAIL
  6
CONTINUOUS
 62
     5
 10
-9.746077
 20
38.44086700000001
 30
0.0
 11
-9.746077
 21
37.500299
 31
0.0
  0
LINE
  5
F3
  8
DETAIL
  6
CONTINUOUS
 62
     5
 10
-10.21607700000001
 20
38.44086700000001
 30
0.0
 11
-10.21607700000001
 21
37.500299
 31
0.0
  0
LINE
  5
F4
  8
DETAIL
  6
CONTINUOUS
 62
     5
 10
-7.676076999999999
 20
38.91086699999998
 30
0.0
 11
-12.28607700000001
 21
38.91086699999998
 31
0.0
  0
LINE
  5
F5
  8
DETAIL
  6
CONTINUOUS
 62
     5
 10
-7.676076999999999
 20
38.44086700000001
 30
0.0
 11
-12.28607700000001
 21
38.44086700000001
 31
0.0
  0
LINE
  5
F6
  8
DETAIL
  6
CONTINUOUS
 62
     5
 10
-30.06607700000001
 20
35.000299
 30
0.0
 11
-30.06607700000001
 21
33.830867
 31
0.0
  0
LINE
  5
F7
  8
DETAIL
  6
CONTINUOUS
 62
     5
 10
-30.06607700000001
 20
33.360867
 30
0.0
 11
-30.06607700000001
 21
30.000299
 31
0.0
  0
LINE
  5
F8
  8
DETAIL
  6
CONTINUOUS
 62
     5
 10
-30.536077
 20
34.77550099999999
 30
0.0
 11
-30.536077
 21
33.830867
 31
0.0
  0
LINE
  5
F9
  8
DETAIL
  6
CONTINUOUS
 62
     5
 10
-30.536077
 20
33.360867
 30
0.0
 11
-30.536077
 21
30.22509600000002
 31
0.0
  0
LINE
  5
FA
  8
DETAIL
  6
CONTINUOUS
 62
     5
 10
-31.687984
 20
31.29086699999999
 30
0.0
 11
-30.536077
 21
31.29086699999999
 31
0.0
  0
LINE
  5
FB
  8
DETAIL
  6
CONTINUOUS
 62
     5
 10
-31.351894
 20
30.82086699999999
 30
0.0
 11
-30.536077
 21
30.82086699999999
 31
0.0
  0
LINE
  5
FC
  8
DETAIL
  6
CONTINUOUS
 62
     5
 10
-27.996077
 20
35.000299
 30
0.0
 11
-27.996077
 21
31.29086699999999
 31
0.0
  0
LINE
  5
FD
  8
DETAIL
  6
CONTINUOUS
 62
     5
 10
-27.996077
 20
30.82086699999999
 30
0.0
 11
-27.996077
 21
30.000299
 31
0.0
  0
LINE
  5
FE
  8
DETAIL
  6
CONTINUOUS
 62
     5
 10
-27.526077
 20
35.000299
 30
0.0
 11
-27.526077
 21
31.29086699999999
 31
0.0
  0
LINE
  5
FF
  8
DETAIL
  6
CONTINUOUS
 62
     5
 10
-27.526077
 20
30.82086699999999
 30
0.0
 11
-27.526077
 21
30.000299
 31
0.0
  0
LINE
  5
100
  8
DETAIL
  6
CONTINUOUS
 62
     5
 10
-31.847216
 20
33.360867
 30
0.0
 11
-27.996077
 21
33.360867
 31
0.0
  0
LINE
  5
101
  8
DETAIL
  6
CONTINUOUS
 62
     5
 10
-31.616504
 20
33.830867
 30
0.0
 11
-27.996077
 21
33.830867
 31
0.0
  0
LINE
  5
102
  8
DETAIL
  6
CONTINUOUS
 62
     5
 10
-25.456077
 20
35.000299
 30
0.0
 11
-25.456077
 21
33.830867
 31
0.0
  0
LINE
  5
103
  8
DETAIL
  6
CONTINUOUS
 62
     5
 10
-25.456077
 20
33.360867
 30
0.0
 11
-25.456077
 21
30.000299
 31
0.0
  0
LINE
  5
104
  8
DETAIL
  6
CONTINUOUS
 62
     5
 10
-24.986077
 20
35.000299
 30
0.0
 11
-24.986077
 21
33.830867
 31
0.0
  0
LINE
  5
105
  8
DETAIL
  6
CONTINUOUS
 62
     5
 10
-24.986077
 20
33.360867
 30
0.0
 11
-24.986077
 21
30.000299
 31
0.0
  0
LINE
  5
106
  8
DETAIL
  6
CONTINUOUS
 62
     5
 10
-30.06607700000001
 20
31.29086699999999
 30
0.0
 11
-25.456077
 21
31.29086699999999
 31
0.0
  0
LINE
  5
107
  8
DETAIL
  6
CONTINUOUS
 62
     5
 10
-30.06607700000001
 20
30.82086699999999
 30
0.0
 11
-25.456077
 21
30.82086699999999
 31
0.0
  0
LINE
  5
108
  8
DETAIL
  6
CONTINUOUS
 62
     5
 10
-22.916077
 20
35.000299
 30
0.0
 11
-22.916077
 21
31.29086699999999
 31
0.0
  0
LINE
  5
109
  8
DETAIL
  6
CONTINUOUS
 62
     5
 10
-22.916077
 20
30.82086699999999
 30
0.0
 11
-22.916077
 21
30.000299
 31
0.0
  0
LINE
  5
10A
  8
DETAIL
  6
CONTINUOUS
 62
     5
 10
-22.446077
 20
35.000299
 30
0.0
 11
-22.446077
 21
31.29086699999999
 31
0.0
  0
LINE
  5
10B
  8
DETAIL
  6
CONTINUOUS
 62
     5
 10
-22.446077
 20
30.82086699999999
 30
0.0
 11
-22.446077
 21
30.000299
 31
0.0
  0
LINE
  5
10C
  8
DETAIL
  6
CONTINUOUS
 62
     5
 10
-27.526077
 20
33.830867
 30
0.0
 11
-22.916077
 21
33.830867
 31
0.0
  0
LINE
  5
10D
  8
DETAIL
  6
CONTINUOUS
 62
     5
 10
-27.526077
 20
33.360867
 30
0.0
 11
-22.916077
 21
33.360867
 31
0.0
  0
LINE
  5
10E
  8
DETAIL
  6
CONTINUOUS
 62
     5
 10
-20.376077
 20
35.000299
 30
0.0
 11
-20.376077
 21
33.830867
 31
0.0
  0
LINE
  5
10F
  8
DETAIL
  6
CONTINUOUS
 62
     5
 10
-20.376077
 20
33.360867
 30
0.0
 11
-20.376077
 21
30.000299
 31
0.0
  0
LINE
  5
110
  8
DETAIL
  6
CONTINUOUS
 62
     5
 10
-19.906077
 20
35.000299
 30
0.0
 11
-19.906077
 21
33.830867
 31
0.0
  0
LINE
  5
111
  8
DETAIL
  6
CONTINUOUS
 62
     5
 10
-19.906077
 20
33.360867
 30
0.0
 11
-19.906077
 21
30.000299
 31
0.0
  0
LINE
  5
112
  8
DETAIL
  6
CONTINUOUS
 62
     5
 10
-24.986077
 20
31.29086699999999
 30
0.0
 11
-20.376077
 21
31.29086699999999
 31
0.0
  0
LINE
  5
113
  8
DETAIL
  6
CONTINUOUS
 62
     5
 10
-24.986077
 20
30.82086699999999
 30
0.0
 11
-20.376077
 21
30.82086699999999
 31
0.0
  0
LINE
  5
114
  8
DETAIL
  6
CONTINUOUS
 62
     5
 10
-17.836077
 20
35.000299
 30
0.0
 11
-17.836077
 21
31.29086699999999
 31
0.0
  0
LINE
  5
115
  8
DETAIL
  6
CONTINUOUS
 62
     5
 10
-17.836077
 20
30.82086699999999
 30
0.0
 11
-17.836077
 21
30.000299
 31
0.0
  0
LINE
  5
116
  8
DETAIL
  6
CONTINUOUS
 62
     5
 10
-17.36607700000001
 20
35.000299
 30
0.0
 11
-17.36607700000001
 21
31.29086699999999
 31
0.0
  0
LINE
  5
117
  8
DETAIL
  6
CONTINUOUS
 62
     5
 10
-17.36607700000001
 20
30.82086699999999
 30
0.0
 11
-17.36607700000001
 21
30.000299
 31
0.0
  0
LINE
  5
118
  8
DETAIL
  6
CONTINUOUS
 62
     5
 10
-22.446077
 20
33.360867
 30
0.0
 11
-17.836077
 21
33.360867
 31
0.0
  0
LINE
  5
119
  8
DETAIL
  6
CONTINUOUS
 62
     5
 10
-22.446077
 20
33.830867
 30
0.0
 11
-17.836077
 21
33.830867
 31
0.0
  0
LINE
  5
11A
  8
DETAIL
  6
CONTINUOUS
 62
     5
 10
-15.296077
 20
35.000299
 30
0.0
 11
-15.296077
 21
33.830867
 31
0.0
  0
LINE
  5
11B
  8
DETAIL
  6
CONTINUOUS
 62
     5
 10
-15.296077
 20
33.360867
 30
0.0
 11
-15.296077
 21
30.000299
 31
0.0
  0
LINE
  5
11C
  8
DETAIL
  6
CONTINUOUS
 62
     5
 10
-14.82607700000001
 20
35.000299
 30
0.0
 11
-14.82607700000001
 21
33.830867
 31
0.0
  0
LINE
  5
11D
  8
DETAIL
  6
CONTINUOUS
 62
     5
 10
-14.82607700000001
 20
33.360867
 30
0.0
 11
-14.82607700000001
 21
30.000299
 31
0.0
  0
LINE
  5
11E
  8
DETAIL
  6
CONTINUOUS
 62
     5
 10
-19.906077
 20
31.29086699999999
 30
0.0
 11
-15.296077
 21
31.29086699999999
 31
0.0
  0
LINE
  5
11F
  8
DETAIL
  6
CONTINUOUS
 62
     5
 10
-19.906077
 20
30.82086699999999
 30
0.0
 11
-15.296077
 21
30.82086699999999
 31
0.0
  0
LINE
  5
120
  8
DETAIL
  6
CONTINUOUS
 62
     5
 10
-12.756077
 20
35.000299
 30
0.0
 11
-12.756077
 21
31.29086699999999
 31
0.0
  0
LINE
  5
121
  8
DETAIL
  6
CONTINUOUS
 62
     5
 10
-12.756077
 20
30.82086699999999
 30
0.0
 11
-12.756077
 21
30.000299
 31
0.0
  0
LINE
  5
122
  8
DETAIL
  6
CONTINUOUS
 62
     5
 10
-12.28607700000001
 20
35.000299
 30
0.0
 11
-12.28607700000001
 21
31.29086699999999
 31
0.0
  0
LINE
  5
123
  8
DETAIL
  6
CONTINUOUS
 62
     5
 10
-12.28607700000001
 20
30.82086699999999
 30
0.0
 11
-12.28607700000001
 21
30.000299
 31
0.0
  0
LINE
  5
124
  8
DETAIL
  6
CONTINUOUS
 62
     5
 10
-17.36607700000001
 20
33.360867
 30
0.0
 11
-12.756077
 21
33.360867
 31
0.0
  0
LINE
  5
125
  8
DETAIL
  6
CONTINUOUS
 62
     5
 10
-17.36607700000001
 20
33.830867
 30
0.0
 11
-12.756077
 21
33.830867
 31
0.0
  0
LINE
  5
126
  8
DETAIL
  6
CONTINUOUS
 62
     5
 10
-10.21607700000001
 20
35.000299
 30
0.0
 11
-10.21607700000001
 21
33.830867
 31
0.0
  0
LINE
  5
127
  8
DETAIL
  6
CONTINUOUS
 62
     5
 10
-9.746077
 20
35.000299
 30
0.0
 11
-9.746077
 21
33.830867
 31
0.0
  0
LINE
  5
128
  8
DETAIL
  6
CONTINUOUS
 62
     5
 10
-14.82607700000001
 20
31.29086699999999
 30
0.0
 11
-10.21607700000001
 21
31.29086699999999
 31
0.0
  0
LINE
  5
129
  8
DETAIL
  6
CONTINUOUS
 62
     5
 10
-14.82607700000001
 20
30.82086699999999
 30
0.0
 11
-10.21607700000001
 21
30.82086699999999
 31
0.0
  0
LINE
  5
12A
  8
DETAIL
  6
CONTINUOUS
 62
     5
 10
-9.746077
 20
30.82086699999999
 30
0.0
 11
-7.648106000000006
 21
30.82086699999999
 31
0.0
  0
LINE
  5
12B
  8
DETAIL
  6
CONTINUOUS
 62
     5
 10
-9.746077
 20
33.360867
 30
0.0
 11
-9.746077
 21
30.000299
 31
0.0
  0
LINE
  5
12C
  8
DETAIL
  6
CONTINUOUS
 62
     5
 10
-10.21607700000001
 20
33.360867
 30
0.0
 11
-10.21607700000001
 21
30.000299
 31
0.0
  0
LINE
  5
12D
  8
DETAIL
  6
CONTINUOUS
 62
     5
 10
-12.28607700000001
 20
33.360867
 30
0.0
 11
-7.676076999999999
 21
33.360867
 31
0.0
  0
LINE
  5
12E
  8
DETAIL
  6
CONTINUOUS
 62
     5
 10
-7.206077000000001
 20
33.360867
 30
0.0
 11
-7.152784000000004
 21
33.360867
 31
0.0
  0
LINE
  5
12F
  8
DETAIL
  6
CONTINUOUS
 62
     5
 10
-12.28607700000001
 20
33.830867
 30
0.0
 11
-7.676076999999999
 21
33.830867
 31
0.0
  0
LINE
  5
130
  8
DETAIL
  6
CONTINUOUS
 62
     5
 10
-9.746077
 20
31.29086699999999
 30
0.0
 11
-7.312016
 21
31.29086699999999
 31
0.0
  0
LINE
  5
131
  8
DETAIL
  6
CONTINUOUS
 62
     5
 10
-7.206077000000001
 20
33.49423799999998
 30
0.0
 11
-7.206077000000001
 21
31.506359
 31
0.0
  0
LINE
  5
132
  8
DETAIL
  6
CONTINUOUS
 62
     5
 10
-7.676076999999999
 20
34.21006600000001
 30
0.0
 11
-7.676076999999999
 21
31.29086699999999
 31
0.0
  0
LINE
  5
133
  8
DETAIL
  6
CONTINUOUS
 62
     5
 10
-30.536077
 20
25.980867
 30
0.0
 11
-31.79967100000001
 21
25.980867
 31
0.0
  0
LINE
  5
134
  8
DETAIL
  6
CONTINUOUS
 62
     5
 10
-30.536077
 20
26.450867
 30
0.0
 11
-31.536136
 21
26.450867
 31
0.0
  0
LINE
  5
135
  8
DETAIL
  6
CONTINUOUS
 62
     5
 10
-30.536077
 20
27.27550100000001
 30
0.0
 11
-30.536077
 21
23.91086699999998
 31
0.0
  0
LINE
  5
136
  8
DETAIL
  6
CONTINUOUS
 62
     5
 10
-30.06607700000001
 20
27.435367
 30
0.0
 11
-30.06607700000001
 21
23.91086699999998
 31
0.0
  0
LINE
  5
137
  8
DETAIL
  6
CONTINUOUS
 62
     5
 10
-27.526077
 20
27.500299
 30
0.0
 11
-27.526077
 21
26.450867
 31
0.0
  0
LINE
  5
138
  8
DETAIL
  6
CONTINUOUS
 62
     5
 10
-27.996077
 20
27.500299
 30
0.0
 11
-27.996077
 21
26.450867
 31
0.0
  0
LINE
  5
139
  8
DETAIL
  6
CONTINUOUS
 62
     5
 10
-27.996077
 20
25.980867
 30
0.0
 11
-27.996077
 21
22.500299
 31
0.0
  0
LINE
  5
13A
  8
DETAIL
  6
CONTINUOUS
 62
     5
 10
-27.526077
 20
25.980867
 30
0.0
 11
-27.526077
 21
22.500299
 31
0.0
  0
LINE
  5
13B
  8
DETAIL
  6
CONTINUOUS
 62
     5
 10
-30.06607700000001
 20
23.44086700000001
 30
0.0
 11
-30.06607700000001
 21
22.56523
 31
0.0
  0
LINE
  5
13C
  8
DETAIL
  6
CONTINUOUS
 62
     5
 10
-30.536077
 20
23.44086700000001
 30
0.0
 11
-30.536077
 21
22.72509600000002
 31
0.0
  0
LINE
  5
13D
  8
DETAIL
  6
CONTINUOUS
 62
     5
 10
-27.996077
 20
23.91086699999998
 30
0.0
 11
-31.750142
 21
23.91086699999998
 31
0.0
  0
LINE
  5
13E
  8
DETAIL
  6
CONTINUOUS
 62
     5
 10
-27.996077
 20
23.44086700000001
 30
0.0
 11
-31.454015
 21
23.44086700000001
 31
0.0
  0
LINE
  5
13F
  8
DETAIL
  6
CONTINUOUS
 62
     5
 10
-25.456077
 20
26.450867
 30
0.0
 11
-30.06607700000001
 21
26.450867
 31
0.0
  0
LINE
  5
140
  8
DETAIL
  6
CONTINUOUS
 62
     5
 10
-25.456077
 20
25.980867
 30
0.0
 11
-30.06607700000001
 21
25.980867
 31
0.0
  0
LINE
  5
141
  8
DETAIL
  6
CONTINUOUS
 62
     5
 10
-24.986077
 20
27.500299
 30
0.0
 11
-24.986077
 21
23.91086699999998
 31
0.0
  0
LINE
  5
142
  8
DETAIL
  6
CONTINUOUS
 62
     5
 10
-24.986077
 20
23.44086700000001
 30
0.0
 11
-24.986077
 21
22.500299
 31
0.0
  0
LINE
  5
143
  8
DETAIL
  6
CONTINUOUS
 62
     5
 10
-25.456077
 20
27.500299
 30
0.0
 11
-25.456077
 21
23.91086699999998
 31
0.0
  0
LINE
  5
144
  8
DETAIL
  6
CONTINUOUS
 62
     5
 10
-25.456077
 20
23.44086700000001
 30
0.0
 11
-25.456077
 21
22.500299
 31
0.0
  0
LINE
  5
145
  8
DETAIL
  6
CONTINUOUS
 62
     5
 10
-22.916077
 20
23.91086699999998
 30
0.0
 11
-27.526077
 21
23.91086699999998
 31
0.0
  0
LINE
  5
146
  8
DETAIL
  6
CONTINUOUS
 62
     5
 10
-22.916077
 20
23.44086700000001
 30
0.0
 11
-27.526077
 21
23.44086700000001
 31
0.0
  0
LINE
  5
147
  8
DETAIL
  6
CONTINUOUS
 62
     5
 10
-22.446077
 20
27.500299
 30
0.0
 11
-22.446077
 21
26.450867
 31
0.0
  0
LINE
  5
148
  8
DETAIL
  6
CONTINUOUS
 62
     5
 10
-22.446077
 20
25.980867
 30
0.0
 11
-22.446077
 21
22.500299
 31
0.0
  0
LINE
  5
149
  8
DETAIL
  6
CONTINUOUS
 62
     5
 10
-22.916077
 20
27.500299
 30
0.0
 11
-22.916077
 21
26.450867
 31
0.0
  0
LINE
  5
14A
  8
DETAIL
  6
CONTINUOUS
 62
     5
 10
-22.916077
 20
25.980867
 30
0.0
 11
-22.916077
 21
22.500299
 31
0.0
  0
LINE
  5
14B
  8
DETAIL
  6
CONTINUOUS
 62
     5
 10
-20.376077
 20
26.450867
 30
0.0
 11
-24.986077
 21
26.450867
 31
0.0
  0
LINE
  5
14C
  8
DETAIL
  6
CONTINUOUS
 62
     5
 10
-20.376077
 20
25.980867
 30
0.0
 11
-24.986077
 21
25.980867
 31
0.0
  0
LINE
  5
14D
  8
DETAIL
  6
CONTINUOUS
 62
     5
 10
-19.906077
 20
27.500299
 30
0.0
 11
-19.906077
 21
23.91086699999998
 31
0.0
  0
LINE
  5
14E
  8
DETAIL
  6
CONTINUOUS
 62
     5
 10
-19.906077
 20
23.44086700000001
 30
0.0
 11
-19.906077
 21
22.500299
 31
0.0
  0
LINE
  5
14F
  8
DETAIL
  6
CONTINUOUS
 62
     5
 10
-20.376077
 20
27.500299
 30
0.0
 11
-20.376077
 21
23.91086699999998
 31
0.0
  0
LINE
  5
150
  8
DETAIL
  6
CONTINUOUS
 62
     5
 10
-20.376077
 20
23.44086700000001
 30
0.0
 11
-20.376077
 21
22.500299
 31
0.0
  0
LINE
  5
151
  8
DETAIL
  6
CONTINUOUS
 62
     5
 10
-17.836077
 20
23.91086699999998
 30
0.0
 11
-22.446077
 21
23.91086699999998
 31
0.0
  0
LINE
  5
152
  8
DETAIL
  6
CONTINUOUS
 62
     5
 10
-17.836077
 20
23.44086700000001
 30
0.0
 11
-22.446077
 21
23.44086700000001
 31
0.0
  0
LINE
  5
153
  8
DETAIL
  6
CONTINUOUS
 62
     5
 10
-17.36607700000001
 20
27.500299
 30
0.0
 11
-17.36607700000001
 21
26.450867
 31
0.0
  0
LINE
  5
154
  8
DETAIL
  6
CONTINUOUS
 62
     5
 10
-17.36607700000001
 20
25.980867
 30
0.0
 11
-17.36607700000001
 21
22.500299
 31
0.0
  0
LINE
  5
155
  8
DETAIL
  6
CONTINUOUS
 62
     5
 10
-17.836077
 20
27.500299
 30
0.0
 11
-17.836077
 21
26.450867
 31
0.0
  0
LINE
  5
156
  8
DETAIL
  6
CONTINUOUS
 62
     5
 10
-17.836077
 20
25.980867
 30
0.0
 11
-17.836077
 21
22.500299
 31
0.0
  0
LINE
  5
157
  8
DETAIL
  6
CONTINUOUS
 62
     5
 10
-15.296077
 20
26.450867
 30
0.0
 11
-19.906077
 21
26.450867
 31
0.0
  0
LINE
  5
158
  8
DETAIL
  6
CONTINUOUS
 62
     5
 10
-15.296077
 20
25.980867
 30
0.0
 11
-19.906077
 21
25.980867
 31
0.0
  0
LINE
  5
159
  8
DETAIL
  6
CONTINUOUS
 62
     5
 10
-14.82607700000001
 20
27.500299
 30
0.0
 11
-14.82607700000001
 21
23.91086699999998
 31
0.0
  0
LINE
  5
15A
  8
DETAIL
  6
CONTINUOUS
 62
     5
 10
-14.82607700000001
 20
23.44086700000001
 30
0.0
 11
-14.82607700000001
 21
22.500299
 31
0.0
  0
LINE
  5
15B
  8
DETAIL
  6
CONTINUOUS
 62
     5
 10
-15.296077
 20
27.500299
 30
0.0
 11
-15.296077
 21
23.91086699999998
 31
0.0
  0
LINE
  5
15C
  8
DETAIL
  6
CONTINUOUS
 62
     5
 10
-15.296077
 20
23.44086700000001
 30
0.0
 11
-15.296077
 21
22.500299
 31
0.0
  0
LINE
  5
15D
  8
DETAIL
  6
CONTINUOUS
 62
     5
 10
-12.756077
 20
23.44086700000001
 30
0.0
 11
-17.36607700000001
 21
23.44086700000001
 31
0.0
  0
LINE
  5
15E
  8
DETAIL
  6
CONTINUOUS
 62
     5
 10
-12.756077
 20
23.91086699999998
 30
0.0
 11
-17.36607700000001
 21
23.91086699999998
 31
0.0
  0
LINE
  5
15F
  8
DETAIL
  6
CONTINUOUS
 62
     5
 10
-12.28607700000001
 20
27.500299
 30
0.0
 11
-12.28607700000001
 21
26.450867
 31
0.0
  0
LINE
  5
160
  8
DETAIL
  6
CONTINUOUS
 62
     5
 10
-12.28607700000001
 20
25.980867
 30
0.0
 11
-12.28607700000001
 21
22.500299
 31
0.0
  0
LINE
  5
161
  8
DETAIL
  6
CONTINUOUS
 62
     5
 10
-12.756077
 20
27.500299
 30
0.0
 11
-12.756077
 21
26.450867
 31
0.0
  0
LINE
  5
162
  8
DETAIL
  6
CONTINUOUS
 62
     5
 10
-12.756077
 20
25.980867
 30
0.0
 11
-12.756077
 21
22.500299
 31
0.0
  0
LINE
  5
163
  8
DETAIL
  6
CONTINUOUS
 62
     5
 10
-10.21607700000001
 20
26.450867
 30
0.0
 11
-14.82607700000001
 21
26.450867
 31
0.0
  0
LINE
  5
164
  8
DETAIL
  6
CONTINUOUS
 62
     5
 10
-10.21607700000001
 20
25.980867
 30
0.0
 11
-14.82607700000001
 21
25.980867
 31
0.0
  0
LINE
  5
165
  8
DETAIL
  6
CONTINUOUS
 62
     5
 10
-9.746077
 20
27.500299
 30
0.0
 11
-9.746077
 21
23.91086699999998
 31
0.0
  0
LINE
  5
166
  8
DETAIL
  6
CONTINUOUS
 62
     5
 10
-9.746077
 20
23.44086700000001
 30
0.0
 11
-9.746077
 21
22.500299
 31
0.0
  0
LINE
  5
167
  8
DETAIL
  6
CONTINUOUS
 62
     5
 10
-10.21607700000001
 20
27.500299
 30
0.0
 11
-10.21607700000001
 21
23.91086699999998
 31
0.0
  0
LINE
  5
168
  8
DETAIL
  6
CONTINUOUS
 62
     5
 10
-10.21607700000001
 20
23.44086700000001
 30
0.0
 11
-10.21607700000001
 21
22.500299
 31
0.0
  0
LINE
  5
169
  8
DETAIL
  6
CONTINUOUS
 62
     5
 10
-7.206077000000001
 20
25.99423799999998
 30
0.0
 11
-7.206077000000001
 21
24.006359
 31
0.0
  0
LINE
  5
16A
  8
DETAIL
  6
CONTINUOUS
 62
     5
 10
-7.676076999999999
 20
26.71006600000001
 30
0.0
 11
-7.676076999999999
 21
26.450867
 31
0.0
  0
LINE
  5
16B
  8
DETAIL
  6
CONTINUOUS
 62
     5
 10
-7.676076999999999
 20
25.980867
 30
0.0
 11
-7.676076999999999
 21
23.29053199999998
 31
0.0
  0
LINE
  5
16C
  8
DETAIL
  6
CONTINUOUS
 62
     5
 10
-7.463864000000001
 20
26.450867
 30
0.0
 11
-9.746077
 21
26.450867
 31
0.0
  0
LINE
  5
16D
  8
DETAIL
  6
CONTINUOUS
 62
     5
 10
-7.200329000000004
 20
25.980867
 30
0.0
 11
-9.746077
 21
25.980867
 31
0.0
  0
LINE
  5
16E
  8
DETAIL
  6
CONTINUOUS
 62
     5
 10
-7.676076999999999
 20
23.91086699999998
 30
0.0
 11
-12.28607700000001
 21
23.91086699999998
 31
0.0
  0
LINE
  5
16F
  8
DETAIL
  6
CONTINUOUS
 62
     5
 10
-7.676076999999999
 20
23.44086700000001
 30
0.0
 11
-12.28607700000001
 21
23.44086700000001
 31
0.0
  0
LINE
  5
170
  8
DETAIL
  6
CONTINUOUS
 62
     5
 10
-30.06607700000001
 20
20.000299
 30
0.0
 11
-30.06607700000001
 21
18.830867
 31
0.0
  0
LINE
  5
171
  8
DETAIL
  6
CONTINUOUS
 62
     5
 10
-30.06607700000001
 20
18.360867
 30
0.0
 11
-30.06607700000001
 21
15.000299
 31
0.0
  0
LINE
  5
172
  8
DETAIL
  6
CONTINUOUS
 62
     5
 10
-30.536077
 20
19.77550100000001
 30
0.0
 11
-30.536077
 21
18.830867
 31
0.0
  0
LINE
  5
173
  8
DETAIL
  6
CONTINUOUS
 62
     5
 10
-30.536077
 20
18.360867
 30
0.0
 11
-30.536077
 21
15.22509599999999
 31
0.0
  0
LINE
  5
174
  8
DETAIL
  6
CONTINUOUS
 62
     5
 10
-31.687984
 20
16.29086700000001
 30
0.0
 11
-30.536077
 21
16.29086700000001
 31
0.0
  0
LINE
  5
175
  8
DETAIL
  6
CONTINUOUS
 62
     5
 10
-31.351894
 20
15.82086700000001
 30
0.0
 11
-30.536077
 21
15.82086700000001
 31
0.0
  0
LINE
  5
176
  8
DETAIL
  6
CONTINUOUS
 62
     5
 10
-27.996077
 20
20.000299
 30
0.0
 11
-27.996077
 21
16.29086700000001
 31
0.0
  0
LINE
  5
177
  8
DETAIL
  6
CONTINUOUS
 62
     5
 10
-27.996077
 20
15.82086700000001
 30
0.0
 11
-27.996077
 21
15.000299
 31
0.0
  0
LINE
  5
178
  8
DETAIL
  6
CONTINUOUS
 62
     5
 10
-27.526077
 20
20.000299
 30
0.0
 11
-27.526077
 21
16.29086700000001
 31
0.0
  0
LINE
  5
179
  8
DETAIL
  6
CONTINUOUS
 62
     5
 10
-27.526077
 20
15.82086700000001
 30
0.0
 11
-27.526077
 21
15.000299
 31
0.0
  0
LINE
  5
17A
  8
DETAIL
  6
CONTINUOUS
 62
     5
 10
-31.847216
 20
18.360867
 30
0.0
 11
-27.996077
 21
18.360867
 31
0.0
  0
LINE
  5
17B
  8
DETAIL
  6
CONTINUOUS
 62
     5
 10
-31.616504
 20
18.830867
 30
0.0
 11
-27.996077
 21
18.830867
 31
0.0
  0
LINE
  5
17C
  8
DETAIL
  6
CONTINUOUS
 62
     5
 10
-25.456077
 20
20.000299
 30
0.0
 11
-25.456077
 21
18.830867
 31
0.0
  0
LINE
  5
17D
  8
DETAIL
  6
CONTINUOUS
 62
     5
 10
-25.456077
 20
18.360867
 30
0.0
 11
-25.456077
 21
15.000299
 31
0.0
  0
LINE
  5
17E
  8
DETAIL
  6
CONTINUOUS
 62
     5
 10
-24.986077
 20
20.000299
 30
0.0
 11
-24.986077
 21
18.830867
 31
0.0
  0
LINE
  5
17F
  8
DETAIL
  6
CONTINUOUS
 62
     5
 10
-24.986077
 20
18.360867
 30
0.0
 11
-24.986077
 21
15.000299
 31
0.0
  0
LINE
  5
180
  8
DETAIL
  6
CONTINUOUS
 62
     5
 10
-30.06607700000001
 20
16.29086700000001
 30
0.0
 11
-25.456077
 21
16.29086700000001
 31
0.0
  0
LINE
  5
181
  8
DETAIL
  6
CONTINUOUS
 62
     5
 10
-30.06607700000001
 20
15.82086700000001
 30
0.0
 11
-25.456077
 21
15.82086700000001
 31
0.0
  0
LINE
  5
182
  8
DETAIL
  6
CONTINUOUS
 62
     5
 10
-22.916077
 20
20.000299
 30
0.0
 11
-22.916077
 21
16.29086700000001
 31
0.0
  0
LINE
  5
183
  8
DETAIL
  6
CONTINUOUS
 62
     5
 10
-22.916077
 20
15.82086700000001
 30
0.0
 11
-22.916077
 21
15.000299
 31
0.0
  0
LINE
  5
184
  8
DETAIL
  6
CONTINUOUS
 62
     5
 10
-22.446077
 20
20.000299
 30
0.0
 11
-22.446077
 21
16.29086700000001
 31
0.0
  0
LINE
  5
185
  8
DETAIL
  6
CONTINUOUS
 62
     5
 10
-22.446077
 20
15.82086700000001
 30
0.0
 11
-22.446077
 21
15.000299
 31
0.0
  0
LINE
  5
186
  8
DETAIL
  6
CONTINUOUS
 62
     5
 10
-27.526077
 20
18.830867
 30
0.0
 11
-22.916077
 21
18.830867
 31
0.0
  0
LINE
  5
187
  8
DETAIL
  6
CONTINUOUS
 62
     5
 10
-27.526077
 20
18.360867
 30
0.0
 11
-22.916077
 21
18.360867
 31
0.0
  0
LINE
  5
188
  8
DETAIL
  6
CONTINUOUS
 62
     5
 10
-20.376077
 20
20.000299
 30
0.0
 11
-20.376077
 21
18.830867
 31
0.0
  0
LINE
  5
189
  8
DETAIL
  6
CONTINUOUS
 62
     5
 10
-20.376077
 20
18.360867
 30
0.0
 11
-20.376077
 21
15.000299
 31
0.0
  0
LINE
  5
18A
  8
DETAIL
  6
CONTINUOUS
 62
     5
 10
-19.906077
 20
20.000299
 30
0.0
 11
-19.906077
 21
18.830867
 31
0.0
  0
LINE
  5
18B
  8
DETAIL
  6
CONTINUOUS
 62
     5
 10
-19.906077
 20
18.360867
 30
0.0
 11
-19.906077
 21
15.000299
 31
0.0
  0
LINE
  5
18C
  8
DETAIL
  6
CONTINUOUS
 62
     5
 10
-24.986077
 20
16.29086700000001
 30
0.0
 11
-20.376077
 21
16.29086700000001
 31
0.0
  0
LINE
  5
18D
  8
DETAIL
  6
CONTINUOUS
 62
     5
 10
-24.986077
 20
15.82086700000001
 30
0.0
 11
-20.376077
 21
15.82086700000001
 31
0.0
  0
LINE
  5
18E
  8
DETAIL
  6
CONTINUOUS
 62
     5
 10
-17.836077
 20
20.000299
 30
0.0
 11
-17.836077
 21
16.29086700000001
 31
0.0
  0
LINE
  5
18F
  8
DETAIL
  6
CONTINUOUS
 62
     5
 10
-17.836077
 20
15.82086700000001
 30
0.0
 11
-17.836077
 21
15.000299
 31
0.0
  0
LINE
  5
190
  8
DETAIL
  6
CONTINUOUS
 62
     5
 10
-17.36607700000001
 20
20.000299
 30
0.0
 11
-17.36607700000001
 21
16.29086700000001
 31
0.0
  0
LINE
  5
191
  8
DETAIL
  6
CONTINUOUS
 62
     5
 10
-17.36607700000001
 20
15.82086700000001
 30
0.0
 11
-17.36607700000001
 21
15.000299
 31
0.0
  0
LINE
  5
192
  8
DETAIL
  6
CONTINUOUS
 62
     5
 10
-22.446077
 20
18.360867
 30
0.0
 11
-17.836077
 21
18.360867
 31
0.0
  0
LINE
  5
193
  8
DETAIL
  6
CONTINUOUS
 62
     5
 10
-22.446077
 20
18.830867
 30
0.0
 11
-17.836077
 21
18.830867
 31
0.0
  0
LINE
  5
194
  8
DETAIL
  6
CONTINUOUS
 62
     5
 10
-15.296077
 20
20.000299
 30
0.0
 11
-15.296077
 21
18.830867
 31
0.0
  0
LINE
  5
195
  8
DETAIL
  6
CONTINUOUS
 62
     5
 10
-15.296077
 20
18.360867
 30
0.0
 11
-15.296077
 21
15.000299
 31
0.0
  0
LINE
  5
196
  8
DETAIL
  6
CONTINUOUS
 62
     5
 10
-14.82607700000001
 20
20.000299
 30
0.0
 11
-14.82607700000001
 21
18.830867
 31
0.0
  0
LINE
  5
197
  8
DETAIL
  6
CONTINUOUS
 62
     5
 10
-14.82607700000001
 20
18.360867
 30
0.0
 11
-14.82607700000001
 21
15.000299
 31
0.0
  0
LINE
  5
198
  8
DETAIL
  6
CONTINUOUS
 62
     5
 10
-19.906077
 20
16.29086700000001
 30
0.0
 11
-15.296077
 21
16.29086700000001
 31
0.0
  0
LINE
  5
199
  8
DETAIL
  6
CONTINUOUS
 62
     5
 10
-19.906077
 20
15.82086700000001
 30
0.0
 11
-15.296077
 21
15.82086700000001
 31
0.0
  0
LINE
  5
19A
  8
DETAIL
  6
CONTINUOUS
 62
     5
 10
-12.756077
 20
20.000299
 30
0.0
 11
-12.756077
 21
16.29086700000001
 31
0.0
  0
LINE
  5
19B
  8
DETAIL
  6
CONTINUOUS
 62
     5
 10
-12.756077
 20
15.82086700000001
 30
0.0
 11
-12.756077
 21
15.000299
 31
0.0
  0
LINE
  5
19C
  8
DETAIL
  6
CONTINUOUS
 62
     5
 10
-12.28607700000001
 20
20.000299
 30
0.0
 11
-12.28607700000001
 21
16.29086700000001
 31
0.0
  0
LINE
  5
19D
  8
DETAIL
  6
CONTINUOUS
 62
     5
 10
-12.28607700000001
 20
15.82086700000001
 30
0.0
 11
-12.28607700000001
 21
15.000299
 31
0.0
  0
LINE
  5
19E
  8
DETAIL
  6
CONTINUOUS
 62
     5
 10
-17.36607700000001
 20
18.360867
 30
0.0
 11
-12.756077
 21
18.360867
 31
0.0
  0
LINE
  5
19F
  8
DETAIL
  6
CONTINUOUS
 62
     5
 10
-17.36607700000001
 20
18.830867
 30
0.0
 11
-12.756077
 21
18.830867
 31
0.0
  0
LINE
  5
1A0
  8
DETAIL
  6
CONTINUOUS
 62
     5
 10
-10.21607700000001
 20
20.000299
 30
0.0
 11
-10.21607700000001
 21
18.830867
 31
0.0
  0
LINE
  5
1A1
  8
DETAIL
  6
CONTINUOUS
 62
     5
 10
-9.746077
 20
20.000299
 30
0.0
 11
-9.746077
 21
18.830867
 31
0.0
  0
LINE
  5
1A2
  8
DETAIL
  6
CONTINUOUS
 62
     5
 10
-14.82607700000001
 20
16.29086700000001
 30
0.0
 11
-10.21607700000001
 21
16.29086700000001
 31
0.0
  0
LINE
  5
1A3
  8
DETAIL
  6
CONTINUOUS
 62
     5
 10
-14.82607700000001
 20
15.82086700000001
 30
0.0
 11
-10.21607700000001
 21
15.82086700000001
 31
0.0
  0
LINE
  5
1A4
  8
DETAIL
  6
CONTINUOUS
 62
     5
 10
-9.746077
 20
15.82086700000001
 30
0.0
 11
-7.648106000000006
 21
15.82086700000001
 31
0.0
  0
LINE
  5
1A5
  8
DETAIL
  6
CONTINUOUS
 62
     5
 10
-9.746077
 20
18.360867
 30
0.0
 11
-9.746077
 21
15.000299
 31
0.0
  0
LINE
  5
1A6
  8
DETAIL
  6
CONTINUOUS
 62
     5
 10
-10.21607700000001
 20
18.360867
 30
0.0
 11
-10.21607700000001
 21
15.000299
 31
0.0
  0
LINE
  5
1A7
  8
DETAIL
  6
CONTINUOUS
 62
     5
 10
-12.28607700000001
 20
18.360867
 30
0.0
 11
-7.676076999999999
 21
18.360867
 31
0.0
  0
LINE
  5
1A8
  8
DETAIL
  6
CONTINUOUS
 62
     5
 10
-7.206077000000001
 20
18.360867
 30
0.0
 11
-7.152784000000004
 21
18.360867
 31
0.0
  0
LINE
  5
1A9
  8
DETAIL
  6
CONTINUOUS
 62
     5
 10
-12.28607700000001
 20
18.830867
 30
0.0
 11
-7.676076999999999
 21
18.830867
 31
0.0
  0
LINE
  5
1AA
  8
DETAIL
  6
CONTINUOUS
 62
     5
 10
-9.746077
 20
16.29086700000001
 30
0.0
 11
-7.312016
 21
16.29086700000001
 31
0.0
  0
LINE
  5
1AB
  8
DETAIL
  6
CONTINUOUS
 62
     5
 10
-7.206077000000001
 20
18.494238
 30
0.0
 11
-7.206077000000001
 21
16.506359
 31
0.0
  0
LINE
  5
1AC
  8
DETAIL
  6
CONTINUOUS
 62
     5
 10
-7.676076999999999
 20
19.210066
 30
0.0
 11
-7.676076999999999
 21
16.29086700000001
 31
0.0
  0
ARC
  5
1AD
  8
DETAIL
  6
CONTINUOUS
 62
     5
 10
-29.5
 20
32.500299
 30
0.0
 40
2.5
 50
90.0
 51
270.0
  0
ARC
  5
1AE
  8
DETAIL
  6
CONTINUOUS
 62
     5
 10
-9.5
 20
32.500299
 30
0.0
 40
2.5
 50
270.0
 51
90.0
  0
ARC
  5
1AF
  8
DETAIL
  6
CONTINUOUS
 62
     5
 10
-29.5
 20
25.000299
 30
0.0
 40
2.5
 50
90.0
 51
270.0
  0
ARC
  5
1B0
  8
DETAIL
  6
CONTINUOUS
 62
     5
 10
-9.5
 20
25.000299
 30
0.0
 40
2.5
 50
270.0
 51
90.0
  0
ARC
  5
1B1
  8
DETAIL
  6
CONTINUOUS
 62
     5
 10
-29.5
 20
17.500299
 30
0.0
 40
2.5
 50
90.0
 51
270.0
  0
LINE
  5
1B2
  8
DETAIL
  6
CONTINUOUS
 62
     5
 10
-29.5
 20
15.000299
 30
0.0
 11
-9.5
 21
15.000299
 31
0.0
  0
ARC
  5
1B3
  8
DETAIL
  6
CONTINUOUS
 62
     5
 10
-9.5
 20
17.500299
 30
0.0
 40
2.5
 50
270.0
 51
90.0
  0
LINE
  5
1B4
  8
DETAIL
  6
CONTINUOUS
 62
     5
 10
-29.5
 20
20.000299
 30
0.0
 11
-9.5
 21
20.000299
 31
0.0
  0
LINE
  5
1B5
  8
DETAIL
  6
CONTINUOUS
 62
     5
 10
-29.5
 20
27.500299
 30
0.0
 11
-9.5
 21
27.500299
 31
0.0
  0
LINE
  5
1B6
  8
DETAIL
  6
CONTINUOUS
 62
     5
 10
-29.5
 20
22.500299
 30
0.0
 11
-9.5
 21
22.500299
 31
0.0
  0
LINE
  5
1B7
  8
DETAIL
  6
CONTINUOUS
 62
     5
 10
-29.5
 20
35.000299
 30
0.0
 11
-9.5
 21
35.000299
 31
0.0
  0
LINE
  5
1B8
  8
DETAIL
  6
CONTINUOUS
 62
     5
 10
-29.5
 20
30.000299
 30
0.0
 11
-9.5
 21
30.000299
 31
0.0
  0
LINE
  5
1B9
  8
DETAIL
  6
CONTINUOUS
 62
     5
 10
-29.5
 20
37.500299
 30
0.0
 11
-9.5
 21
37.500299
 31
0.0
  0
LINE
  5
1BA
  8
DETAIL
  6
CONTINUOUS
 62
     5
 10
-30.06607700000001
 20
80.00029899999993
 30
0.0
 11
-30.06607700000001
 21
78.83086699999993
 31
0.0
  0
LINE
  5
1BB
  8
DETAIL
  6
CONTINUOUS
 62
     5
 10
-30.06607700000001
 20
78.36086699999993
 30
0.0
 11
-30.06607700000001
 21
75.00029899999993
 31
0.0
  0
LINE
  5
1BC
  8
DETAIL
  6
CONTINUOUS
 62
     5
 10
-30.536077
 20
79.77550100000002
 30
0.0
 11
-30.536077
 21
78.83086699999993
 31
0.0
  0
LINE
  5
1BD
  8
DETAIL
  6
CONTINUOUS
 62
     5
 10
-30.536077
 20
78.36086699999993
 30
0.0
 11
-30.536077
 21
75.22509599999992
 31
0.0
  0
LINE
  5
1BE
  8
DETAIL
  6
CONTINUOUS
 62
     5
 10
-31.687984
 20
76.29086699999993
 30
0.0
 11
-30.536077
 21
76.29086699999993
 31
0.0
  0
LINE
  5
1BF
  8
DETAIL
  6
CONTINUOUS
 62
     5
 10
-31.351894
 20
75.82086700000002
 30
0.0
 11
-30.536077
 21
75.82086700000002
 31
0.0
  0
LINE
  5
1C0
  8
DETAIL
  6
CONTINUOUS
 62
     5
 10
-27.996077
 20
80.00029899999993
 30
0.0
 11
-27.996077
 21
76.29086699999993
 31
0.0
  0
LINE
  5
1C1
  8
DETAIL
  6
CONTINUOUS
 62
     5
 10
-27.996077
 20
75.82086700000002
 30
0.0
 11
-27.996077
 21
75.00029899999993
 31
0.0
  0
LINE
  5
1C2
  8
DETAIL
  6
CONTINUOUS
 62
     5
 10
-27.526077
 20
80.00029899999993
 30
0.0
 11
-27.526077
 21
76.29086699999993
 31
0.0
  0
LINE
  5
1C3
  8
DETAIL
  6
CONTINUOUS
 62
     5
 10
-27.526077
 20
75.82086700000002
 30
0.0
 11
-27.526077
 21
75.00029899999993
 31
0.0
  0
LINE
  5
1C4
  8
DETAIL
  6
CONTINUOUS
 62
     5
 10
-31.847216
 20
78.36086699999993
 30
0.0
 11
-27.996077
 21
78.36086699999993
 31
0.0
  0
LINE
  5
1C5
  8
DETAIL
  6
CONTINUOUS
 62
     5
 10
-31.616504
 20
78.83086699999993
 30
0.0
 11
-27.996077
 21
78.83086699999993
 31
0.0
  0
LINE
  5
1C6
  8
DETAIL
  6
CONTINUOUS
 62
     5
 10
-25.456077
 20
80.00029899999993
 30
0.0
 11
-25.456077
 21
78.83086699999993
 31
0.0
  0
LINE
  5
1C7
  8
DETAIL
  6
CONTINUOUS
 62
     5
 10
-25.456077
 20
78.36086699999993
 30
0.0
 11
-25.456077
 21
75.00029899999993
 31
0.0
  0
LINE
  5
1C8
  8
DETAIL
  6
CONTINUOUS
 62
     5
 10
-24.986077
 20
80.00029899999993
 30
0.0
 11
-24.986077
 21
78.83086699999993
 31
0.0
  0
LINE
  5
1C9
  8
DETAIL
  6
CONTINUOUS
 62
     5
 10
-24.986077
 20
78.36086699999993
 30
0.0
 11
-24.986077
 21
75.00029899999993
 31
0.0
  0
LINE
  5
1CA
  8
DETAIL
  6
CONTINUOUS
 62
     5
 10
-30.06607700000001
 20
76.29086699999993
 30
0.0
 11
-25.456077
 21
76.29086699999993
 31
0.0
  0
LINE
  5
1CB
  8
DETAIL
  6
CONTINUOUS
 62
     5
 10
-30.06607700000001
 20
75.82086700000002
 30
0.0
 11
-25.456077
 21
75.82086700000002
 31
0.0
  0
LINE
  5
1CC
  8
DETAIL
  6
CONTINUOUS
 62
     5
 10
-22.916077
 20
80.00029899999993
 30
0.0
 11
-22.916077
 21
76.29086699999993
 31
0.0
  0
LINE
  5
1CD
  8
DETAIL
  6
CONTINUOUS
 62
     5
 10
-22.916077
 20
75.82086700000002
 30
0.0
 11
-22.916077
 21
75.00029899999993
 31
0.0
  0
LINE
  5
1CE
  8
DETAIL
  6
CONTINUOUS
 62
     5
 10
-22.446077
 20
80.00029899999993
 30
0.0
 11
-22.446077
 21
76.29086699999993
 31
0.0
  0
LINE
  5
1CF
  8
DETAIL
  6
CONTINUOUS
 62
     5
 10
-22.446077
 20
75.82086700000002
 30
0.0
 11
-22.446077
 21
75.00029899999993
 31
0.0
  0
LINE
  5
1D0
  8
DETAIL
  6
CONTINUOUS
 62
     5
 10
-27.526077
 20
78.83086699999993
 30
0.0
 11
-22.916077
 21
78.83086699999993
 31
0.0
  0
LINE
  5
1D1
  8
DETAIL
  6
CONTINUOUS
 62
     5
 10
-27.526077
 20
78.36086699999993
 30
0.0
 11
-22.916077
 21
78.36086699999993
 31
0.0
  0
LINE
  5
1D2
  8
DETAIL
  6
CONTINUOUS
 62
     5
 10
-20.376077
 20
80.00029899999993
 30
0.0
 11
-20.376077
 21
78.83086699999993
 31
0.0
  0
LINE
  5
1D3
  8
DETAIL
  6
CONTINUOUS
 62
     5
 10
-20.376077
 20
78.36086699999993
 30
0.0
 11
-20.376077
 21
75.00029899999993
 31
0.0
  0
LINE
  5
1D4
  8
DETAIL
  6
CONTINUOUS
 62
     5
 10
-19.906077
 20
80.00029899999993
 30
0.0
 11
-19.906077
 21
78.83086699999993
 31
0.0
  0
LINE
  5
1D5
  8
DETAIL
  6
CONTINUOUS
 62
     5
 10
-19.906077
 20
78.36086699999993
 30
0.0
 11
-19.906077
 21
75.00029899999993
 31
0.0
  0
LINE
  5
1D6
  8
DETAIL
  6
CONTINUOUS
 62
     5
 10
-24.986077
 20
76.29086699999993
 30
0.0
 11
-20.376077
 21
76.29086699999993
 31
0.0
  0
LINE
  5
1D7
  8
DETAIL
  6
CONTINUOUS
 62
     5
 10
-24.986077
 20
75.82086700000002
 30
0.0
 11
-20.376077
 21
75.82086700000002
 31
0.0
  0
LINE
  5
1D8
  8
DETAIL
  6
CONTINUOUS
 62
     5
 10
-17.836077
 20
80.00029899999993
 30
0.0
 11
-17.836077
 21
76.29086699999993
 31
0.0
  0
LINE
  5
1D9
  8
DETAIL
  6
CONTINUOUS
 62
     5
 10
-17.836077
 20
75.82086700000002
 30
0.0
 11
-17.836077
 21
75.00029899999993
 31
0.0
  0
LINE
  5
1DA
  8
DETAIL
  6
CONTINUOUS
 62
     5
 10
-17.36607700000001
 20
80.00029899999993
 30
0.0
 11
-17.36607700000001
 21
76.29086699999993
 31
0.0
  0
LINE
  5
1DB
  8
DETAIL
  6
CONTINUOUS
 62
     5
 10
-17.36607700000001
 20
75.82086700000002
 30
0.0
 11
-17.36607700000001
 21
75.00029899999993
 31
0.0
  0
LINE
  5
1DC
  8
DETAIL
  6
CONTINUOUS
 62
     5
 10
-22.446077
 20
78.36086699999993
 30
0.0
 11
-17.836077
 21
78.36086699999993
 31
0.0
  0
LINE
  5
1DD
  8
DETAIL
  6
CONTINUOUS
 62
     5
 10
-22.446077
 20
78.83086699999993
 30
0.0
 11
-17.836077
 21
78.83086699999993
 31
0.0
  0
LINE
  5
1DE
  8
DETAIL
  6
CONTINUOUS
 62
     5
 10
-15.296077
 20
80.00029899999993
 30
0.0
 11
-15.296077
 21
78.83086699999993
 31
0.0
  0
LINE
  5
1DF
  8
DETAIL
  6
CONTINUOUS
 62
     5
 10
-15.296077
 20
78.36086699999993
 30
0.0
 11
-15.296077
 21
75.00029899999993
 31
0.0
  0
LINE
  5
1E0
  8
DETAIL
  6
CONTINUOUS
 62
     5
 10
-14.82607700000001
 20
80.00029899999993
 30
0.0
 11
-14.82607700000001
 21
78.83086699999993
 31
0.0
  0
LINE
  5
1E1
  8
DETAIL
  6
CONTINUOUS
 62
     5
 10
-14.82607700000001
 20
78.36086699999993
 30
0.0
 11
-14.82607700000001
 21
75.00029899999993
 31
0.0
  0
LINE
  5
1E2
  8
DETAIL
  6
CONTINUOUS
 62
     5
 10
-19.906077
 20
76.29086699999993
 30
0.0
 11
-15.296077
 21
76.29086699999993
 31
0.0
  0
LINE
  5
1E3
  8
DETAIL
  6
CONTINUOUS
 62
     5
 10
-19.906077
 20
75.82086700000002
 30
0.0
 11
-15.296077
 21
75.82086700000002
 31
0.0
  0
LINE
  5
1E4
  8
DETAIL
  6
CONTINUOUS
 62
     5
 10
-12.756077
 20
80.00029899999993
 30
0.0
 11
-12.756077
 21
76.29086699999993
 31
0.0
  0
LINE
  5
1E5
  8
DETAIL
  6
CONTINUOUS
 62
     5
 10
-12.756077
 20
75.82086700000002
 30
0.0
 11
-12.756077
 21
75.00029899999993
 31
0.0
  0
LINE
  5
1E6
  8
DETAIL
  6
CONTINUOUS
 62
     5
 10
-12.28607700000001
 20
80.00029899999993
 30
0.0
 11
-12.28607700000001
 21
76.29086699999993
 31
0.0
  0
LINE
  5
1E7
  8
DETAIL
  6
CONTINUOUS
 62
     5
 10
-12.28607700000001
 20
75.82086700000002
 30
0.0
 11
-12.28607700000001
 21
75.00029899999993
 31
0.0
  0
LINE
  5
1E8
  8
DETAIL
  6
CONTINUOUS
 62
     5
 10
-17.36607700000001
 20
78.36086699999993
 30
0.0
 11
-12.756077
 21
78.36086699999993
 31
0.0
  0
LINE
  5
1E9
  8
DETAIL
  6
CONTINUOUS
 62
     5
 10
-17.36607700000001
 20
78.83086699999993
 30
0.0
 11
-12.756077
 21
78.83086699999993
 31
0.0
  0
LINE
  5
1EA
  8
DETAIL
  6
CONTINUOUS
 62
     5
 10
-10.21607700000001
 20
80.00029899999993
 30
0.0
 11
-10.21607700000001
 21
78.83086699999993
 31
0.0
  0
LINE
  5
1EB
  8
DETAIL
  6
CONTINUOUS
 62
     5
 10
-9.746077
 20
80.00029899999993
 30
0.0
 11
-9.746077
 21
78.83086699999993
 31
0.0
  0
LINE
  5
1EC
  8
DETAIL
  6
CONTINUOUS
 62
     5
 10
-14.82607700000001
 20
76.29086699999993
 30
0.0
 11
-10.21607700000001
 21
76.29086699999993
 31
0.0
  0
LINE
  5
1ED
  8
DETAIL
  6
CONTINUOUS
 62
     5
 10
-14.82607700000001
 20
75.82086700000002
 30
0.0
 11
-10.21607700000001
 21
75.82086700000002
 31
0.0
  0
LINE
  5
1EE
  8
DETAIL
  6
CONTINUOUS
 62
     5
 10
-9.746077
 20
75.82086700000002
 30
0.0
 11
-7.648106000000006
 21
75.82086700000002
 31
0.0
  0
LINE
  5
1EF
  8
DETAIL
  6
CONTINUOUS
 62
     5
 10
-9.746077
 20
78.36086699999993
 30
0.0
 11
-9.746077
 21
75.00029899999993
 31
0.0
  0
LINE
  5
1F0
  8
DETAIL
  6
CONTINUOUS
 62
     5
 10
-10.21607700000001
 20
78.36086699999993
 30
0.0
 11
-10.21607700000001
 21
75.00029899999993
 31
0.0
  0
LINE
  5
1F1
  8
DETAIL
  6
CONTINUOUS
 62
     5
 10
-12.28607700000001
 20
78.36086699999993
 30
0.0
 11
-7.676076999999999
 21
78.36086699999993
 31
0.0
  0
LINE
  5
1F2
  8
DETAIL
  6
CONTINUOUS
 62
     5
 10
-7.206077000000001
 20
78.36086699999993
 30
0.0
 11
-7.152784000000004
 21
78.36086699999993
 31
0.0
  0
LINE
  5
1F3
  8
DETAIL
  6
CONTINUOUS
 62
     5
 10
-12.28607700000001
 20
78.83086699999993
 30
0.0
 11
-7.676076999999999
 21
78.83086699999993
 31
0.0
  0
LINE
  5
1F4
  8
DETAIL
  6
CONTINUOUS
 62
     5
 10
-9.746077
 20
76.29086699999993
 30
0.0
 11
-7.312016
 21
76.29086699999993
 31
0.0
  0
LINE
  5
1F5
  8
DETAIL
  6
CONTINUOUS
 62
     5
 10
-7.206077000000001
 20
78.49423799999994
 30
0.0
 11
-7.206077000000001
 21
76.50635899999992
 31
0.0
  0
LINE
  5
1F6
  8
DETAIL
  6
CONTINUOUS
 62
     5
 10
-7.676076999999999
 20
79.21006599999993
 30
0.0
 11
-7.676076999999999
 21
76.29086699999993
 31
0.0
  0
LINE
  5
1F7
  8
DETAIL
  6
CONTINUOUS
 62
     5
 10
-30.536077
 20
70.98086699999993
 30
0.0
 11
-31.79967100000001
 21
70.98086699999993
 31
0.0
  0
LINE
  5
1F8
  8
DETAIL
  6
CONTINUOUS
 62
     5
 10
-30.536077
 20
71.45086699999993
 30
0.0
 11
-31.536136
 21
71.45086699999993
 31
0.0
  0
LINE
  5
1F9
  8
DETAIL
  6
CONTINUOUS
 62
     5
 10
-30.536077
 20
72.27550099999993
 30
0.0
 11
-30.536077
 21
68.91086699999993
 31
0.0
  0
LINE
  5
1FA
  8
DETAIL
  6
CONTINUOUS
 62
     5
 10
-30.06607700000001
 20
72.43536699999993
 30
0.0
 11
-30.06607700000001
 21
68.91086699999993
 31
0.0
  0
LINE
  5
1FB
  8
DETAIL
  6
CONTINUOUS
 62
     5
 10
-27.526077
 20
72.50029899999993
 30
0.0
 11
-27.526077
 21
71.45086699999993
 31
0.0
  0
LINE
  5
1FC
  8
DETAIL
  6
CONTINUOUS
 62
     5
 10
-27.996077
 20
72.50029899999993
 30
0.0
 11
-27.996077
 21
71.45086699999993
 31
0.0
  0
LINE
  5
1FD
  8
DETAIL
  6
CONTINUOUS
 62
     5
 10
-27.996077
 20
70.98086699999993
 30
0.0
 11
-27.996077
 21
67.50029899999993
 31
0.0
  0
LINE
  5
1FE
  8
DETAIL
  6
CONTINUOUS
 62
     5
 10
-27.526077
 20
70.98086699999993
 30
0.0
 11
-27.526077
 21
67.50029899999993
 31
0.0
  0
LINE
  5
1FF
  8
DETAIL
  6
CONTINUOUS
 62
     5
 10
-30.06607700000001
 20
68.44086699999993
 30
0.0
 11
-30.06607700000001
 21
67.56522999999993
 31
0.0
  0
LINE
  5
200
  8
DETAIL
  6
CONTINUOUS
 62
     5
 10
-30.536077
 20
68.44086699999993
 30
0.0
 11
-30.536077
 21
67.72509599999992
 31
0.0
  0
LINE
  5
201
  8
DETAIL
  6
CONTINUOUS
 62
     5
 10
-27.996077
 20
68.91086699999993
 30
0.0
 11
-31.750142
 21
68.91086699999993
 31
0.0
  0
LINE
  5
202
  8
DETAIL
  6
CONTINUOUS
 62
     5
 10
-27.996077
 20
68.44086699999993
 30
0.0
 11
-31.454015
 21
68.44086699999993
 31
0.0
  0
LINE
  5
203
  8
DETAIL
  6
CONTINUOUS
 62
     5
 10
-25.456077
 20
71.45086699999993
 30
0.0
 11
-30.06607700000001
 21
71.45086699999993
 31
0.0
  0
LINE
  5
204
  8
DETAIL
  6
CONTINUOUS
 62
     5
 10
-25.456077
 20
70.98086699999993
 30
0.0
 11
-30.06607700000001
 21
70.98086699999993
 31
0.0
  0
LINE
  5
205
  8
DETAIL
  6
CONTINUOUS
 62
     5
 10
-24.986077
 20
72.50029899999993
 30
0.0
 11
-24.986077
 21
68.91086699999993
 31
0.0
  0
LINE
  5
206
  8
DETAIL
  6
CONTINUOUS
 62
     5
 10
-24.986077
 20
68.44086699999993
 30
0.0
 11
-24.986077
 21
67.50029899999993
 31
0.0
  0
LINE
  5
207
  8
DETAIL
  6
CONTINUOUS
 62
     5
 10
-25.456077
 20
72.50029899999993
 30
0.0
 11
-25.456077
 21
68.91086699999993
 31
0.0
  0
LINE
  5
208
  8
DETAIL
  6
CONTINUOUS
 62
     5
 10
-25.456077
 20
68.44086699999993
 30
0.0
 11
-25.456077
 21
67.50029899999993
 31
0.0
  0
LINE
  5
209
  8
DETAIL
  6
CONTINUOUS
 62
     5
 10
-22.916077
 20
68.91086699999993
 30
0.0
 11
-27.526077
 21
68.91086699999993
 31
0.0
  0
LINE
  5
20A
  8
DETAIL
  6
CONTINUOUS
 62
     5
 10
-22.916077
 20
68.44086699999993
 30
0.0
 11
-27.526077
 21
68.44086699999993
 31
0.0
  0
LINE
  5
20B
  8
DETAIL
  6
CONTINUOUS
 62
     5
 10
-22.446077
 20
72.50029899999993
 30
0.0
 11
-22.446077
 21
71.45086699999993
 31
0.0
  0
LINE
  5
20C
  8
DETAIL
  6
CONTINUOUS
 62
     5
 10
-22.446077
 20
70.98086699999993
 30
0.0
 11
-22.446077
 21
67.50029899999993
 31
0.0
  0
LINE
  5
20D
  8
DETAIL
  6
CONTINUOUS
 62
     5
 10
-22.916077
 20
72.50029899999993
 30
0.0
 11
-22.916077
 21
71.45086699999993
 31
0.0
  0
LINE
  5
20E
  8
DETAIL
  6
CONTINUOUS
 62
     5
 10
-22.916077
 20
70.98086699999993
 30
0.0
 11
-22.916077
 21
67.50029899999993
 31
0.0
  0
LINE
  5
20F
  8
DETAIL
  6
CONTINUOUS
 62
     5
 10
-20.376077
 20
71.45086699999993
 30
0.0
 11
-24.986077
 21
71.45086699999993
 31
0.0
  0
LINE
  5
210
  8
DETAIL
  6
CONTINUOUS
 62
     5
 10
-20.376077
 20
70.98086699999993
 30
0.0
 11
-24.986077
 21
70.98086699999993
 31
0.0
  0
LINE
  5
211
  8
DETAIL
  6
CONTINUOUS
 62
     5
 10
-19.906077
 20
72.50029899999993
 30
0.0
 11
-19.906077
 21
68.91086699999993
 31
0.0
  0
LINE
  5
212
  8
DETAIL
  6
CONTINUOUS
 62
     5
 10
-19.906077
 20
68.44086699999993
 30
0.0
 11
-19.906077
 21
67.50029899999993
 31
0.0
  0
LINE
  5
213
  8
DETAIL
  6
CONTINUOUS
 62
     5
 10
-20.376077
 20
72.50029899999993
 30
0.0
 11
-20.376077
 21
68.91086699999993
 31
0.0
  0
LINE
  5
214
  8
DETAIL
  6
CONTINUOUS
 62
     5
 10
-20.376077
 20
68.44086699999993
 30
0.0
 11
-20.376077
 21
67.50029899999993
 31
0.0
  0
LINE
  5
215
  8
DETAIL
  6
CONTINUOUS
 62
     5
 10
-17.836077
 20
68.91086699999993
 30
0.0
 11
-22.446077
 21
68.91086699999993
 31
0.0
  0
LINE
  5
216
  8
DETAIL
  6
CONTINUOUS
 62
     5
 10
-17.836077
 20
68.44086699999993
 30
0.0
 11
-22.446077
 21
68.44086699999993
 31
0.0
  0
LINE
  5
217
  8
DETAIL
  6
CONTINUOUS
 62
     5
 10
-17.36607700000001
 20
72.50029899999993
 30
0.0
 11
-17.36607700000001
 21
71.45086699999993
 31
0.0
  0
LINE
  5
218
  8
DETAIL
  6
CONTINUOUS
 62
     5
 10
-17.36607700000001
 20
70.98086699999993
 30
0.0
 11
-17.36607700000001
 21
67.50029899999993
 31
0.0
  0
LINE
  5
219
  8
DETAIL
  6
CONTINUOUS
 62
     5
 10
-17.836077
 20
72.50029899999993
 30
0.0
 11
-17.836077
 21
71.45086699999993
 31
0.0
  0
LINE
  5
21A
  8
DETAIL
  6
CONTINUOUS
 62
     5
 10
-17.836077
 20
70.98086699999993
 30
0.0
 11
-17.836077
 21
67.50029899999993
 31
0.0
  0
LINE
  5
21B
  8
DETAIL
  6
CONTINUOUS
 62
     5
 10
-15.296077
 20
71.45086699999993
 30
0.0
 11
-19.906077
 21
71.45086699999993
 31
0.0
  0
LINE
  5
21C
  8
DETAIL
  6
CONTINUOUS
 62
     5
 10
-15.296077
 20
70.98086699999993
 30
0.0
 11
-19.906077
 21
70.98086699999993
 31
0.0
  0
LINE
  5
21D
  8
DETAIL
  6
CONTINUOUS
 62
     5
 10
-14.82607700000001
 20
72.50029899999993
 30
0.0
 11
-14.82607700000001
 21
68.91086699999993
 31
0.0
  0
LINE
  5
21E
  8
DETAIL
  6
CONTINUOUS
 62
     5
 10
-14.82607700000001
 20
68.44086699999993
 30
0.0
 11
-14.82607700000001
 21
67.50029899999993
 31
0.0
  0
LINE
  5
21F
  8
DETAIL
  6
CONTINUOUS
 62
     5
 10
-15.296077
 20
72.50029899999993
 30
0.0
 11
-15.296077
 21
68.91086699999993
 31
0.0
  0
LINE
  5
220
  8
DETAIL
  6
CONTINUOUS
 62
     5
 10
-15.296077
 20
68.44086699999993
 30
0.0
 11
-15.296077
 21
67.50029899999993
 31
0.0
  0
LINE
  5
221
  8
DETAIL
  6
CONTINUOUS
 62
     5
 10
-12.756077
 20
68.44086699999993
 30
0.0
 11
-17.36607700000001
 21
68.44086699999993
 31
0.0
  0
LINE
  5
222
  8
DETAIL
  6
CONTINUOUS
 62
     5
 10
-12.756077
 20
68.91086699999993
 30
0.0
 11
-17.36607700000001
 21
68.91086699999993
 31
0.0
  0
LINE
  5
223
  8
DETAIL
  6
CONTINUOUS
 62
     5
 10
-12.28607700000001
 20
72.50029899999993
 30
0.0
 11
-12.28607700000001
 21
71.45086699999993
 31
0.0
  0
LINE
  5
224
  8
DETAIL
  6
CONTINUOUS
 62
     5
 10
-12.28607700000001
 20
70.98086699999993
 30
0.0
 11
-12.28607700000001
 21
67.50029899999993
 31
0.0
  0
LINE
  5
225
  8
DETAIL
  6
CONTINUOUS
 62
     5
 10
-12.756077
 20
72.50029899999993
 30
0.0
 11
-12.756077
 21
71.45086699999993
 31
0.0
  0
LINE
  5
226
  8
DETAIL
  6
CONTINUOUS
 62
     5
 10
-12.756077
 20
70.98086699999993
 30
0.0
 11
-12.756077
 21
67.50029899999993
 31
0.0
  0
LINE
  5
227
  8
DETAIL
  6
CONTINUOUS
 62
     5
 10
-10.21607700000001
 20
71.45086699999993
 30
0.0
 11
-14.82607700000001
 21
71.45086699999993
 31
0.0
  0
LINE
  5
228
  8
DETAIL
  6
CONTINUOUS
 62
     5
 10
-10.21607700000001
 20
70.98086699999993
 30
0.0
 11
-14.82607700000001
 21
70.98086699999993
 31
0.0
  0
LINE
  5
229
  8
DETAIL
  6
CONTINUOUS
 62
     5
 10
-9.746077
 20
72.50029899999993
 30
0.0
 11
-9.746077
 21
68.91086699999993
 31
0.0
  0
LINE
  5
22A
  8
DETAIL
  6
CONTINUOUS
 62
     5
 10
-9.746077
 20
68.44086699999993
 30
0.0
 11
-9.746077
 21
67.50029899999993
 31
0.0
  0
LINE
  5
22B
  8
DETAIL
  6
CONTINUOUS
 62
     5
 10
-10.21607700000001
 20
72.50029899999993
 30
0.0
 11
-10.21607700000001
 21
68.91086699999993
 31
0.0
  0
LINE
  5
22C
  8
DETAIL
  6
CONTINUOUS
 62
     5
 10
-10.21607700000001
 20
68.44086699999993
 30
0.0
 11
-10.21607700000001
 21
67.50029899999993
 31
0.0
  0
LINE
  5
22D
  8
DETAIL
  6
CONTINUOUS
 62
     5
 10
-7.206077000000001
 20
70.99423799999994
 30
0.0
 11
-7.206077000000001
 21
69.00635899999993
 31
0.0
  0
LINE
  5
22E
  8
DETAIL
  6
CONTINUOUS
 62
     5
 10
-7.676076999999999
 20
71.71006599999993
 30
0.0
 11
-7.676076999999999
 21
71.45086699999993
 31
0.0
  0
LINE
  5
22F
  8
DETAIL
  6
CONTINUOUS
 62
     5
 10
-7.676076999999999
 20
70.98086699999993
 30
0.0
 11
-7.676076999999999
 21
68.29053199999993
 31
0.0
  0
LINE
  5
230
  8
DETAIL
  6
CONTINUOUS
 62
     5
 10
-7.463864000000001
 20
71.45086699999993
 30
0.0
 11
-9.746077
 21
71.45086699999993
 31
0.0
  0
LINE
  5
231
  8
DETAIL
  6
CONTINUOUS
 62
     5
 10
-7.200329000000004
 20
70.98086699999993
 30
0.0
 11
-9.746077
 21
70.98086699999993
 31
0.0
  0
LINE
  5
232
  8
DETAIL
  6
CONTINUOUS
 62
     5
 10
-7.676076999999999
 20
68.91086699999993
 30
0.0
 11
-12.28607700000001
 21
68.91086699999993
 31
0.0
  0
LINE
  5
233
  8
DETAIL
  6
CONTINUOUS
 62
     5
 10
-7.676076999999999
 20
68.44086699999993
 30
0.0
 11
-12.28607700000001
 21
68.44086699999993
 31
0.0
  0
LINE
  5
234
  8
DETAIL
  6
CONTINUOUS
 62
     5
 10
-30.06607700000001
 20
65.00029899999993
 30
0.0
 11
-30.06607700000001
 21
63.83086699999993
 31
0.0
  0
LINE
  5
235
  8
DETAIL
  6
CONTINUOUS
 62
     5
 10
-30.06607700000001
 20
63.36086699999993
 30
0.0
 11
-30.06607700000001
 21
60.00029899999993
 31
0.0
  0
LINE
  5
236
  8
DETAIL
  6
CONTINUOUS
 62
     5
 10
-30.536077
 20
64.77550099999992
 30
0.0
 11
-30.536077
 21
63.83086699999993
 31
0.0
  0
LINE
  5
237
  8
DETAIL
  6
CONTINUOUS
 62
     5
 10
-30.536077
 20
63.36086699999993
 30
0.0
 11
-30.536077
 21
60.22509599999992
 31
0.0
  0
LINE
  5
238
  8
DETAIL
  6
CONTINUOUS
 62
     5
 10
-31.687984
 20
61.29086699999992
 30
0.0
 11
-30.536077
 21
61.29086699999992
 31
0.0
  0
LINE
  5
239
  8
DETAIL
  6
CONTINUOUS
 62
     5
 10
-31.351894
 20
60.82086699999992
 30
0.0
 11
-30.536077
 21
60.82086699999992
 31
0.0
  0
LINE
  5
23A
  8
DETAIL
  6
CONTINUOUS
 62
     5
 10
-27.996077
 20
65.00029899999993
 30
0.0
 11
-27.996077
 21
61.29086699999992
 31
0.0
  0
LINE
  5
23B
  8
DETAIL
  6
CONTINUOUS
 62
     5
 10
-27.996077
 20
60.82086699999992
 30
0.0
 11
-27.996077
 21
60.00029899999993
 31
0.0
  0
LINE
  5
23C
  8
DETAIL
  6
CONTINUOUS
 62
     5
 10
-27.526077
 20
65.00029899999993
 30
0.0
 11
-27.526077
 21
61.29086699999992
 31
0.0
  0
LINE
  5
23D
  8
DETAIL
  6
CONTINUOUS
 62
     5
 10
-27.526077
 20
60.82086699999992
 30
0.0
 11
-27.526077
 21
60.00029899999993
 31
0.0
  0
LINE
  5
23E
  8
DETAIL
  6
CONTINUOUS
 62
     5
 10
-31.847216
 20
63.36086699999993
 30
0.0
 11
-27.996077
 21
63.36086699999993
 31
0.0
  0
LINE
  5
23F
  8
DETAIL
  6
CONTINUOUS
 62
     5
 10
-31.616504
 20
63.83086699999993
 30
0.0
 11
-27.996077
 21
63.83086699999993
 31
0.0
  0
LINE
  5
240
  8
DETAIL
  6
CONTINUOUS
 62
     5
 10
-25.456077
 20
65.00029899999993
 30
0.0
 11
-25.456077
 21
63.83086699999993
 31
0.0
  0
LINE
  5
241
  8
DETAIL
  6
CONTINUOUS
 62
     5
 10
-25.456077
 20
63.36086699999993
 30
0.0
 11
-25.456077
 21
60.00029899999993
 31
0.0
  0
LINE
  5
242
  8
DETAIL
  6
CONTINUOUS
 62
     5
 10
-24.986077
 20
65.00029899999993
 30
0.0
 11
-24.986077
 21
63.83086699999993
 31
0.0
  0
LINE
  5
243
  8
DETAIL
  6
CONTINUOUS
 62
     5
 10
-24.986077
 20
63.36086699999993
 30
0.0
 11
-24.986077
 21
60.00029899999993
 31
0.0
  0
LINE
  5
244
  8
DETAIL
  6
CONTINUOUS
 62
     5
 10
-30.06607700000001
 20
61.29086699999992
 30
0.0
 11
-25.456077
 21
61.29086699999992
 31
0.0
  0
LINE
  5
245
  8
DETAIL
  6
CONTINUOUS
 62
     5
 10
-30.06607700000001
 20
60.82086699999992
 30
0.0
 11
-25.456077
 21
60.82086699999992
 31
0.0
  0
LINE
  5
246
  8
DETAIL
  6
CONTINUOUS
 62
     5
 10
-22.916077
 20
65.00029899999993
 30
0.0
 11
-22.916077
 21
61.29086699999992
 31
0.0
  0
LINE
  5
247
  8
DETAIL
  6
CONTINUOUS
 62
     5
 10
-22.916077
 20
60.82086699999992
 30
0.0
 11
-22.916077
 21
60.00029899999993
 31
0.0
  0
LINE
  5
248
  8
DETAIL
  6
CONTINUOUS
 62
     5
 10
-22.446077
 20
65.00029899999993
 30
0.0
 11
-22.446077
 21
61.29086699999992
 31
0.0
  0
LINE
  5
249
  8
DETAIL
  6
CONTINUOUS
 62
     5
 10
-22.446077
 20
60.82086699999992
 30
0.0
 11
-22.446077
 21
60.00029899999993
 31
0.0
  0
LINE
  5
24A
  8
DETAIL
  6
CONTINUOUS
 62
     5
 10
-27.526077
 20
63.83086699999993
 30
0.0
 11
-22.916077
 21
63.83086699999993
 31
0.0
  0
LINE
  5
24B
  8
DETAIL
  6
CONTINUOUS
 62
     5
 10
-27.526077
 20
63.36086699999993
 30
0.0
 11
-22.916077
 21
63.36086699999993
 31
0.0
  0
LINE
  5
24C
  8
DETAIL
  6
CONTINUOUS
 62
     5
 10
-20.376077
 20
65.00029899999993
 30
0.0
 11
-20.376077
 21
63.83086699999993
 31
0.0
  0
LINE
  5
24D
  8
DETAIL
  6
CONTINUOUS
 62
     5
 10
-20.376077
 20
63.36086699999993
 30
0.0
 11
-20.376077
 21
60.00029899999993
 31
0.0
  0
LINE
  5
24E
  8
DETAIL
  6
CONTINUOUS
 62
     5
 10
-19.906077
 20
65.00029899999993
 30
0.0
 11
-19.906077
 21
63.83086699999993
 31
0.0
  0
LINE
  5
24F
  8
DETAIL
  6
CONTINUOUS
 62
     5
 10
-19.906077
 20
63.36086699999993
 30
0.0
 11
-19.906077
 21
60.00029899999993
 31
0.0
  0
LINE
  5
250
  8
DETAIL
  6
CONTINUOUS
 62
     5
 10
-24.986077
 20
61.29086699999992
 30
0.0
 11
-20.376077
 21
61.29086699999992
 31
0.0
  0
LINE
  5
251
  8
DETAIL
  6
CONTINUOUS
 62
     5
 10
-24.986077
 20
60.82086699999992
 30
0.0
 11
-20.376077
 21
60.82086699999992
 31
0.0
  0
LINE
  5
252
  8
DETAIL
  6
CONTINUOUS
 62
     5
 10
-17.836077
 20
65.00029899999993
 30
0.0
 11
-17.836077
 21
61.29086699999992
 31
0.0
  0
LINE
  5
253
  8
DETAIL
  6
CONTINUOUS
 62
     5
 10
-17.836077
 20
60.82086699999992
 30
0.0
 11
-17.836077
 21
60.00029899999993
 31
0.0
  0
LINE
  5
254
  8
DETAIL
  6
CONTINUOUS
 62
     5
 10
-17.36607700000001
 20
65.00029899999993
 30
0.0
 11
-17.36607700000001
 21
61.29086699999992
 31
0.0
  0
LINE
  5
255
  8
DETAIL
  6
CONTINUOUS
 62
     5
 10
-17.36607700000001
 20
60.82086699999992
 30
0.0
 11
-17.36607700000001
 21
60.00029899999993
 31
0.0
  0
LINE
  5
256
  8
DETAIL
  6
CONTINUOUS
 62
     5
 10
-22.446077
 20
63.36086699999993
 30
0.0
 11
-17.836077
 21
63.36086699999993
 31
0.0
  0
LINE
  5
257
  8
DETAIL
  6
CONTINUOUS
 62
     5
 10
-22.446077
 20
63.83086699999993
 30
0.0
 11
-17.836077
 21
63.83086699999993
 31
0.0
  0
LINE
  5
258
  8
DETAIL
  6
CONTINUOUS
 62
     5
 10
-15.296077
 20
65.00029899999993
 30
0.0
 11
-15.296077
 21
63.83086699999993
 31
0.0
  0
LINE
  5
259
  8
DETAIL
  6
CONTINUOUS
 62
     5
 10
-15.296077
 20
63.36086699999993
 30
0.0
 11
-15.296077
 21
60.00029899999993
 31
0.0
  0
LINE
  5
25A
  8
DETAIL
  6
CONTINUOUS
 62
     5
 10
-14.82607700000001
 20
65.00029899999993
 30
0.0
 11
-14.82607700000001
 21
63.83086699999993
 31
0.0
  0
LINE
  5
25B
  8
DETAIL
  6
CONTINUOUS
 62
     5
 10
-14.82607700000001
 20
63.36086699999993
 30
0.0
 11
-14.82607700000001
 21
60.00029899999993
 31
0.0
  0
LINE
  5
25C
  8
DETAIL
  6
CONTINUOUS
 62
     5
 10
-19.906077
 20
61.29086699999992
 30
0.0
 11
-15.296077
 21
61.29086699999992
 31
0.0
  0
LINE
  5
25D
  8
DETAIL
  6
CONTINUOUS
 62
     5
 10
-19.906077
 20
60.82086699999992
 30
0.0
 11
-15.296077
 21
60.82086699999992
 31
0.0
  0
LINE
  5
25E
  8
DETAIL
  6
CONTINUOUS
 62
     5
 10
-12.756077
 20
65.00029899999993
 30
0.0
 11
-12.756077
 21
61.29086699999992
 31
0.0
  0
LINE
  5
25F
  8
DETAIL
  6
CONTINUOUS
 62
     5
 10
-12.756077
 20
60.82086699999992
 30
0.0
 11
-12.756077
 21
60.00029899999993
 31
0.0
  0
LINE
  5
260
  8
DETAIL
  6
CONTINUOUS
 62
     5
 10
-12.28607700000001
 20
65.00029899999993
 30
0.0
 11
-12.28607700000001
 21
61.29086699999992
 31
0.0
  0
LINE
  5
261
  8
DETAIL
  6
CONTINUOUS
 62
     5
 10
-12.28607700000001
 20
60.82086699999992
 30
0.0
 11
-12.28607700000001
 21
60.00029899999993
 31
0.0
  0
LINE
  5
262
  8
DETAIL
  6
CONTINUOUS
 62
     5
 10
-17.36607700000001
 20
63.36086699999993
 30
0.0
 11
-12.756077
 21
63.36086699999993
 31
0.0
  0
LINE
  5
263
  8
DETAIL
  6
CONTINUOUS
 62
     5
 10
-17.36607700000001
 20
63.83086699999993
 30
0.0
 11
-12.756077
 21
63.83086699999993
 31
0.0
  0
LINE
  5
264
  8
DETAIL
  6
CONTINUOUS
 62
     5
 10
-10.21607700000001
 20
65.00029899999993
 30
0.0
 11
-10.21607700000001
 21
63.83086699999993
 31
0.0
  0
LINE
  5
265
  8
DETAIL
  6
CONTINUOUS
 62
     5
 10
-9.746077
 20
65.00029899999993
 30
0.0
 11
-9.746077
 21
63.83086699999993
 31
0.0
  0
LINE
  5
266
  8
DETAIL
  6
CONTINUOUS
 62
     5
 10
-14.82607700000001
 20
61.29086699999992
 30
0.0
 11
-10.21607700000001
 21
61.29086699999992
 31
0.0
  0
LINE
  5
267
  8
DETAIL
  6
CONTINUOUS
 62
     5
 10
-14.82607700000001
 20
60.82086699999992
 30
0.0
 11
-10.21607700000001
 21
60.82086699999992
 31
0.0
  0
LINE
  5
268
  8
DETAIL
  6
CONTINUOUS
 62
     5
 10
-9.746077
 20
60.82086699999992
 30
0.0
 11
-7.648106000000006
 21
60.82086699999992
 31
0.0
  0
LINE
  5
269
  8
DETAIL
  6
CONTINUOUS
 62
     5
 10
-9.746077
 20
63.36086699999993
 30
0.0
 11
-9.746077
 21
60.00029899999993
 31
0.0
  0
LINE
  5
26A
  8
DETAIL
  6
CONTINUOUS
 62
     5
 10
-10.21607700000001
 20
63.36086699999993
 30
0.0
 11
-10.21607700000001
 21
60.00029899999993
 31
0.0
  0
LINE
  5
26B
  8
DETAIL
  6
CONTINUOUS
 62
     5
 10
-12.28607700000001
 20
63.36086699999993
 30
0.0
 11
-7.676076999999999
 21
63.36086699999993
 31
0.0
  0
LINE
  5
26C
  8
DETAIL
  6
CONTINUOUS
 62
     5
 10
-7.206077000000001
 20
63.36086699999993
 30
0.0
 11
-7.152784000000004
 21
63.36086699999993
 31
0.0
  0
LINE
  5
26D
  8
DETAIL
  6
CONTINUOUS
 62
     5
 10
-12.28607700000001
 20
63.83086699999993
 30
0.0
 11
-7.676076999999999
 21
63.83086699999993
 31
0.0
  0
LINE
  5
26E
  8
DETAIL
  6
CONTINUOUS
 62
     5
 10
-9.746077
 20
61.29086699999992
 30
0.0
 11
-7.312016
 21
61.29086699999992
 31
0.0
  0
LINE
  5
26F
  8
DETAIL
  6
CONTINUOUS
 62
     5
 10
-7.206077000000001
 20
63.49423799999992
 30
0.0
 11
-7.206077000000001
 21
61.50635899999993
 31
0.0
  0
LINE
  5
270
  8
DETAIL
  6
CONTINUOUS
 62
     5
 10
-7.676076999999999
 20
64.21006599999993
 30
0.0
 11
-7.676076999999999
 21
61.29086699999992
 31
0.0
  0
LINE
  5
271
  8
DETAIL
  6
CONTINUOUS
 62
     5
 10
-30.536077
 20
55.98086699999993
 30
0.0
 11
-31.79967100000001
 21
55.98086699999993
 31
0.0
  0
LINE
  5
272
  8
DETAIL
  6
CONTINUOUS
 62
     5
 10
-30.536077
 20
56.45086699999993
 30
0.0
 11
-31.536136
 21
56.45086699999993
 31
0.0
  0
LINE
  5
273
  8
DETAIL
  6
CONTINUOUS
 62
     5
 10
-30.536077
 20
57.27550099999992
 30
0.0
 11
-30.536077
 21
53.91086699999993
 31
0.0
  0
LINE
  5
274
  8
DETAIL
  6
CONTINUOUS
 62
     5
 10
-30.06607700000001
 20
57.43536699999993
 30
0.0
 11
-30.06607700000001
 21
53.91086699999993
 31
0.0
  0
LINE
  5
275
  8
DETAIL
  6
CONTINUOUS
 62
     5
 10
-27.526077
 20
57.50029899999993
 30
0.0
 11
-27.526077
 21
56.45086699999993
 31
0.0
  0
LINE
  5
276
  8
DETAIL
  6
CONTINUOUS
 62
     5
 10
-27.996077
 20
57.50029899999993
 30
0.0
 11
-27.996077
 21
56.45086699999993
 31
0.0
  0
LINE
  5
277
  8
DETAIL
  6
CONTINUOUS
 62
     5
 10
-27.996077
 20
55.98086699999993
 30
0.0
 11
-27.996077
 21
52.50029899999993
 31
0.0
  0
LINE
  5
278
  8
DETAIL
  6
CONTINUOUS
 62
     5
 10
-27.526077
 20
55.98086699999993
 30
0.0
 11
-27.526077
 21
52.50029899999993
 31
0.0
  0
LINE
  5
279
  8
DETAIL
  6
CONTINUOUS
 62
     5
 10
-30.06607700000001
 20
53.44086699999993
 30
0.0
 11
-30.06607700000001
 21
52.56522999999993
 31
0.0
  0
LINE
  5
27A
  8
DETAIL
  6
CONTINUOUS
 62
     5
 10
-30.536077
 20
53.44086699999993
 30
0.0
 11
-30.536077
 21
52.72509599999992
 31
0.0
  0
LINE
  5
27B
  8
DETAIL
  6
CONTINUOUS
 62
     5
 10
-27.996077
 20
53.91086699999993
 30
0.0
 11
-31.750142
 21
53.91086699999993
 31
0.0
  0
LINE
  5
27C
  8
DETAIL
  6
CONTINUOUS
 62
     5
 10
-27.996077
 20
53.44086699999993
 30
0.0
 11
-31.454015
 21
53.44086699999993
 31
0.0
  0
LINE
  5
27D
  8
DETAIL
  6
CONTINUOUS
 62
     5
 10
-25.456077
 20
56.45086699999993
 30
0.0
 11
-30.06607700000001
 21
56.45086699999993
 31
0.0
  0
LINE
  5
27E
  8
DETAIL
  6
CONTINUOUS
 62
     5
 10
-25.456077
 20
55.98086699999993
 30
0.0
 11
-30.06607700000001
 21
55.98086699999993
 31
0.0
  0
LINE
  5
27F
  8
DETAIL
  6
CONTINUOUS
 62
     5
 10
-24.986077
 20
57.50029899999993
 30
0.0
 11
-24.986077
 21
53.91086699999993
 31
0.0
  0
LINE
  5
280
  8
DETAIL
  6
CONTINUOUS
 62
     5
 10
-24.986077
 20
53.44086699999993
 30
0.0
 11
-24.986077
 21
52.50029899999993
 31
0.0
  0
LINE
  5
281
  8
DETAIL
  6
CONTINUOUS
 62
     5
 10
-25.456077
 20
57.50029899999993
 30
0.0
 11
-25.456077
 21
53.91086699999993
 31
0.0
  0
LINE
  5
282
  8
DETAIL
  6
CONTINUOUS
 62
     5
 10
-25.456077
 20
53.44086699999993
 30
0.0
 11
-25.456077
 21
52.50029899999993
 31
0.0
  0
LINE
  5
283
  8
DETAIL
  6
CONTINUOUS
 62
     5
 10
-22.916077
 20
53.91086699999993
 30
0.0
 11
-27.526077
 21
53.91086699999993
 31
0.0
  0
LINE
  5
284
  8
DETAIL
  6
CONTINUOUS
 62
     5
 10
-22.916077
 20
53.44086699999993
 30
0.0
 11
-27.526077
 21
53.44086699999993
 31
0.0
  0
LINE
  5
285
  8
DETAIL
  6
CONTINUOUS
 62
     5
 10
-22.446077
 20
57.50029899999993
 30
0.0
 11
-22.446077
 21
56.45086699999993
 31
0.0
  0
LINE
  5
286
  8
DETAIL
  6
CONTINUOUS
 62
     5
 10
-22.446077
 20
55.98086699999993
 30
0.0
 11
-22.446077
 21
52.50029899999993
 31
0.0
  0
LINE
  5
287
  8
DETAIL
  6
CONTINUOUS
 62
     5
 10
-22.916077
 20
57.50029899999993
 30
0.0
 11
-22.916077
 21
56.45086699999993
 31
0.0
  0
LINE
  5
288
  8
DETAIL
  6
CONTINUOUS
 62
     5
 10
-22.916077
 20
55.98086699999993
 30
0.0
 11
-22.916077
 21
52.50029899999993
 31
0.0
  0
LINE
  5
289
  8
DETAIL
  6
CONTINUOUS
 62
     5
 10
-20.376077
 20
56.45086699999993
 30
0.0
 11
-24.986077
 21
56.45086699999993
 31
0.0
  0
LINE
  5
28A
  8
DETAIL
  6
CONTINUOUS
 62
     5
 10
-20.376077
 20
55.98086699999993
 30
0.0
 11
-24.986077
 21
55.98086699999993
 31
0.0
  0
LINE
  5
28B
  8
DETAIL
  6
CONTINUOUS
 62
     5
 10
-19.906077
 20
57.50029899999993
 30
0.0
 11
-19.906077
 21
53.91086699999993
 31
0.0
  0
LINE
  5
28C
  8
DETAIL
  6
CONTINUOUS
 62
     5
 10
-19.906077
 20
53.44086699999993
 30
0.0
 11
-19.906077
 21
52.50029899999993
 31
0.0
  0
LINE
  5
28D
  8
DETAIL
  6
CONTINUOUS
 62
     5
 10
-20.376077
 20
57.50029899999993
 30
0.0
 11
-20.376077
 21
53.91086699999993
 31
0.0
  0
LINE
  5
28E
  8
DETAIL
  6
CONTINUOUS
 62
     5
 10
-20.376077
 20
53.44086699999993
 30
0.0
 11
-20.376077
 21
52.50029899999993
 31
0.0
  0
LINE
  5
28F
  8
DETAIL
  6
CONTINUOUS
 62
     5
 10
-17.836077
 20
53.91086699999993
 30
0.0
 11
-22.446077
 21
53.91086699999993
 31
0.0
  0
LINE
  5
290
  8
DETAIL
  6
CONTINUOUS
 62
     5
 10
-17.836077
 20
53.44086699999993
 30
0.0
 11
-22.446077
 21
53.44086699999993
 31
0.0
  0
LINE
  5
291
  8
DETAIL
  6
CONTINUOUS
 62
     5
 10
-17.36607700000001
 20
57.50029899999993
 30
0.0
 11
-17.36607700000001
 21
56.45086699999993
 31
0.0
  0
LINE
  5
292
  8
DETAIL
  6
CONTINUOUS
 62
     5
 10
-17.36607700000001
 20
55.98086699999993
 30
0.0
 11
-17.36607700000001
 21
52.50029899999993
 31
0.0
  0
LINE
  5
293
  8
DETAIL
  6
CONTINUOUS
 62
     5
 10
-17.836077
 20
57.50029899999993
 30
0.0
 11
-17.836077
 21
56.45086699999993
 31
0.0
  0
LINE
  5
294
  8
DETAIL
  6
CONTINUOUS
 62
     5
 10
-17.836077
 20
55.98086699999993
 30
0.0
 11
-17.836077
 21
52.50029899999993
 31
0.0
  0
LINE
  5
295
  8
DETAIL
  6
CONTINUOUS
 62
     5
 10
-15.296077
 20
56.45086699999993
 30
0.0
 11
-19.906077
 21
56.45086699999993
 31
0.0
  0
LINE
  5
296
  8
DETAIL
  6
CONTINUOUS
 62
     5
 10
-15.296077
 20
55.98086699999993
 30
0.0
 11
-19.906077
 21
55.98086699999993
 31
0.0
  0
LINE
  5
297
  8
DETAIL
  6
CONTINUOUS
 62
     5
 10
-14.82607700000001
 20
57.50029899999993
 30
0.0
 11
-14.82607700000001
 21
53.91086699999993
 31
0.0
  0
LINE
  5
298
  8
DETAIL
  6
CONTINUOUS
 62
     5
 10
-14.82607700000001
 20
53.44086699999993
 30
0.0
 11
-14.82607700000001
 21
52.50029899999993
 31
0.0
  0
LINE
  5
299
  8
DETAIL
  6
CONTINUOUS
 62
     5
 10
-15.296077
 20
57.50029899999993
 30
0.0
 11
-15.296077
 21
53.91086699999993
 31
0.0
  0
LINE
  5
29A
  8
DETAIL
  6
CONTINUOUS
 62
     5
 10
-15.296077
 20
53.44086699999993
 30
0.0
 11
-15.296077
 21
52.50029899999993
 31
0.0
  0
LINE
  5
29B
  8
DETAIL
  6
CONTINUOUS
 62
     5
 10
-12.756077
 20
53.44086699999993
 30
0.0
 11
-17.36607700000001
 21
53.44086699999993
 31
0.0
  0
LINE
  5
29C
  8
DETAIL
  6
CONTINUOUS
 62
     5
 10
-12.756077
 20
53.91086699999993
 30
0.0
 11
-17.36607700000001
 21
53.91086699999993
 31
0.0
  0
LINE
  5
29D
  8
DETAIL
  6
CONTINUOUS
 62
     5
 10
-12.28607700000001
 20
57.50029899999993
 30
0.0
 11
-12.28607700000001
 21
56.45086699999993
 31
0.0
  0
LINE
  5
29E
  8
DETAIL
  6
CONTINUOUS
 62
     5
 10
-12.28607700000001
 20
55.98086699999993
 30
0.0
 11
-12.28607700000001
 21
52.50029899999993
 31
0.0
  0
LINE
  5
29F
  8
DETAIL
  6
CONTINUOUS
 62
     5
 10
-12.756077
 20
57.50029899999993
 30
0.0
 11
-12.756077
 21
56.45086699999993
 31
0.0
  0
LINE
  5
2A0
  8
DETAIL
  6
CONTINUOUS
 62
     5
 10
-12.756077
 20
55.98086699999993
 30
0.0
 11
-12.756077
 21
52.50029899999993
 31
0.0
  0
LINE
  5
2A1
  8
DETAIL
  6
CONTINUOUS
 62
     5
 10
-10.21607700000001
 20
56.45086699999993
 30
0.0
 11
-14.82607700000001
 21
56.45086699999993
 31
0.0
  0
LINE
  5
2A2
  8
DETAIL
  6
CONTINUOUS
 62
     5
 10
-10.21607700000001
 20
55.98086699999993
 30
0.0
 11
-14.82607700000001
 21
55.98086699999993
 31
0.0
  0
LINE
  5
2A3
  8
DETAIL
  6
CONTINUOUS
 62
     5
 10
-9.746077
 20
57.50029899999993
 30
0.0
 11
-9.746077
 21
53.91086699999993
 31
0.0
  0
LINE
  5
2A4
  8
DETAIL
  6
CONTINUOUS
 62
     5
 10
-9.746077
 20
53.44086699999993
 30
0.0
 11
-9.746077
 21
52.50029899999993
 31
0.0
  0
LINE
  5
2A5
  8
DETAIL
  6
CONTINUOUS
 62
     5
 10
-10.21607700000001
 20
57.50029899999993
 30
0.0
 11
-10.21607700000001
 21
53.91086699999993
 31
0.0
  0
LINE
  5
2A6
  8
DETAIL
  6
CONTINUOUS
 62
     5
 10
-10.21607700000001
 20
53.44086699999993
 30
0.0
 11
-10.21607700000001
 21
52.50029899999993
 31
0.0
  0
LINE
  5
2A7
  8
DETAIL
  6
CONTINUOUS
 62
     5
 10
-7.206077000000001
 20
55.99423799999992
 30
0.0
 11
-7.206077000000001
 21
54.00635899999993
 31
0.0
  0
LINE
  5
2A8
  8
DETAIL
  6
CONTINUOUS
 62
     5
 10
-7.676076999999999
 20
56.71006599999993
 30
0.0
 11
-7.676076999999999
 21
56.45086699999993
 31
0.0
  0
LINE
  5
2A9
  8
DETAIL
  6
CONTINUOUS
 62
     5
 10
-7.676076999999999
 20
55.98086699999993
 30
0.0
 11
-7.676076999999999
 21
53.29053199999993
 31
0.0
  0
LINE
  5
2AA
  8
DETAIL
  6
CONTINUOUS
 62
     5
 10
-7.463864000000001
 20
56.45086699999993
 30
0.0
 11
-9.746077
 21
56.45086699999993
 31
0.0
  0
LINE
  5
2AB
  8
DETAIL
  6
CONTINUOUS
 62
     5
 10
-7.200329000000004
 20
55.98086699999993
 30
0.0
 11
-9.746077
 21
55.98086699999993
 31
0.0
  0
LINE
  5
2AC
  8
DETAIL
  6
CONTINUOUS
 62
     5
 10
-7.676076999999999
 20
53.91086699999993
 30
0.0
 11
-12.28607700000001
 21
53.91086699999993
 31
0.0
  0
LINE
  5
2AD
  8
DETAIL
  6
CONTINUOUS
 62
     5
 10
-7.676076999999999
 20
53.44086699999993
 30
0.0
 11
-12.28607700000001
 21
53.44086699999993
 31
0.0
  0
LINE
  5
2AE
  8
DETAIL
  6
CONTINUOUS
 62
     5
 10
-30.06607700000001
 20
50.00029899999993
 30
0.0
 11
-30.06607700000001
 21
48.83086699999993
 31
0.0
  0
LINE
  5
2AF
  8
DETAIL
  6
CONTINUOUS
 62
     5
 10
-30.06607700000001
 20
48.36086699999993
 30
0.0
 11
-30.06607700000001
 21
45.00029899999993
 31
0.0
  0
LINE
  5
2B0
  8
DETAIL
  6
CONTINUOUS
 62
     5
 10
-30.536077
 20
49.77550099999992
 30
0.0
 11
-30.536077
 21
48.83086699999993
 31
0.0
  0
LINE
  5
2B1
  8
DETAIL
  6
CONTINUOUS
 62
     5
 10
-30.536077
 20
48.36086699999993
 30
0.0
 11
-30.536077
 21
45.22509599999992
 31
0.0
  0
LINE
  5
2B2
  8
DETAIL
  6
CONTINUOUS
 62
     5
 10
-31.687984
 20
46.29086699999992
 30
0.0
 11
-30.536077
 21
46.29086699999992
 31
0.0
  0
LINE
  5
2B3
  8
DETAIL
  6
CONTINUOUS
 62
     5
 10
-31.351894
 20
45.82086699999992
 30
0.0
 11
-30.536077
 21
45.82086699999992
 31
0.0
  0
LINE
  5
2B4
  8
DETAIL
  6
CONTINUOUS
 62
     5
 10
-27.996077
 20
50.00029899999993
 30
0.0
 11
-27.996077
 21
46.29086699999992
 31
0.0
  0
LINE
  5
2B5
  8
DETAIL
  6
CONTINUOUS
 62
     5
 10
-27.996077
 20
45.82086699999992
 30
0.0
 11
-27.996077
 21
45.00029899999993
 31
0.0
  0
LINE
  5
2B6
  8
DETAIL
  6
CONTINUOUS
 62
     5
 10
-27.526077
 20
50.00029899999993
 30
0.0
 11
-27.526077
 21
46.29086699999992
 31
0.0
  0
LINE
  5
2B7
  8
DETAIL
  6
CONTINUOUS
 62
     5
 10
-27.526077
 20
45.82086699999992
 30
0.0
 11
-27.526077
 21
45.00029899999993
 31
0.0
  0
LINE
  5
2B8
  8
DETAIL
  6
CONTINUOUS
 62
     5
 10
-31.847216
 20
48.36086699999993
 30
0.0
 11
-27.996077
 21
48.36086699999993
 31
0.0
  0
LINE
  5
2B9
  8
DETAIL
  6
CONTINUOUS
 62
     5
 10
-31.616504
 20
48.83086699999993
 30
0.0
 11
-27.996077
 21
48.83086699999993
 31
0.0
  0
LINE
  5
2BA
  8
DETAIL
  6
CONTINUOUS
 62
     5
 10
-25.456077
 20
50.00029899999993
 30
0.0
 11
-25.456077
 21
48.83086699999993
 31
0.0
  0
LINE
  5
2BB
  8
DETAIL
  6
CONTINUOUS
 62
     5
 10
-25.456077
 20
48.36086699999993
 30
0.0
 11
-25.456077
 21
45.00029899999993
 31
0.0
  0
LINE
  5
2BC
  8
DETAIL
  6
CONTINUOUS
 62
     5
 10
-24.986077
 20
50.00029899999993
 30
0.0
 11
-24.986077
 21
48.83086699999993
 31
0.0
  0
LINE
  5
2BD
  8
DETAIL
  6
CONTINUOUS
 62
     5
 10
-24.986077
 20
48.36086699999993
 30
0.0
 11
-24.986077
 21
45.00029899999993
 31
0.0
  0
LINE
  5
2BE
  8
DETAIL
  6
CONTINUOUS
 62
     5
 10
-30.06607700000001
 20
46.29086699999992
 30
0.0
 11
-25.456077
 21
46.29086699999992
 31
0.0
  0
LINE
  5
2BF
  8
DETAIL
  6
CONTINUOUS
 62
     5
 10
-30.06607700000001
 20
45.82086699999992
 30
0.0
 11
-25.456077
 21
45.82086699999992
 31
0.0
  0
LINE
  5
2C0
  8
DETAIL
  6
CONTINUOUS
 62
     5
 10
-22.916077
 20
50.00029899999993
 30
0.0
 11
-22.916077
 21
46.29086699999992
 31
0.0
  0
LINE
  5
2C1
  8
DETAIL
  6
CONTINUOUS
 62
     5
 10
-22.916077
 20
45.82086699999992
 30
0.0
 11
-22.916077
 21
45.00029899999993
 31
0.0
  0
LINE
  5
2C2
  8
DETAIL
  6
CONTINUOUS
 62
     5
 10
-22.446077
 20
50.00029899999993
 30
0.0
 11
-22.446077
 21
46.29086699999992
 31
0.0
  0
LINE
  5
2C3
  8
DETAIL
  6
CONTINUOUS
 62
     5
 10
-22.446077
 20
45.82086699999992
 30
0.0
 11
-22.446077
 21
45.00029899999993
 31
0.0
  0
LINE
  5
2C4
  8
DETAIL
  6
CONTINUOUS
 62
     5
 10
-27.526077
 20
48.83086699999993
 30
0.0
 11
-22.916077
 21
48.83086699999993
 31
0.0
  0
LINE
  5
2C5
  8
DETAIL
  6
CONTINUOUS
 62
     5
 10
-27.526077
 20
48.36086699999993
 30
0.0
 11
-22.916077
 21
48.36086699999993
 31
0.0
  0
LINE
  5
2C6
  8
DETAIL
  6
CONTINUOUS
 62
     5
 10
-20.376077
 20
50.00029899999993
 30
0.0
 11
-20.376077
 21
48.83086699999993
 31
0.0
  0
LINE
  5
2C7
  8
DETAIL
  6
CONTINUOUS
 62
     5
 10
-20.376077
 20
48.36086699999993
 30
0.0
 11
-20.376077
 21
45.00029899999993
 31
0.0
  0
LINE
  5
2C8
  8
DETAIL
  6
CONTINUOUS
 62
     5
 10
-19.906077
 20
50.00029899999993
 30
0.0
 11
-19.906077
 21
48.83086699999993
 31
0.0
  0
LINE
  5
2C9
  8
DETAIL
  6
CONTINUOUS
 62
     5
 10
-19.906077
 20
48.36086699999993
 30
0.0
 11
-19.906077
 21
45.00029899999993
 31
0.0
  0
LINE
  5
2CA
  8
DETAIL
  6
CONTINUOUS
 62
     5
 10
-24.986077
 20
46.29086699999992
 30
0.0
 11
-20.376077
 21
46.29086699999992
 31
0.0
  0
LINE
  5
2CB
  8
DETAIL
  6
CONTINUOUS
 62
     5
 10
-24.986077
 20
45.82086699999992
 30
0.0
 11
-20.376077
 21
45.82086699999992
 31
0.0
  0
LINE
  5
2CC
  8
DETAIL
  6
CONTINUOUS
 62
     5
 10
-17.836077
 20
50.00029899999993
 30
0.0
 11
-17.836077
 21
46.29086699999992
 31
0.0
  0
LINE
  5
2CD
  8
DETAIL
  6
CONTINUOUS
 62
     5
 10
-17.836077
 20
45.82086699999992
 30
0.0
 11
-17.836077
 21
45.00029899999993
 31
0.0
  0
LINE
  5
2CE
  8
DETAIL
  6
CONTINUOUS
 62
     5
 10
-17.36607700000001
 20
50.00029899999993
 30
0.0
 11
-17.36607700000001
 21
46.29086699999992
 31
0.0
  0
LINE
  5
2CF
  8
DETAIL
  6
CONTINUOUS
 62
     5
 10
-17.36607700000001
 20
45.82086699999992
 30
0.0
 11
-17.36607700000001
 21
45.00029899999993
 31
0.0
  0
LINE
  5
2D0
  8
DETAIL
  6
CONTINUOUS
 62
     5
 10
-22.446077
 20
48.36086699999993
 30
0.0
 11
-17.836077
 21
48.36086699999993
 31
0.0
  0
LINE
  5
2D1
  8
DETAIL
  6
CONTINUOUS
 62
     5
 10
-22.446077
 20
48.83086699999993
 30
0.0
 11
-17.836077
 21
48.83086699999993
 31
0.0
  0
LINE
  5
2D2
  8
DETAIL
  6
CONTINUOUS
 62
     5
 10
-15.296077
 20
50.00029899999993
 30
0.0
 11
-15.296077
 21
48.83086699999993
 31
0.0
  0
LINE
  5
2D3
  8
DETAIL
  6
CONTINUOUS
 62
     5
 10
-15.296077
 20
48.36086699999993
 30
0.0
 11
-15.296077
 21
45.00029899999993
 31
0.0
  0
LINE
  5
2D4
  8
DETAIL
  6
CONTINUOUS
 62
     5
 10
-14.82607700000001
 20
50.00029899999993
 30
0.0
 11
-14.82607700000001
 21
48.83086699999993
 31
0.0
  0
LINE
  5
2D5
  8
DETAIL
  6
CONTINUOUS
 62
     5
 10
-14.82607700000001
 20
48.36086699999993
 30
0.0
 11
-14.82607700000001
 21
45.00029899999993
 31
0.0
  0
LINE
  5
2D6
  8
DETAIL
  6
CONTINUOUS
 62
     5
 10
-19.906077
 20
46.29086699999992
 30
0.0
 11
-15.296077
 21
46.29086699999992
 31
0.0
  0
LINE
  5
2D7
  8
DETAIL
  6
CONTINUOUS
 62
     5
 10
-19.906077
 20
45.82086699999992
 30
0.0
 11
-15.296077
 21
45.82086699999992
 31
0.0
  0
LINE
  5
2D8
  8
DETAIL
  6
CONTINUOUS
 62
     5
 10
-12.756077
 20
50.00029899999993
 30
0.0
 11
-12.756077
 21
46.29086699999992
 31
0.0
  0
LINE
  5
2D9
  8
DETAIL
  6
CONTINUOUS
 62
     5
 10
-12.756077
 20
45.82086699999992
 30
0.0
 11
-12.756077
 21
45.00029899999993
 31
0.0
  0
LINE
  5
2DA
  8
DETAIL
  6
CONTINUOUS
 62
     5
 10
-12.28607700000001
 20
50.00029899999993
 30
0.0
 11
-12.28607700000001
 21
46.29086699999992
 31
0.0
  0
LINE
  5
2DB
  8
DETAIL
  6
CONTINUOUS
 62
     5
 10
-12.28607700000001
 20
45.82086699999992
 30
0.0
 11
-12.28607700000001
 21
45.00029899999993
 31
0.0
  0
LINE
  5
2DC
  8
DETAIL
  6
CONTINUOUS
 62
     5
 10
-17.36607700000001
 20
48.36086699999993
 30
0.0
 11
-12.756077
 21
48.36086699999993
 31
0.0
  0
LINE
  5
2DD
  8
DETAIL
  6
CONTINUOUS
 62
     5
 10
-17.36607700000001
 20
48.83086699999993
 30
0.0
 11
-12.756077
 21
48.83086699999993
 31
0.0
  0
LINE
  5
2DE
  8
DETAIL
  6
CONTINUOUS
 62
     5
 10
-10.21607700000001
 20
50.00029899999993
 30
0.0
 11
-10.21607700000001
 21
48.83086699999993
 31
0.0
  0
LINE
  5
2DF
  8
DETAIL
  6
CONTINUOUS
 62
     5
 10
-9.746077
 20
50.00029899999993
 30
0.0
 11
-9.746077
 21
48.83086699999993
 31
0.0
  0
LINE
  5
2E0
  8
DETAIL
  6
CONTINUOUS
 62
     5
 10
-14.82607700000001
 20
46.29086699999992
 30
0.0
 11
-10.21607700000001
 21
46.29086699999992
 31
0.0
  0
LINE
  5
2E1
  8
DETAIL
  6
CONTINUOUS
 62
     5
 10
-14.82607700000001
 20
45.82086699999992
 30
0.0
 11
-10.21607700000001
 21
45.82086699999992
 31
0.0
  0
LINE
  5
2E2
  8
DETAIL
  6
CONTINUOUS
 62
     5
 10
-9.746077
 20
45.82086699999992
 30
0.0
 11
-7.648106000000006
 21
45.82086699999992
 31
0.0
  0
LINE
  5
2E3
  8
DETAIL
  6
CONTINUOUS
 62
     5
 10
-9.746077
 20
48.36086699999993
 30
0.0
 11
-9.746077
 21
45.00029899999993
 31
0.0
  0
LINE
  5
2E4
  8
DETAIL
  6
CONTINUOUS
 62
     5
 10
-10.21607700000001
 20
48.36086699999993
 30
0.0
 11
-10.21607700000001
 21
45.00029899999993
 31
0.0
  0
LINE
  5
2E5
  8
DETAIL
  6
CONTINUOUS
 62
     5
 10
-12.28607700000001
 20
48.36086699999993
 30
0.0
 11
-7.676076999999999
 21
48.36086699999993
 31
0.0
  0
LINE
  5
2E6
  8
DETAIL
  6
CONTINUOUS
 62
     5
 10
-7.206077000000001
 20
48.36086699999993
 30
0.0
 11
-7.152784000000004
 21
48.36086699999993
 31
0.0
  0
LINE
  5
2E7
  8
DETAIL
  6
CONTINUOUS
 62
     5
 10
-12.28607700000001
 20
48.83086699999993
 30
0.0
 11
-7.676076999999999
 21
48.83086699999993
 31
0.0
  0
LINE
  5
2E8
  8
DETAIL
  6
CONTINUOUS
 62
     5
 10
-9.746077
 20
46.29086699999992
 30
0.0
 11
-7.312016
 21
46.29086699999992
 31
0.0
  0
LINE
  5
2E9
  8
DETAIL
  6
CONTINUOUS
 62
     5
 10
-7.206077000000001
 20
48.49423799999992
 30
0.0
 11
-7.206077000000001
 21
46.50635899999993
 31
0.0
  0
LINE
  5
2EA
  8
DETAIL
  6
CONTINUOUS
 62
     5
 10
-7.676076999999999
 20
49.21006599999993
 30
0.0
 11
-7.676076999999999
 21
46.29086699999992
 31
0.0
  0
LINE
  5
2EB
  8
DETAIL
  6
CONTINUOUS
 62
     5
 10
-30.536077
 20
40.980867
 30
0.0
 11
-31.79967100000001
 21
40.980867
 31
0.0
  0
LINE
  5
2EC
  8
DETAIL
  6
CONTINUOUS
 62
     5
 10
-30.536077
 20
41.45086699999999
 30
0.0
 11
-31.536136
 21
41.45086699999999
 31
0.0
  0
LINE
  5
2ED
  8
DETAIL
  6
CONTINUOUS
 62
     5
 10
-27.526077
 20
42.50029899999993
 30
0.0
 11
-27.526077
 21
41.45086699999999
 31
0.0
  0
LINE
  5
2EE
  8
DETAIL
  6
CONTINUOUS
 62
     5
 10
-27.996077
 20
42.50029899999993
 30
0.0
 11
-27.996077
 21
41.45086699999999
 31
0.0
  0
LINE
  5
2EF
  8
DETAIL
  6
CONTINUOUS
 62
     5
 10
-25.456077
 20
41.45086699999999
 30
0.0
 11
-30.06607700000001
 21
41.45086699999999
 31
0.0
  0
LINE
  5
2F0
  8
DETAIL
  6
CONTINUOUS
 62
     5
 10
-25.456077
 20
40.980867
 30
0.0
 11
-30.06607700000001
 21
40.980867
 31
0.0
  0
LINE
  5
2F1
  8
DETAIL
  6
CONTINUOUS
 62
     5
 10
-22.446077
 20
42.50029899999993
 30
0.0
 11
-22.446077
 21
41.45086699999999
 31
0.0
  0
LINE
  5
2F2
  8
DETAIL
  6
CONTINUOUS
 62
     5
 10
-22.916077
 20
42.50029899999993
 30
0.0
 11
-22.916077
 21
41.45086699999999
 31
0.0
  0
LINE
  5
2F3
  8
DETAIL
  6
CONTINUOUS
 62
     5
 10
-20.376077
 20
41.45086699999999
 30
0.0
 11
-24.986077
 21
41.45086699999999
 31
0.0
  0
LINE
  5
2F4
  8
DETAIL
  6
CONTINUOUS
 62
     5
 10
-20.376077
 20
40.980867
 30
0.0
 11
-24.986077
 21
40.980867
 31
0.0
  0
LINE
  5
2F5
  8
DETAIL
  6
CONTINUOUS
 62
     5
 10
-17.36607700000001
 20
42.50029899999993
 30
0.0
 11
-17.36607700000001
 21
41.45086699999999
 31
0.0
  0
LINE
  5
2F6
  8
DETAIL
  6
CONTINUOUS
 62
     5
 10
-17.836077
 20
42.50029899999993
 30
0.0
 11
-17.836077
 21
41.45086699999999
 31
0.0
  0
LINE
  5
2F7
  8
DETAIL
  6
CONTINUOUS
 62
     5
 10
-15.296077
 20
41.45086699999999
 30
0.0
 11
-19.906077
 21
41.45086699999999
 31
0.0
  0
LINE
  5
2F8
  8
DETAIL
  6
CONTINUOUS
 62
     5
 10
-15.296077
 20
40.980867
 30
0.0
 11
-19.906077
 21
40.980867
 31
0.0
  0
LINE
  5
2F9
  8
DETAIL
  6
CONTINUOUS
 62
     5
 10
-12.28607700000001
 20
42.50029899999993
 30
0.0
 11
-12.28607700000001
 21
41.45086699999999
 31
0.0
  0
LINE
  5
2FA
  8
DETAIL
  6
CONTINUOUS
 62
     5
 10
-12.756077
 20
42.50029899999993
 30
0.0
 11
-12.756077
 21
41.45086699999999
 31
0.0
  0
LINE
  5
2FB
  8
DETAIL
  6
CONTINUOUS
 62
     5
 10
-10.21607700000001
 20
41.45086699999999
 30
0.0
 11
-14.82607700000001
 21
41.45086699999999
 31
0.0
  0
LINE
  5
2FC
  8
DETAIL
  6
CONTINUOUS
 62
     5
 10
-10.21607700000001
 20
40.980867
 30
0.0
 11
-14.82607700000001
 21
40.980867
 31
0.0
  0
LINE
  5
2FD
  8
DETAIL
  6
CONTINUOUS
 62
     5
 10
-7.676076999999999
 20
41.71006600000001
 30
0.0
 11
-7.676076999999999
 21
41.45086699999999
 31
0.0
  0
LINE
  5
2FE
  8
DETAIL
  6
CONTINUOUS
 62
     5
 10
-7.463864000000001
 20
41.45086699999999
 30
0.0
 11
-9.746077
 21
41.45086699999999
 31
0.0
  0
LINE
  5
2FF
  8
DETAIL
  6
CONTINUOUS
 62
     5
 10
-7.200329000000004
 20
40.980867
 30
0.0
 11
-9.746077
 21
40.980867
 31
0.0
  0
ARC
  5
300
  8
DETAIL
  6
CONTINUOUS
 62
     5
 10
-29.5
 20
77.50029899999993
 30
0.0
 40
2.5
 50
90.0
 51
270.0
  0
ARC
  5
301
  8
DETAIL
  6
CONTINUOUS
 62
     5
 10
-9.5
 20
77.50029899999993
 30
0.0
 40
2.5
 50
270.0
 51
90.0
  0
ARC
  5
302
  8
DETAIL
  6
CONTINUOUS
 62
     5
 10
-29.5
 20
70.00029899999993
 30
0.0
 40
2.5
 50
90.0
 51
270.0
  0
ARC
  5
303
  8
DETAIL
  6
CONTINUOUS
 62
     5
 10
-9.5
 20
70.00029899999993
 30
0.0
 40
2.5
 50
270.0
 51
90.0
  0
ARC
  5
304
  8
DETAIL
  6
CONTINUOUS
 62
     5
 10
-29.5
 20
62.50029899999993
 30
0.0
 40
2.5
 50
90.0
 51
270.0
  0
ARC
  5
305
  8
DETAIL
  6
CONTINUOUS
 62
     5
 10
-9.5
 20
62.50029899999993
 30
0.0
 40
2.5
 50
270.0
 51
90.0
  0
ARC
  5
306
  8
DETAIL
  6
CONTINUOUS
 62
     5
 10
-29.5
 20
55.00029899999993
 30
0.0
 40
2.5
 50
90.0
 51
270.0
  0
ARC
  5
307
  8
DETAIL
  6
CONTINUOUS
 62
     5
 10
-9.5
 20
55.00029899999993
 30
0.0
 40
2.5
 50
270.0
 51
90.0
  0
ARC
  5
308
  8
DETAIL
  6
CONTINUOUS
 62
     5
 10
-29.5
 20
47.50029899999993
 30
0.0
 40
2.5
 50
90.0
 51
270.0
  0
ARC
  5
309
  8
DETAIL
  6
CONTINUOUS
 62
     5
 10
-9.5
 20
47.50029899999993
 30
0.0
 40
2.5
 50
270.0
 51
90.0
  0
LINE
  5
30A
  8
DETAIL
  6
CONTINUOUS
 62
     5
 10
-29.5
 20
42.50029899999993
 30
0.0
 11
-9.5
 21
42.50029899999993
 31
0.0
  0
LINE
  5
30B
  8
DETAIL
  6
CONTINUOUS
 62
     5
 10
-29.5
 20
50.00029899999993
 30
0.0
 11
-9.5
 21
50.00029899999993
 31
0.0
  0
LINE
  5
30C
  8
DETAIL
  6
CONTINUOUS
 62
     5
 10
-29.5
 20
45.00029899999993
 30
0.0
 11
-9.5
 21
45.00029899999993
 31
0.0
  0
LINE
  5
30D
  8
DETAIL
  6
CONTINUOUS
 62
     5
 10
-29.5
 20
57.50029899999993
 30
0.0
 11
-9.5
 21
57.50029899999993
 31
0.0
  0
LINE
  5
30E
  8
DETAIL
  6
CONTINUOUS
 62
     5
 10
-29.5
 20
52.50029899999993
 30
0.0
 11
-9.5
 21
52.50029899999993
 31
0.0
  0
LINE
  5
30F
  8
DETAIL
  6
CONTINUOUS
 62
     5
 10
-29.5
 20
65.00029899999993
 30
0.0
 11
-9.5
 21
65.00029899999993
 31
0.0
  0
LINE
  5
310
  8
DETAIL
  6
CONTINUOUS
 62
     5
 10
-29.5
 20
60.00029899999993
 30
0.0
 11
-9.5
 21
60.00029899999993
 31
0.0
  0
LINE
  5
311
  8
DETAIL
  6
CONTINUOUS
 62
     5
 10
-29.5
 20
72.50029899999993
 30
0.0
 11
-9.5
 21
72.50029899999993
 31
0.0
  0
LINE
  5
312
  8
DETAIL
  6
CONTINUOUS
 62
     5
 10
-29.5
 20
67.50029899999993
 30
0.0
 11
-9.5
 21
67.50029899999993
 31
0.0
  0
LINE
  5
313
  8
DETAIL
  6
CONTINUOUS
 62
     5
 10
-29.5
 20
80.00029899999993
 30
0.0
 11
-9.5
 21
80.00029899999993
 31
0.0
  0
LINE
  5
314
  8
DETAIL
  6
CONTINUOUS
 62
     5
 10
-29.5
 20
75.00029899999993
 30
0.0
 11
-9.5
 21
75.00029899999993
 31
0.0
  0
LINE
  5
315
  8
DETAIL
  6
CONTINUOUS
 62
     5
 10
-30.536077
 20
42.27550099999992
 30
0.0
 11
-30.536077
 21
38.91086699999998
 31
0.0
  0
LINE
  5
316
  8
DETAIL
  6
CONTINUOUS
 62
     5
 10
-30.06607700000001
 20
42.43536699999993
 30
0.0
 11
-30.06607700000001
 21
38.91086699999998
 31
0.0
  0
LINE
  5
317
  8
DETAIL
  6
CONTINUOUS
 62
     5
 10
-27.996077
 20
40.980867
 30
0.0
 11
-27.996077
 21
37.500299
 31
0.0
  0
LINE
  5
318
  8
DETAIL
  6
CONTINUOUS
 62
     5
 10
-27.526077
 20
40.980867
 30
0.0
 11
-27.526077
 21
37.500299
 31
0.0
  0
LINE
  5
319
  8
DETAIL
  6
CONTINUOUS
 62
     5
 10
-24.986077
 20
42.50029899999993
 30
0.0
 11
-24.986077
 21
38.91086699999998
 31
0.0
  0
LINE
  5
31A
  8
DETAIL
  6
CONTINUOUS
 62
     5
 10
-25.456077
 20
42.50029899999993
 30
0.0
 11
-25.456077
 21
38.91086699999998
 31
0.0
  0
LINE
  5
31B
  8
DETAIL
  6
CONTINUOUS
 62
     5
 10
-22.446077
 20
40.980867
 30
0.0
 11
-22.446077
 21
37.500299
 31
0.0
  0
LINE
  5
31C
  8
DETAIL
  6
CONTINUOUS
 62
     5
 10
-22.916077
 20
40.980867
 30
0.0
 11
-22.916077
 21
37.500299
 31
0.0
  0
LINE
  5
31D
  8
DETAIL
  6
CONTINUOUS
 62
     5
 10
-19.906077
 20
42.50029899999993
 30
0.0
 11
-19.906077
 21
38.91086699999998
 31
0.0
  0
LINE
  5
31E
  8
DETAIL
  6
CONTINUOUS
 62
     5
 10
-20.376077
 20
42.50029899999993
 30
0.0
 11
-20.376077
 21
38.91086699999998
 31
0.0
  0
LINE
  5
31F
  8
DETAIL
  6
CONTINUOUS
 62
     5
 10
-17.36607700000001
 20
40.980867
 30
0.0
 11
-17.36607700000001
 21
37.500299
 31
0.0
  0
LINE
  5
320
  8
DETAIL
  6
CONTINUOUS
 62
     5
 10
-17.836077
 20
40.980867
 30
0.0
 11
-17.836077
 21
37.500299
 31
0.0
  0
LINE
  5
321
  8
DETAIL
  6
CONTINUOUS
 62
     5
 10
-14.82607700000001
 20
42.50029899999993
 30
0.0
 11
-14.82607700000001
 21
38.91086699999998
 31
0.0
  0
LINE
  5
322
  8
DETAIL
  6
CONTINUOUS
 62
     5
 10
-15.296077
 20
42.50029899999993
 30
0.0
 11
-15.296077
 21
38.91086699999998
 31
0.0
  0
LINE
  5
323
  8
DETAIL
  6
CONTINUOUS
 62
     5
 10
-12.28607700000001
 20
40.980867
 30
0.0
 11
-12.28607700000001
 21
37.500299
 31
0.0
  0
LINE
  5
324
  8
DETAIL
  6
CONTINUOUS
 62
     5
 10
-12.756077
 20
40.980867
 30
0.0
 11
-12.756077
 21
37.500299
 31
0.0
  0
LINE
  5
325
  8
DETAIL
  6
CONTINUOUS
 62
     5
 10
-9.746077
 20
42.50029899999993
 30
0.0
 11
-9.746077
 21
38.91086699999998
 31
0.0
  0
LINE
  5
326
  8
DETAIL
  6
CONTINUOUS
 62
     5
 10
-10.21607700000001
 20
42.50029899999993
 30
0.0
 11
-10.21607700000001
 21
38.91086699999998
 31
0.0
  0
LINE
  5
327
  8
DETAIL
  6
CONTINUOUS
 62
     5
 10
-7.206077000000001
 20
40.99423800000001
 30
0.0
 11
-7.206077000000001
 21
39.00635900000002
 31
0.0
  0
LINE
  5
328
  8
DETAIL
  6
CONTINUOUS
 62
     5
 10
-7.676076999999999
 20
40.980867
 30
0.0
 11
-7.676076999999999
 21
38.29053200000001
 31
0.0
  0
ARC
  5
329
  8
DETAIL
  6
CONTINUOUS
 62
     5
 10
-29.5
 20
40.000299
 30
0.0
 40
2.5
 50
90.0
 51
270.0
  0
ARC
  5
32A
  8
DETAIL
  6
CONTINUOUS
 62
     5
 10
-9.5
 20
40.000299
 30
0.0
 40
2.5
 50
270.0
 51
90.0
  0
LINE
  5
32B
  8
SIZE
  6
CONTINUOUS
 62
    30
 10
0.0
 20
-120.0
 30
0.0
 11
0.0
 21
-430.8027519999999
 31
0.0
  0
LINE
  5
32C
  8
SIZE
  6
CONTINUOUS
 62
    30
 10
-7.0
 20
-105.000299
 30
0.0
 11
-7.0
 21
-430.8027519999999
 31
0.0
  0
LINE
  5
32D
  8
SIZE
  6
CONTINUOUS
 62
    30
 10
12.0
 20
-410.802752
 30
0.0
 11
24.0
 21
-410.802752
 31
0.0
  0
LINE
  5
32E
  8
SIZE
  6
CONTINUOUS
 62
    30
 10
-19.0
 20
-410.802752
 30
0.0
 11
-31.0
 21
-410.802752
 31
0.0
  0
LINE
  5
32F
  8
SIZE
  6
CONTINUOUS
 62
    30
 10
114.4100949999999
 20
-410.802752
 30
0.0
 11
0.0
 21
-410.802752
 31
0.0
  0
TEXT
  5
330
  8
SIZE
  6
CONTINUOUS
 62
    30
 10
42.78152357142849
 20
-385.802752
 30
0.0
 40
64.0
  1
7
 41
0.9
 72
     1
 11
70.21009499999992
 21
-385.802752
 31
0.0
  0
LINE
  5
331
  8
SIZE
  6
CONTINUOUS
 62
    30
 10
0.0
 20
-410.802752
 30
0.0
 11
-7.0
 21
-410.802752
 31
0.0
  0
LINE
  5
332
  8
SIZE
  6
CONTINUOUS
 62
    30
 10
0.0
 20
-410.802752
 30
0.0
 11
-7.0
 21
-410.802752
 31
0.0
  0
CIRCLE
  5
333
  8
SIZE
  6
CONTINUOUS
 62
    30
 10
0.0
 20
-410.802752
 30
0.0
 40
6.0
  0
LINE
  5
334
  8
SIZE
  6
CONTINUOUS
 62
    30
 10
0.0
 20
-410.802752
 30
0.0
 11
12.0
 21
-410.802752
 31
0.0
  0
CIRCLE
  5
335
  8
SIZE
  6
CONTINUOUS
 62
    30
 10
-7.0
 20
-410.802752
 30
0.0
 40
6.0
  0
LINE
  5
336
  8
SIZE
  6
CONTINUOUS
 62
    30
 10
-7.0
 20
-410.802752
 30
0.0
 11
-19.0
 21
-410.802752
 31
0.0
  0
LINE
  5
33A
  8
SIZE
  6
CONTINUOUS
 62
    30
 10
20.0
 20
-100.0
 30
0.0
 11
321.0559959999999
 21
-100.0
 31
0.0
  0
LINE
  5
33B
  8
SIZE
  6
CONTINUOUS
 62
    30
 10
15.13390699999999
 20
103.9999999999999
 30
0.0
 11
321.0559959999999
 21
103.9999999999999
 31
0.0
  0
LINE
  5
33C
  8
SIZE
  6
CONTINUOUS
 62
    30
 10
301.0559959999999
 20
-88.0
 30
0.0
 11
301.0559959999999
 21
91.99999999999991
 31
0.0
  0
CIRCLE
  5
33D
  8
SIZE
  6
CONTINUOUS
 62
    30
 10
301.0559959999999
 20
-100.0
 30
0.0
 40
6.0
  0
LINE
  5
33E
  8
SIZE
  6
CONTINUOUS
 62
    30
 10
301.0559959999999
 20
-100.0
 30
0.0
 11
301.0559959999999
 21
-88.0
 31
0.0
  0
CIRCLE
  5
33F
  8
SIZE
  6
CONTINUOUS
 62
    30
 10
301.0559959999999
 20
103.9999999999999
 30
0.0
 40
6.0
  0
LINE
  5
340
  8
SIZE
  6
CONTINUOUS
 62
    30
 10
301.0559959999999
 20
103.9999999999999
 30
0.0
 11
301.0559959999999
 21
91.99999999999991
 31
0.0
  0
TEXT
  5
341
  8
SIZE
  6
CONTINUOUS
 62
    30
 10
276.0559959999999
 20
-81.65714285714286
 30
0.0
 40
64.0
  1
204
 50
90.0
 41
0.9
 72
     1
 11
276.0559959999999
 21
2.0
 31
0.0
  0
LINE
  5
345
  8
NOTE
  6
CONTINUOUS
 62
     4
 10
0.0
 20
64.99999999999993
 30
0.0
 11
0.0
 21
104.9999999999999
 31
0.0
  0
LINE
  5
346
  8
NOTE
  6
CONTINUOUS
 62
     4
 10
20.0
 20
84.99999999999991
 30
0.0
 11
-20.0
 21
84.99999999999991
 31
0.0
  0
CIRCLE
  5
347
  8
FIX
  6
CONTINUOUS
 62
    11
 39
50.0
 10
0.0
 20
84.99999999999991
 30
0.0
 40
5.5
  0
CIRCLE
  5
348
  8
FIX
  6
CONTINUOUS
 62
    11
 39
50.0
 10
0.0
 20
-85.0
 30
0.0
 40
5.5
  0
LINE
  5
349
  8
NOTE
  6
CONTINUOUS
 62
     4
 10
0.0
 20
-105.0
 30
0.0
 11
0.0
 21
-65.0
 31
0.0
  0
LINE
  5
34A
  8
NOTE
  6
CONTINUOUS
 62
     4
 10
20.0
 20
-85.0
 30
0.0
 11
-20.0
 21
-85.0
 31
0.0
  0
LINE
  5
34B
  8
SIZE
  6
CONTINUOUS
 62
    30
 10
40.0
 20
84.99999999999991
 30
0.0
 11
201.714516
 21
84.99999999999991
 31
0.0
  0
LINE
  5
34C
  8
SIZE
  6
CONTINUOUS
 62
    30
 10
40.0
 20
-85.0
 30
0.0
 11
201.714516
 21
-85.0
 31
0.0
  0
LINE
  5
34D
  8
SIZE
  6
CONTINUOUS
 62
    30
 10
181.7145159999999
 20
96.99999999999991
 30
0.0
 11
181.7145159999999
 21
108.9999999999999
 31
0.0
  0
LINE
  5
34E
  8
SIZE
  6
CONTINUOUS
 62
    30
 10
181.7145159999999
 20
-97.0
 30
0.0
 11
181.7145159999999
 21
-109.0
 31
0.0
  0
LINE
  5
34F
  8
SIZE
  6
CONTINUOUS
 62
    30
 10
181.7145159999999
 20
84.99999999999991
 30
0.0
 11
181.7145159999999
 21
-85.0
 31
0.0
  0
CIRCLE
  5
350
  8
SIZE
  6
CONTINUOUS
 62
    30
 10
181.7145159999999
 20
84.99999999999991
 30
0.0
 40
6.0
  0
LINE
  5
351
  8
SIZE
  6
CONTINUOUS
 62
    30
 10
181.7145159999999
 20
84.99999999999991
 30
0.0
 11
181.7145159999999
 21
96.99999999999991
 31
0.0
  0
CIRCLE
  5
352
  8
SIZE
  6
CONTINUOUS
 62
    30
 10
181.7145159999999
 20
-85.0
 30
0.0
 40
6.0
  0
LINE
  5
353
  8
SIZE
  6
CONTINUOUS
 62
    30
 10
181.7145159999999
 20
-85.0
 30
0.0
 11
181.7145159999999
 21
-97.0
 31
0.0
  0
TEXT
  5
354
  8
SIZE
  6
CONTINUOUS
 62
    30
 10
156.7145159999999
 20
-86.4
 30
0.0
 40
64.0
  1
170
 50
90.0
 41
0.9
 72
     1
 11
156.7145159999999
 21
0.0
 31
0.0
  0
LINE
  5
358
  8
NOTE
  6
CONTINUOUS
 62
     4
 10
93.40384399999994
 20
233.8798659999999
 30
0.0
 11
574.507197
 21
233.8798659999999
 31
0.0
  0
TEXT
  5
359
  8
NOTE
  6
CONTINUOUS
 62
     4
 10
111.9023169999999
 20
269.2345089999999
 30
0.0
 40
64.0
  1
4-φ11×22
 41
0.9
  0
LINE
  5
35A
  8
NOTE
  6
CONTINUOUS
 62
     4
 39
50.0
 10
0.0
 20
84.99999999999991
 30
0.0
 11
93.40384399999994
 21
233.8798659999999
 31
0.0
  0
LINE
  5
35B
  8
NOTE
  6
CONTINUOUS
 62
     4
 10
12.321254
 20
123.0550479999999
 30
0.0
 11
0.0
 21
84.99999999999991
 31
0.0
  0
LINE
  5
35C
  8
NOTE
  6
CONTINUOUS
 62
     4
 10
0.0
 20
84.99999999999991
 30
0.0
 11
29.698043
 21
111.7960109999999
 31
0.0
  0
ARC
  5
35D
  8
OUTLINE
  6
CONTINUOUS
 62
     3
 10
-1.100000000000001
 20
102.2482699999999
 30
0.0
 40
1.1
 50
0.0
 51
79.99999999999999
  0
ARC
  5
35E
  8
OUTLINE
  6
CONTINUOUS
 62
     3
 10
-1.100000000000001
 20
-104.363288
 30
0.0
 40
1.1
 50
314.9999999999998
 51
0.0
  0
LINE
  5
35F
  8
OUTLINE
  6
CONTINUOUS
 62
     3
 10
-117.0
 20
56.60405499999993
 30
0.0
 11
-117.0
 21
-101.000281
 31
0.0
  0
LINE
  5
360
  8
OUTLINE
  6
CONTINUOUS
 62
     3
 10
-33.8
 20
101.803056
 30
0.0
 11
-33.8
 21
-100.999405
 31
0.0
  0
LINE
  5
361
  8
OUTLINE
  6
CONTINUOUS
 62
     3
 10
0.0
 20
102.2482699999999
 30
0.0
 11
0.0
 21
-104.363288
 31
0.0
  0
LINE
  5
362
  8
OUTLINE
  6
CONTINUOUS
 62
     3
 10
-5.0
 20
101.9999999999999
 30
0.0
 11
-5.0
 21
-98.0
 31
0.0
  0
LINE
  5
363
  8
OUTLINE
  6
CONTINUOUS
 62
     3
 10
-117.0
 20
-101.000281
 30
0.0
 11
-2.800000000000004
 21
-101.000281
 31
0.0
  0
LINE
  5
364
  8
OUTLINE
  6
CONTINUOUS
 62
     3
 10
-3.0
 20
-100.0
 30
0.0
 11
0.0
 21
-100.0
 31
0.0
  0
ARC
  5
365
  8
OUTLINE
  6
CONTINUOUS
 62
     3
 10
-2.800000000000004
 20
-99.000281
 30
0.0
 40
2.0
 50
270.0
 51
330.009279
  0
LINE
  5
366
  8
OUTLINE
  6
CONTINUOUS
 62
     3
 10
-0.79999999999999
 20
-100.0
 30
0.0
 11
-0.79999999999999
 21
-104.363288
 31
0.0
  0
LINE
  5
367
  8
OUTLINE
  6
CONTINUOUS
 62
     3
 10
-15.565685
 20
-119.434315
 30
0.0
 11
-15.0
 21
-120.0
 31
0.0
  0
LINE
  5
368
  8
OUTLINE
  6
CONTINUOUS
 62
     3
 10
-0.8878680000000045
 20
-104.57542
 30
0.0
 11
-15.565685
 21
-119.434315
 31
0.0
  0
LINE
  5
369
  8
OUTLINE
  6
CONTINUOUS
 62
     3
 10
-0.3221830000000026
 20
-105.141105
 30
0.0
 11
-15.0
 21
-120.0
 31
0.0
  0
ARC
  5
36A
  8
OUTLINE
  6
CONTINUOUS
 62
     3
 10
-3.0
 20
-98.0
 30
0.0
 40
2.0
 50
180.0
 51
270.0
  0
ARC
  5
36B
  8
OUTLINE
  6
CONTINUOUS
 62
     3
 10
-1.100000000000001
 20
-104.363288
 30
0.0
 40
0.3
 50
314.999999999999
 51
0.0
  0
LINE
  5
36C
  8
OUTLINE
  6
CONTINUOUS
 62
     3
 39
50.0
 10
-0.79999999999999
 20
102.2482699999999
 30
0.0
 11
-0.79999999999999
 21
101.9999999999999
 31
0.0
  0
LINE
  5
36D
  8
OUTLINE
  6
CONTINUOUS
 62
     3
 10
-33.8
 20
89.01430599999992
 30
0.0
 11
-118.000024
 21
56.21108299999993
 31
0.0
  0
LINE
  5
36E
  8
OUTLINE
  6
CONTINUOUS
 62
     3
 10
-33.476643
 20
101.9304299999999
 30
0.0
 11
-118.000017
 21
68.99971899999993
 31
0.0
  0
LINE
  5
36F
  8
OUTLINE
  6
CONTINUOUS
 62
     3
 10
-118.000017
 20
68.99971899999993
 30
0.0
 11
-118.000024
 21
56.21108299999993
 31
0.0
  0
LINE
  5
370
  8
OUTLINE
  6
CONTINUOUS
 62
     3
 10
-33.8
 20
89.01430599999992
 30
0.0
 11
-5.0
 21
89.01430599999992
 31
0.0
  0
LINE
  5
371
  8
OUTLINE
  6
CONTINUOUS
 62
     3
 10
-33.115049
 20
101.9999999999999
 30
0.0
 11
0.0
 21
101.9999999999999
 31
0.0
  0
ARC
  5
372
  8
OUTLINE
  6
CONTINUOUS
 62
     3
 10
-33.110143
 20
101.0000119999999
 30
0.0
 40
1.0
 50
90.281096
 51
111.4999770000001
  0
LINE
  5
373
  8
OUTLINE
  6
CONTINUOUS
 62
     3
 10
-5.005011000000003
 20
103.2121539999999
 30
0.0
 11
-1.047906000000005
 21
102.5437119999999
 31
0.0
  0
ARC
  5
374
  8
OUTLINE
  6
CONTINUOUS
 62
     3
 10
-1.100000000000001
 20
102.2482699999999
 30
0.0
 40
0.3
 50
0.0
 51
79.99999999999967
  0
LINE
  5
375
  8
OUTLINE
  6
CONTINUOUS
 62
     3
 10
-4.866092999999999
 20
103.9999999999999
 30
0.0
 11
-0.9089870000000033
 21
103.3315589999999
 31
0.0
  0
LINE
  5
376
  8
OUTLINE
  6
CONTINUOUS
 62
     3
 10
-4.866092999999999
 20
103.9999999999999
 30
0.0
 11
-5.005011000000003
 21
103.2121539999999
 31
0.0
  0
LINE
  5
379
  8
DETAIL
  6
CONTINUOUS
 62
     5
 10
-30.06607700000001
 20
-38.440867
 30
0.0
 11
-30.06607700000001
 21
-37.56523
 31
0.0
  0
LINE
  5
37A
  8
DETAIL
  6
CONTINUOUS
 62
     5
 10
-30.536077
 20
-38.440867
 30
0.0
 11
-30.536077
 21
-37.72509600000001
 31
0.0
  0
LINE
  5
37B
  8
DETAIL
  6
CONTINUOUS
 62
     5
 10
-27.996077
 20
-38.910867
 30
0.0
 11
-31.750142
 21
-38.910867
 31
0.0
  0
LINE
  5
37C
  8
DETAIL
  6
CONTINUOUS
 62
     5
 10
-27.996077
 20
-38.440867
 30
0.0
 11
-31.454015
 21
-38.440867
 31
0.0
  0
LINE
  5
37D
  8
DETAIL
  6
CONTINUOUS
 62
     5
 10
-24.986077
 20
-38.440867
 30
0.0
 11
-24.986077
 21
-37.500299
 31
0.0
  0
LINE
  5
37E
  8
DETAIL
  6
CONTINUOUS
 62
     5
 10
-25.456077
 20
-38.440867
 30
0.0
 11
-25.456077
 21
-37.500299
 31
0.0
  0
LINE
  5
37F
  8
DETAIL
  6
CONTINUOUS
 62
     5
 10
-22.916077
 20
-38.910867
 30
0.0
 11
-27.526077
 21
-38.910867
 31
0.0
  0
LINE
  5
380
  8
DETAIL
  6
CONTINUOUS
 62
     5
 10
-22.916077
 20
-38.440867
 30
0.0
 11
-27.526077
 21
-38.440867
 31
0.0
  0
LINE
  5
381
  8
DETAIL
  6
CONTINUOUS
 62
     5
 10
-19.906077
 20
-38.440867
 30
0.0
 11
-19.906077
 21
-37.500299
 31
0.0
  0
LINE
  5
382
  8
DETAIL
  6
CONTINUOUS
 62
     5
 10
-20.376077
 20
-38.440867
 30
0.0
 11
-20.376077
 21
-37.500299
 31
0.0
  0
LINE
  5
383
  8
DETAIL
  6
CONTINUOUS
 62
     5
 10
-17.836077
 20
-38.910867
 30
0.0
 11
-22.446077
 21
-38.910867
 31
0.0
  0
LINE
  5
384
  8
DETAIL
  6
CONTINUOUS
 62
     5
 10
-17.836077
 20
-38.440867
 30
0.0
 11
-22.446077
 21
-38.440867
 31
0.0
  0
LINE
  5
385
  8
DETAIL
  6
CONTINUOUS
 62
     5
 10
-14.82607700000001
 20
-38.440867
 30
0.0
 11
-14.82607700000001
 21
-37.500299
 31
0.0
  0
LINE
  5
386
  8
DETAIL
  6
CONTINUOUS
 62
     5
 10
-15.296077
 20
-38.440867
 30
0.0
 11
-15.296077
 21
-37.500299
 31
0.0
  0
LINE
  5
387
  8
DETAIL
  6
CONTINUOUS
 62
     5
 10
-12.756077
 20
-38.440867
 30
0.0
 11
-17.36607700000001
 21
-38.440867
 31
0.0
  0
LINE
  5
388
  8
DETAIL
  6
CONTINUOUS
 62
     5
 10
-12.756077
 20
-38.910867
 30
0.0
 11
-17.36607700000001
 21
-38.910867
 31
0.0
  0
LINE
  5
389
  8
DETAIL
  6
CONTINUOUS
 62
     5
 10
-9.746077
 20
-38.440867
 30
0.0
 11
-9.746077
 21
-37.500299
 31
0.0
  0
LINE
  5
38A
  8
DETAIL
  6
CONTINUOUS
 62
     5
 10
-10.21607700000001
 20
-38.440867
 30
0.0
 11
-10.21607700000001
 21
-37.500299
 31
0.0
  0
LINE
  5
38B
  8
DETAIL
  6
CONTINUOUS
 62
     5
 10
-7.676076999999999
 20
-38.910867
 30
0.0
 11
-12.28607700000001
 21
-38.910867
 31
0.0
  0
LINE
  5
38C
  8
DETAIL
  6
CONTINUOUS
 62
     5
 10
-7.676076999999999
 20
-38.440867
 30
0.0
 11
-12.28607700000001
 21
-38.440867
 31
0.0
  0
LINE
  5
38D
  8
DETAIL
  6
CONTINUOUS
 62
     5
 10
-30.06607700000001
 20
-35.000299
 30
0.0
 11
-30.06607700000001
 21
-33.830867
 31
0.0
  0
LINE
  5
38E
  8
DETAIL
  6
CONTINUOUS
 62
     5
 10
-30.06607700000001
 20
-33.360867
 30
0.0
 11
-30.06607700000001
 21
-30.000299
 31
0.0
  0
LINE
  5
38F
  8
DETAIL
  6
CONTINUOUS
 62
     5
 10
-30.536077
 20
-34.77550100000001
 30
0.0
 11
-30.536077
 21
-33.830867
 31
0.0
  0
LINE
  5
390
  8
DETAIL
  6
CONTINUOUS
 62
     5
 10
-30.536077
 20
-33.360867
 30
0.0
 11
-30.536077
 21
-30.225096
 31
0.0
  0
LINE
  5
391
  8
DETAIL
  6
CONTINUOUS
 62
     5
 10
-31.687984
 20
-31.290867
 30
0.0
 11
-30.536077
 21
-31.290867
 31
0.0
  0
LINE
  5
392
  8
DETAIL
  6
CONTINUOUS
 62
     5
 10
-31.351894
 20
-30.820867
 30
0.0
 11
-30.536077
 21
-30.820867
 31
0.0
  0
LINE
  5
393
  8
DETAIL
  6
CONTINUOUS
 62
     5
 10
-27.996077
 20
-35.000299
 30
0.0
 11
-27.996077
 21
-31.290867
 31
0.0
  0
LINE
  5
394
  8
DETAIL
  6
CONTINUOUS
 62
     5
 10
-27.996077
 20
-30.820867
 30
0.0
 11
-27.996077
 21
-30.000299
 31
0.0
  0
LINE
  5
395
  8
DETAIL
  6
CONTINUOUS
 62
     5
 10
-27.526077
 20
-35.000299
 30
0.0
 11
-27.526077
 21
-31.290867
 31
0.0
  0
LINE
  5
396
  8
DETAIL
  6
CONTINUOUS
 62
     5
 10
-27.526077
 20
-30.820867
 30
0.0
 11
-27.526077
 21
-30.000299
 31
0.0
  0
LINE
  5
397
  8
DETAIL
  6
CONTINUOUS
 62
     5
 10
-31.847216
 20
-33.360867
 30
0.0
 11
-27.996077
 21
-33.360867
 31
0.0
  0
LINE
  5
398
  8
DETAIL
  6
CONTINUOUS
 62
     5
 10
-31.616504
 20
-33.830867
 30
0.0
 11
-27.996077
 21
-33.830867
 31
0.0
  0
LINE
  5
399
  8
DETAIL
  6
CONTINUOUS
 62
     5
 10
-25.456077
 20
-35.000299
 30
0.0
 11
-25.456077
 21
-33.830867
 31
0.0
  0
LINE
  5
39A
  8
DETAIL
  6
CONTINUOUS
 62
     5
 10
-25.456077
 20
-33.360867
 30
0.0
 11
-25.456077
 21
-30.000299
 31
0.0
  0
LINE
  5
39B
  8
DETAIL
  6
CONTINUOUS
 62
     5
 10
-24.986077
 20
-35.000299
 30
0.0
 11
-24.986077
 21
-33.830867
 31
0.0
  0
LINE
  5
39C
  8
DETAIL
  6
CONTINUOUS
 62
     5
 10
-24.986077
 20
-33.360867
 30
0.0
 11
-24.986077
 21
-30.000299
 31
0.0
  0
LINE
  5
39D
  8
DETAIL
  6
CONTINUOUS
 62
     5
 10
-30.06607700000001
 20
-31.290867
 30
0.0
 11
-25.456077
 21
-31.290867
 31
0.0
  0
LINE
  5
39E
  8
DETAIL
  6
CONTINUOUS
 62
     5
 10
-30.06607700000001
 20
-30.820867
 30
0.0
 11
-25.456077
 21
-30.820867
 31
0.0
  0
LINE
  5
39F
  8
DETAIL
  6
CONTINUOUS
 62
     5
 10
-22.916077
 20
-35.000299
 30
0.0
 11
-22.916077
 21
-31.290867
 31
0.0
  0
LINE
  5
3A0
  8
DETAIL
  6
CONTINUOUS
 62
     5
 10
-22.916077
 20
-30.820867
 30
0.0
 11
-22.916077
 21
-30.000299
 31
0.0
  0
LINE
  5
3A1
  8
DETAIL
  6
CONTINUOUS
 62
     5
 10
-22.446077
 20
-35.000299
 30
0.0
 11
-22.446077
 21
-31.290867
 31
0.0
  0
LINE
  5
3A2
  8
DETAIL
  6
CONTINUOUS
 62
     5
 10
-22.446077
 20
-30.820867
 30
0.0
 11
-22.446077
 21
-30.000299
 31
0.0
  0
LINE
  5
3A3
  8
DETAIL
  6
CONTINUOUS
 62
     5
 10
-27.526077
 20
-33.830867
 30
0.0
 11
-22.916077
 21
-33.830867
 31
0.0
  0
LINE
  5
3A4
  8
DETAIL
  6
CONTINUOUS
 62
     5
 10
-27.526077
 20
-33.360867
 30
0.0
 11
-22.916077
 21
-33.360867
 31
0.0
  0
LINE
  5
3A5
  8
DETAIL
  6
CONTINUOUS
 62
     5
 10
-20.376077
 20
-35.000299
 30
0.0
 11
-20.376077
 21
-33.830867
 31
0.0
  0
LINE
  5
3A6
  8
DETAIL
  6
CONTINUOUS
 62
     5
 10
-20.376077
 20
-33.360867
 30
0.0
 11
-20.376077
 21
-30.000299
 31
0.0
  0
LINE
  5
3A7
  8
DETAIL
  6
CONTINUOUS
 62
     5
 10
-19.906077
 20
-35.000299
 30
0.0
 11
-19.906077
 21
-33.830867
 31
0.0
  0
LINE
  5
3A8
  8
DETAIL
  6
CONTINUOUS
 62
     5
 10
-19.906077
 20
-33.360867
 30
0.0
 11
-19.906077
 21
-30.000299
 31
0.0
  0
LINE
  5
3A9
  8
DETAIL
  6
CONTINUOUS
 62
     5
 10
-24.986077
 20
-31.290867
 30
0.0
 11
-20.376077
 21
-31.290867
 31
0.0
  0
LINE
  5
3AA
  8
DETAIL
  6
CONTINUOUS
 62
     5
 10
-24.986077
 20
-30.820867
 30
0.0
 11
-20.376077
 21
-30.820867
 31
0.0
  0
LINE
  5
3AB
  8
DETAIL
  6
CONTINUOUS
 62
     5
 10
-17.836077
 20
-35.000299
 30
0.0
 11
-17.836077
 21
-31.290867
 31
0.0
  0
LINE
  5
3AC
  8
DETAIL
  6
CONTINUOUS
 62
     5
 10
-17.836077
 20
-30.820867
 30
0.0
 11
-17.836077
 21
-30.000299
 31
0.0
  0
LINE
  5
3AD
  8
DETAIL
  6
CONTINUOUS
 62
     5
 10
-17.36607700000001
 20
-35.000299
 30
0.0
 11
-17.36607700000001
 21
-31.290867
 31
0.0
  0
LINE
  5
3AE
  8
DETAIL
  6
CONTINUOUS
 62
     5
 10
-17.36607700000001
 20
-30.820867
 30
0.0
 11
-17.36607700000001
 21
-30.000299
 31
0.0
  0
LINE
  5
3AF
  8
DETAIL
  6
CONTINUOUS
 62
     5
 10
-22.446077
 20
-33.360867
 30
0.0
 11
-17.836077
 21
-33.360867
 31
0.0
  0
LINE
  5
3B0
  8
DETAIL
  6
CONTINUOUS
 62
     5
 10
-22.446077
 20
-33.830867
 30
0.0
 11
-17.836077
 21
-33.830867
 31
0.0
  0
LINE
  5
3B1
  8
DETAIL
  6
CONTINUOUS
 62
     5
 10
-15.296077
 20
-35.000299
 30
0.0
 11
-15.296077
 21
-33.830867
 31
0.0
  0
LINE
  5
3B2
  8
DETAIL
  6
CONTINUOUS
 62
     5
 10
-15.296077
 20
-33.360867
 30
0.0
 11
-15.296077
 21
-30.000299
 31
0.0
  0
LINE
  5
3B3
  8
DETAIL
  6
CONTINUOUS
 62
     5
 10
-14.82607700000001
 20
-35.000299
 30
0.0
 11
-14.82607700000001
 21
-33.830867
 31
0.0
  0
LINE
  5
3B4
  8
DETAIL
  6
CONTINUOUS
 62
     5
 10
-14.82607700000001
 20
-33.360867
 30
0.0
 11
-14.82607700000001
 21
-30.000299
 31
0.0
  0
LINE
  5
3B5
  8
DETAIL
  6
CONTINUOUS
 62
     5
 10
-19.906077
 20
-31.290867
 30
0.0
 11
-15.296077
 21
-31.290867
 31
0.0
  0
LINE
  5
3B6
  8
DETAIL
  6
CONTINUOUS
 62
     5
 10
-19.906077
 20
-30.820867
 30
0.0
 11
-15.296077
 21
-30.820867
 31
0.0
  0
LINE
  5
3B7
  8
DETAIL
  6
CONTINUOUS
 62
     5
 10
-12.756077
 20
-35.000299
 30
0.0
 11
-12.756077
 21
-31.290867
 31
0.0
  0
LINE
  5
3B8
  8
DETAIL
  6
CONTINUOUS
 62
     5
 10
-12.756077
 20
-30.820867
 30
0.0
 11
-12.756077
 21
-30.000299
 31
0.0
  0
LINE
  5
3B9
  8
DETAIL
  6
CONTINUOUS
 62
     5
 10
-12.28607700000001
 20
-35.000299
 30
0.0
 11
-12.28607700000001
 21
-31.290867
 31
0.0
  0
LINE
  5
3BA
  8
DETAIL
  6
CONTINUOUS
 62
     5
 10
-12.28607700000001
 20
-30.820867
 30
0.0
 11
-12.28607700000001
 21
-30.000299
 31
0.0
  0
LINE
  5
3BB
  8
DETAIL
  6
CONTINUOUS
 62
     5
 10
-17.36607700000001
 20
-33.360867
 30
0.0
 11
-12.756077
 21
-33.360867
 31
0.0
  0
LINE
  5
3BC
  8
DETAIL
  6
CONTINUOUS
 62
     5
 10
-17.36607700000001
 20
-33.830867
 30
0.0
 11
-12.756077
 21
-33.830867
 31
0.0
  0
LINE
  5
3BD
  8
DETAIL
  6
CONTINUOUS
 62
     5
 10
-10.21607700000001
 20
-35.000299
 30
0.0
 11
-10.21607700000001
 21
-33.830867
 31
0.0
  0
LINE
  5
3BE
  8
DETAIL
  6
CONTINUOUS
 62
     5
 10
-9.746077
 20
-35.000299
 30
0.0
 11
-9.746077
 21
-33.830867
 31
0.0
  0
LINE
  5
3BF
  8
DETAIL
  6
CONTINUOUS
 62
     5
 10
-14.82607700000001
 20
-31.290867
 30
0.0
 11
-10.21607700000001
 21
-31.290867
 31
0.0
  0
LINE
  5
3C0
  8
DETAIL
  6
CONTINUOUS
 62
     5
 10
-14.82607700000001
 20
-30.820867
 30
0.0
 11
-10.21607700000001
 21
-30.820867
 31
0.0
  0
LINE
  5
3C1
  8
DETAIL
  6
CONTINUOUS
 62
     5
 10
-9.746077
 20
-30.820867
 30
0.0
 11
-7.648106000000006
 21
-30.820867
 31
0.0
  0
LINE
  5
3C2
  8
DETAIL
  6
CONTINUOUS
 62
     5
 10
-9.746077
 20
-33.360867
 30
0.0
 11
-9.746077
 21
-30.000299
 31
0.0
  0
LINE
  5
3C3
  8
DETAIL
  6
CONTINUOUS
 62
     5
 10
-10.21607700000001
 20
-33.360867
 30
0.0
 11
-10.21607700000001
 21
-30.000299
 31
0.0
  0
LINE
  5
3C4
  8
DETAIL
  6
CONTINUOUS
 62
     5
 10
-12.28607700000001
 20
-33.360867
 30
0.0
 11
-7.676076999999999
 21
-33.360867
 31
0.0
  0
LINE
  5
3C5
  8
DETAIL
  6
CONTINUOUS
 62
     5
 10
-7.206077000000001
 20
-33.360867
 30
0.0
 11
-7.152784000000004
 21
-33.360867
 31
0.0
  0
LINE
  5
3C6
  8
DETAIL
  6
CONTINUOUS
 62
     5
 10
-12.28607700000001
 20
-33.830867
 30
0.0
 11
-7.676076999999999
 21
-33.830867
 31
0.0
  0
LINE
  5
3C7
  8
DETAIL
  6
CONTINUOUS
 62
     5
 10
-9.746077
 20
-31.290867
 30
0.0
 11
-7.312016
 21
-31.290867
 31
0.0
  0
LINE
  5
3C8
  8
DETAIL
  6
CONTINUOUS
 62
     5
 10
-7.206077000000001
 20
-33.494238
 30
0.0
 11
-7.206077000000001
 21
-31.50635900000001
 31
0.0
  0
LINE
  5
3C9
  8
DETAIL
  6
CONTINUOUS
 62
     5
 10
-7.676076999999999
 20
-34.210066
 30
0.0
 11
-7.676076999999999
 21
-31.290867
 31
0.0
  0
LINE
  5
3CA
  8
DETAIL
  6
CONTINUOUS
 62
     5
 10
-30.536077
 20
-25.980867
 30
0.0
 11
-31.79967100000001
 21
-25.980867
 31
0.0
  0
LINE
  5
3CB
  8
DETAIL
  6
CONTINUOUS
 62
     5
 10
-30.536077
 20
-26.450867
 30
0.0
 11
-31.536136
 21
-26.450867
 31
0.0
  0
LINE
  5
3CC
  8
DETAIL
  6
CONTINUOUS
 62
     5
 10
-30.536077
 20
-27.27550100000001
 30
0.0
 11
-30.536077
 21
-23.910867
 31
0.0
  0
LINE
  5
3CD
  8
DETAIL
  6
CONTINUOUS
 62
     5
 10
-30.06607700000001
 20
-27.435367
 30
0.0
 11
-30.06607700000001
 21
-23.910867
 31
0.0
  0
LINE
  5
3CE
  8
DETAIL
  6
CONTINUOUS
 62
     5
 10
-27.526077
 20
-27.500299
 30
0.0
 11
-27.526077
 21
-26.450867
 31
0.0
  0
LINE
  5
3CF
  8
DETAIL
  6
CONTINUOUS
 62
     5
 10
-27.996077
 20
-27.500299
 30
0.0
 11
-27.996077
 21
-26.450867
 31
0.0
  0
LINE
  5
3D0
  8
DETAIL
  6
CONTINUOUS
 62
     5
 10
-27.996077
 20
-25.980867
 30
0.0
 11
-27.996077
 21
-22.50029900000001
 31
0.0
  0
LINE
  5
3D1
  8
DETAIL
  6
CONTINUOUS
 62
     5
 10
-27.526077
 20
-25.980867
 30
0.0
 11
-27.526077
 21
-22.50029900000001
 31
0.0
  0
LINE
  5
3D2
  8
DETAIL
  6
CONTINUOUS
 62
     5
 10
-30.06607700000001
 20
-23.440867
 30
0.0
 11
-30.06607700000001
 21
-22.56523
 31
0.0
  0
LINE
  5
3D3
  8
DETAIL
  6
CONTINUOUS
 62
     5
 10
-30.536077
 20
-23.440867
 30
0.0
 11
-30.536077
 21
-22.725096
 31
0.0
  0
LINE
  5
3D4
  8
DETAIL
  6
CONTINUOUS
 62
     5
 10
-27.996077
 20
-23.910867
 30
0.0
 11
-31.750142
 21
-23.910867
 31
0.0
  0
LINE
  5
3D5
  8
DETAIL
  6
CONTINUOUS
 62
     5
 10
-27.996077
 20
-23.440867
 30
0.0
 11
-31.454015
 21
-23.440867
 31
0.0
  0
LINE
  5
3D6
  8
DETAIL
  6
CONTINUOUS
 62
     5
 10
-25.456077
 20
-26.450867
 30
0.0
 11
-30.06607700000001
 21
-26.450867
 31
0.0
  0
LINE
  5
3D7
  8
DETAIL
  6
CONTINUOUS
 62
     5
 10
-25.456077
 20
-25.980867
 30
0.0
 11
-30.06607700000001
 21
-25.980867
 31
0.0
  0
LINE
  5
3D8
  8
DETAIL
  6
CONTINUOUS
 62
     5
 10
-24.986077
 20
-27.500299
 30
0.0
 11
-24.986077
 21
-23.910867
 31
0.0
  0
LINE
  5
3D9
  8
DETAIL
  6
CONTINUOUS
 62
     5
 10
-24.986077
 20
-23.440867
 30
0.0
 11
-24.986077
 21
-22.50029900000001
 31
0.0
  0
LINE
  5
3DA
  8
DETAIL
  6
CONTINUOUS
 62
     5
 10
-25.456077
 20
-27.500299
 30
0.0
 11
-25.456077
 21
-23.910867
 31
0.0
  0
LINE
  5
3DB
  8
DETAIL
  6
CONTINUOUS
 62
     5
 10
-25.456077
 20
-23.440867
 30
0.0
 11
-25.456077
 21
-22.50029900000001
 31
0.0
  0
LINE
  5
3DC
  8
DETAIL
  6
CONTINUOUS
 62
     5
 10
-22.916077
 20
-23.910867
 30
0.0
 11
-27.526077
 21
-23.910867
 31
0.0
  0
LINE
  5
3DD
  8
DETAIL
  6
CONTINUOUS
 62
     5
 10
-22.916077
 20
-23.440867
 30
0.0
 11
-27.526077
 21
-23.440867
 31
0.0
  0
LINE
  5
3DE
  8
DETAIL
  6
CONTINUOUS
 62
     5
 10
-22.446077
 20
-27.500299
 30
0.0
 11
-22.446077
 21
-26.450867
 31
0.0
  0
LINE
  5
3DF
  8
DETAIL
  6
CONTINUOUS
 62
     5
 10
-22.446077
 20
-25.980867
 30
0.0
 11
-22.446077
 21
-22.50029900000001
 31
0.0
  0
LINE
  5
3E0
  8
DETAIL
  6
CONTINUOUS
 62
     5
 10
-22.916077
 20
-27.500299
 30
0.0
 11
-22.916077
 21
-26.450867
 31
0.0
  0
LINE
  5
3E1
  8
DETAIL
  6
CONTINUOUS
 62
     5
 10
-22.916077
 20
-25.980867
 30
0.0
 11
-22.916077
 21
-22.50029900000001
 31
0.0
  0
LINE
  5
3E2
  8
DETAIL
  6
CONTINUOUS
 62
     5
 10
-20.376077
 20
-26.450867
 30
0.0
 11
-24.986077
 21
-26.450867
 31
0.0
  0
LINE
  5
3E3
  8
DETAIL
  6
CONTINUOUS
 62
     5
 10
-20.376077
 20
-25.980867
 30
0.0
 11
-24.986077
 21
-25.980867
 31
0.0
  0
LINE
  5
3E4
  8
DETAIL
  6
CONTINUOUS
 62
     5
 10
-19.906077
 20
-27.500299
 30
0.0
 11
-19.906077
 21
-23.910867
 31
0.0
  0
LINE
  5
3E5
  8
DETAIL
  6
CONTINUOUS
 62
     5
 10
-19.906077
 20
-23.440867
 30
0.0
 11
-19.906077
 21
-22.50029900000001
 31
0.0
  0
LINE
  5
3E6
  8
DETAIL
  6
CONTINUOUS
 62
     5
 10
-20.376077
 20
-27.500299
 30
0.0
 11
-20.376077
 21
-23.910867
 31
0.0
  0
LINE
  5
3E7
  8
DETAIL
  6
CONTINUOUS
 62
     5
 10
-20.376077
 20
-23.440867
 30
0.0
 11
-20.376077
 21
-22.50029900000001
 31
0.0
  0
LINE
  5
3E8
  8
DETAIL
  6
CONTINUOUS
 62
     5
 10
-17.836077
 20
-23.910867
 30
0.0
 11
-22.446077
 21
-23.910867
 31
0.0
  0
LINE
  5
3E9
  8
DETAIL
  6
CONTINUOUS
 62
     5
 10
-17.836077
 20
-23.440867
 30
0.0
 11
-22.446077
 21
-23.440867
 31
0.0
  0
LINE
  5
3EA
  8
DETAIL
  6
CONTINUOUS
 62
     5
 10
-17.36607700000001
 20
-27.500299
 30
0.0
 11
-17.36607700000001
 21
-26.450867
 31
0.0
  0
LINE
  5
3EB
  8
DETAIL
  6
CONTINUOUS
 62
     5
 10
-17.36607700000001
 20
-25.980867
 30
0.0
 11
-17.36607700000001
 21
-22.50029900000001
 31
0.0
  0
LINE
  5
3EC
  8
DETAIL
  6
CONTINUOUS
 62
     5
 10
-17.836077
 20
-27.500299
 30
0.0
 11
-17.836077
 21
-26.450867
 31
0.0
  0
LINE
  5
3ED
  8
DETAIL
  6
CONTINUOUS
 62
     5
 10
-17.836077
 20
-25.980867
 30
0.0
 11
-17.836077
 21
-22.50029900000001
 31
0.0
  0
LINE
  5
3EE
  8
DETAIL
  6
CONTINUOUS
 62
     5
 10
-15.296077
 20
-26.450867
 30
0.0
 11
-19.906077
 21
-26.450867
 31
0.0
  0
LINE
  5
3EF
  8
DETAIL
  6
CONTINUOUS
 62
     5
 10
-15.296077
 20
-25.980867
 30
0.0
 11
-19.906077
 21
-25.980867
 31
0.0
  0
LINE
  5
3F0
  8
DETAIL
  6
CONTINUOUS
 62
     5
 10
-14.82607700000001
 20
-27.500299
 30
0.0
 11
-14.82607700000001
 21
-23.910867
 31
0.0
  0
LINE
  5
3F1
  8
DETAIL
  6
CONTINUOUS
 62
     5
 10
-14.82607700000001
 20
-23.440867
 30
0.0
 11
-14.82607700000001
 21
-22.50029900000001
 31
0.0
  0
LINE
  5
3F2
  8
DETAIL
  6
CONTINUOUS
 62
     5
 10
-15.296077
 20
-27.500299
 30
0.0
 11
-15.296077
 21
-23.910867
 31
0.0
  0
LINE
  5
3F3
  8
DETAIL
  6
CONTINUOUS
 62
     5
 10
-15.296077
 20
-23.440867
 30
0.0
 11
-15.296077
 21
-22.50029900000001
 31
0.0
  0
LINE
  5
3F4
  8
DETAIL
  6
CONTINUOUS
 62
     5
 10
-12.756077
 20
-23.440867
 30
0.0
 11
-17.36607700000001
 21
-23.440867
 31
0.0
  0
LINE
  5
3F5
  8
DETAIL
  6
CONTINUOUS
 62
     5
 10
-12.756077
 20
-23.910867
 30
0.0
 11
-17.36607700000001
 21
-23.910867
 31
0.0
  0
LINE
  5
3F6
  8
DETAIL
  6
CONTINUOUS
 62
     5
 10
-12.28607700000001
 20
-27.500299
 30
0.0
 11
-12.28607700000001
 21
-26.450867
 31
0.0
  0
LINE
  5
3F7
  8
DETAIL
  6
CONTINUOUS
 62
     5
 10
-12.28607700000001
 20
-25.980867
 30
0.0
 11
-12.28607700000001
 21
-22.50029900000001
 31
0.0
  0
LINE
  5
3F8
  8
DETAIL
  6
CONTINUOUS
 62
     5
 10
-12.756077
 20
-27.500299
 30
0.0
 11
-12.756077
 21
-26.450867
 31
0.0
  0
LINE
  5
3F9
  8
DETAIL
  6
CONTINUOUS
 62
     5
 10
-12.756077
 20
-25.980867
 30
0.0
 11
-12.756077
 21
-22.50029900000001
 31
0.0
  0
LINE
  5
3FA
  8
DETAIL
  6
CONTINUOUS
 62
     5
 10
-10.21607700000001
 20
-26.450867
 30
0.0
 11
-14.82607700000001
 21
-26.450867
 31
0.0
  0
LINE
  5
3FB
  8
DETAIL
  6
CONTINUOUS
 62
     5
 10
-10.21607700000001
 20
-25.980867
 30
0.0
 11
-14.82607700000001
 21
-25.980867
 31
0.0
  0
LINE
  5
3FC
  8
DETAIL
  6
CONTINUOUS
 62
     5
 10
-9.746077
 20
-27.500299
 30
0.0
 11
-9.746077
 21
-23.910867
 31
0.0
  0
LINE
  5
3FD
  8
DETAIL
  6
CONTINUOUS
 62
     5
 10
-9.746077
 20
-23.440867
 30
0.0
 11
-9.746077
 21
-22.50029900000001
 31
0.0
  0
LINE
  5
3FE
  8
DETAIL
  6
CONTINUOUS
 62
     5
 10
-10.21607700000001
 20
-27.500299
 30
0.0
 11
-10.21607700000001
 21
-23.910867
 31
0.0
  0
LINE
  5
3FF
  8
DETAIL
  6
CONTINUOUS
 62
     5
 10
-10.21607700000001
 20
-23.440867
 30
0.0
 11
-10.21607700000001
 21
-22.50029900000001
 31
0.0
  0
LINE
  5
400
  8
DETAIL
  6
CONTINUOUS
 62
     5
 10
-7.206077000000001
 20
-25.994238
 30
0.0
 11
-7.206077000000001
 21
-24.00635900000001
 31
0.0
  0
LINE
  5
401
  8
DETAIL
  6
CONTINUOUS
 62
     5
 10
-7.676076999999999
 20
-26.710066
 30
0.0
 11
-7.676076999999999
 21
-26.450867
 31
0.0
  0
LINE
  5
402
  8
DETAIL
  6
CONTINUOUS
 62
     5
 10
-7.676076999999999
 20
-25.980867
 30
0.0
 11
-7.676076999999999
 21
-23.29053200000001
 31
0.0
  0
LINE
  5
403
  8
DETAIL
  6
CONTINUOUS
 62
     5
 10
-7.463864000000001
 20
-26.450867
 30
0.0
 11
-9.746077
 21
-26.450867
 31
0.0
  0
LINE
  5
404
  8
DETAIL
  6
CONTINUOUS
 62
     5
 10
-7.200329000000004
 20
-25.980867
 30
0.0
 11
-9.746077
 21
-25.980867
 31
0.0
  0
LINE
  5
405
  8
DETAIL
  6
CONTINUOUS
 62
     5
 10
-7.676076999999999
 20
-23.910867
 30
0.0
 11
-12.28607700000001
 21
-23.910867
 31
0.0
  0
LINE
  5
406
  8
DETAIL
  6
CONTINUOUS
 62
     5
 10
-7.676076999999999
 20
-23.440867
 30
0.0
 11
-12.28607700000001
 21
-23.440867
 31
0.0
  0
LINE
  5
407
  8
DETAIL
  6
CONTINUOUS
 62
     5
 10
-30.06607700000001
 20
-20.00029900000001
 30
0.0
 11
-30.06607700000001
 21
-18.830867
 31
0.0
  0
LINE
  5
408
  8
DETAIL
  6
CONTINUOUS
 62
     5
 10
-30.06607700000001
 20
-18.36086700000001
 30
0.0
 11
-30.06607700000001
 21
-15.00029900000001
 31
0.0
  0
LINE
  5
409
  8
DETAIL
  6
CONTINUOUS
 62
     5
 10
-30.536077
 20
-19.77550100000001
 30
0.0
 11
-30.536077
 21
-18.830867
 31
0.0
  0
LINE
  5
40A
  8
DETAIL
  6
CONTINUOUS
 62
     5
 10
-30.536077
 20
-18.36086700000001
 30
0.0
 11
-30.536077
 21
-15.225096
 31
0.0
  0
LINE
  5
40B
  8
DETAIL
  6
CONTINUOUS
 62
     5
 10
-31.687984
 20
-16.29086700000001
 30
0.0
 11
-30.536077
 21
-16.29086700000001
 31
0.0
  0
LINE
  5
40C
  8
DETAIL
  6
CONTINUOUS
 62
     5
 10
-31.351894
 20
-15.820867
 30
0.0
 11
-30.536077
 21
-15.820867
 31
0.0
  0
LINE
  5
40D
  8
DETAIL
  6
CONTINUOUS
 62
     5
 10
-27.996077
 20
-20.00029900000001
 30
0.0
 11
-27.996077
 21
-16.29086700000001
 31
0.0
  0
LINE
  5
40E
  8
DETAIL
  6
CONTINUOUS
 62
     5
 10
-27.996077
 20
-15.820867
 30
0.0
 11
-27.996077
 21
-15.00029900000001
 31
0.0
  0
LINE
  5
40F
  8
DETAIL
  6
CONTINUOUS
 62
     5
 10
-27.526077
 20
-20.00029900000001
 30
0.0
 11
-27.526077
 21
-16.29086700000001
 31
0.0
  0
LINE
  5
410
  8
DETAIL
  6
CONTINUOUS
 62
     5
 10
-27.526077
 20
-15.820867
 30
0.0
 11
-27.526077
 21
-15.00029900000001
 31
0.0
  0
LINE
  5
411
  8
DETAIL
  6
CONTINUOUS
 62
     5
 10
-31.847216
 20
-18.36086700000001
 30
0.0
 11
-27.996077
 21
-18.36086700000001
 31
0.0
  0
LINE
  5
412
  8
DETAIL
  6
CONTINUOUS
 62
     5
 10
-31.616504
 20
-18.830867
 30
0.0
 11
-27.996077
 21
-18.830867
 31
0.0
  0
LINE
  5
413
  8
DETAIL
  6
CONTINUOUS
 62
     5
 10
-25.456077
 20
-20.00029900000001
 30
0.0
 11
-25.456077
 21
-18.830867
 31
0.0
  0
LINE
  5
414
  8
DETAIL
  6
CONTINUOUS
 62
     5
 10
-25.456077
 20
-18.36086700000001
 30
0.0
 11
-25.456077
 21
-15.00029900000001
 31
0.0
  0
LINE
  5
415
  8
DETAIL
  6
CONTINUOUS
 62
     5
 10
-24.986077
 20
-20.00029900000001
 30
0.0
 11
-24.986077
 21
-18.830867
 31
0.0
  0
LINE
  5
416
  8
DETAIL
  6
CONTINUOUS
 62
     5
 10
-24.986077
 20
-18.36086700000001
 30
0.0
 11
-24.986077
 21
-15.00029900000001
 31
0.0
  0
LINE
  5
417
  8
DETAIL
  6
CONTINUOUS
 62
     5
 10
-30.06607700000001
 20
-16.29086700000001
 30
0.0
 11
-25.456077
 21
-16.29086700000001
 31
0.0
  0
LINE
  5
418
  8
DETAIL
  6
CONTINUOUS
 62
     5
 10
-30.06607700000001
 20
-15.820867
 30
0.0
 11
-25.456077
 21
-15.820867
 31
0.0
  0
LINE
  5
419
  8
DETAIL
  6
CONTINUOUS
 62
     5
 10
-22.916077
 20
-20.00029900000001
 30
0.0
 11
-22.916077
 21
-16.29086700000001
 31
0.0
  0
LINE
  5
41A
  8
DETAIL
  6
CONTINUOUS
 62
     5
 10
-22.916077
 20
-15.820867
 30
0.0
 11
-22.916077
 21
-15.00029900000001
 31
0.0
  0
LINE
  5
41B
  8
DETAIL
  6
CONTINUOUS
 62
     5
 10
-22.446077
 20
-20.00029900000001
 30
0.0
 11
-22.446077
 21
-16.29086700000001
 31
0.0
  0
LINE
  5
41C
  8
DETAIL
  6
CONTINUOUS
 62
     5
 10
-22.446077
 20
-15.820867
 30
0.0
 11
-22.446077
 21
-15.00029900000001
 31
0.0
  0
LINE
  5
41D
  8
DETAIL
  6
CONTINUOUS
 62
     5
 10
-27.526077
 20
-18.830867
 30
0.0
 11
-22.916077
 21
-18.830867
 31
0.0
  0
LINE
  5
41E
  8
DETAIL
  6
CONTINUOUS
 62
     5
 10
-27.526077
 20
-18.36086700000001
 30
0.0
 11
-22.916077
 21
-18.36086700000001
 31
0.0
  0
LINE
  5
41F
  8
DETAIL
  6
CONTINUOUS
 62
     5
 10
-20.376077
 20
-20.00029900000001
 30
0.0
 11
-20.376077
 21
-18.830867
 31
0.0
  0
LINE
  5
420
  8
DETAIL
  6
CONTINUOUS
 62
     5
 10
-20.376077
 20
-18.36086700000001
 30
0.0
 11
-20.376077
 21
-15.00029900000001
 31
0.0
  0
LINE
  5
421
  8
DETAIL
  6
CONTINUOUS
 62
     5
 10
-19.906077
 20
-20.00029900000001
 30
0.0
 11
-19.906077
 21
-18.830867
 31
0.0
  0
LINE
  5
422
  8
DETAIL
  6
CONTINUOUS
 62
     5
 10
-19.906077
 20
-18.36086700000001
 30
0.0
 11
-19.906077
 21
-15.00029900000001
 31
0.0
  0
LINE
  5
423
  8
DETAIL
  6
CONTINUOUS
 62
     5
 10
-24.986077
 20
-16.29086700000001
 30
0.0
 11
-20.376077
 21
-16.29086700000001
 31
0.0
  0
LINE
  5
424
  8
DETAIL
  6
CONTINUOUS
 62
     5
 10
-24.986077
 20
-15.820867
 30
0.0
 11
-20.376077
 21
-15.820867
 31
0.0
  0
LINE
  5
425
  8
DETAIL
  6
CONTINUOUS
 62
     5
 10
-17.836077
 20
-20.00029900000001
 30
0.0
 11
-17.836077
 21
-16.29086700000001
 31
0.0
  0
LINE
  5
426
  8
DETAIL
  6
CONTINUOUS
 62
     5
 10
-17.836077
 20
-15.820867
 30
0.0
 11
-17.836077
 21
-15.00029900000001
 31
0.0
  0
LINE
  5
427
  8
DETAIL
  6
CONTINUOUS
 62
     5
 10
-17.36607700000001
 20
-20.00029900000001
 30
0.0
 11
-17.36607700000001
 21
-16.29086700000001
 31
0.0
  0
LINE
  5
428
  8
DETAIL
  6
CONTINUOUS
 62
     5
 10
-17.36607700000001
 20
-15.820867
 30
0.0
 11
-17.36607700000001
 21
-15.00029900000001
 31
0.0
  0
LINE
  5
429
  8
DETAIL
  6
CONTINUOUS
 62
     5
 10
-22.446077
 20
-18.36086700000001
 30
0.0
 11
-17.836077
 21
-18.36086700000001
 31
0.0
  0
LINE
  5
42A
  8
DETAIL
  6
CONTINUOUS
 62
     5
 10
-22.446077
 20
-18.830867
 30
0.0
 11
-17.836077
 21
-18.830867
 31
0.0
  0
LINE
  5
42B
  8
DETAIL
  6
CONTINUOUS
 62
     5
 10
-15.296077
 20
-20.00029900000001
 30
0.0
 11
-15.296077
 21
-18.830867
 31
0.0
  0
LINE
  5
42C
  8
DETAIL
  6
CONTINUOUS
 62
     5
 10
-15.296077
 20
-18.36086700000001
 30
0.0
 11
-15.296077
 21
-15.00029900000001
 31
0.0
  0
LINE
  5
42D
  8
DETAIL
  6
CONTINUOUS
 62
     5
 10
-14.82607700000001
 20
-20.00029900000001
 30
0.0
 11
-14.82607700000001
 21
-18.830867
 31
0.0
  0
LINE
  5
42E
  8
DETAIL
  6
CONTINUOUS
 62
     5
 10
-14.82607700000001
 20
-18.36086700000001
 30
0.0
 11
-14.82607700000001
 21
-15.00029900000001
 31
0.0
  0
LINE
  5
42F
  8
DETAIL
  6
CONTINUOUS
 62
     5
 10
-19.906077
 20
-16.29086700000001
 30
0.0
 11
-15.296077
 21
-16.29086700000001
 31
0.0
  0
LINE
  5
430
  8
DETAIL
  6
CONTINUOUS
 62
     5
 10
-19.906077
 20
-15.820867
 30
0.0
 11
-15.296077
 21
-15.820867
 31
0.0
  0
LINE
  5
431
  8
DETAIL
  6
CONTINUOUS
 62
     5
 10
-12.756077
 20
-20.00029900000001
 30
0.0
 11
-12.756077
 21
-16.29086700000001
 31
0.0
  0
LINE
  5
432
  8
DETAIL
  6
CONTINUOUS
 62
     5
 10
-12.756077
 20
-15.820867
 30
0.0
 11
-12.756077
 21
-15.00029900000001
 31
0.0
  0
LINE
  5
433
  8
DETAIL
  6
CONTINUOUS
 62
     5
 10
-12.28607700000001
 20
-20.00029900000001
 30
0.0
 11
-12.28607700000001
 21
-16.29086700000001
 31
0.0
  0
LINE
  5
434
  8
DETAIL
  6
CONTINUOUS
 62
     5
 10
-12.28607700000001
 20
-15.820867
 30
0.0
 11
-12.28607700000001
 21
-15.00029900000001
 31
0.0
  0
LINE
  5
435
  8
DETAIL
  6
CONTINUOUS
 62
     5
 10
-17.36607700000001
 20
-18.36086700000001
 30
0.0
 11
-12.756077
 21
-18.36086700000001
 31
0.0
  0
LINE
  5
436
  8
DETAIL
  6
CONTINUOUS
 62
     5
 10
-17.36607700000001
 20
-18.830867
 30
0.0
 11
-12.756077
 21
-18.830867
 31
0.0
  0
LINE
  5
437
  8
DETAIL
  6
CONTINUOUS
 62
     5
 10
-10.21607700000001
 20
-20.00029900000001
 30
0.0
 11
-10.21607700000001
 21
-18.830867
 31
0.0
  0
LINE
  5
438
  8
DETAIL
  6
CONTINUOUS
 62
     5
 10
-9.746077
 20
-20.00029900000001
 30
0.0
 11
-9.746077
 21
-18.830867
 31
0.0
  0
LINE
  5
439
  8
DETAIL
  6
CONTINUOUS
 62
     5
 10
-14.82607700000001
 20
-16.29086700000001
 30
0.0
 11
-10.21607700000001
 21
-16.29086700000001
 31
0.0
  0
LINE
  5
43A
  8
DETAIL
  6
CONTINUOUS
 62
     5
 10
-14.82607700000001
 20
-15.820867
 30
0.0
 11
-10.21607700000001
 21
-15.820867
 31
0.0
  0
LINE
  5
43B
  8
DETAIL
  6
CONTINUOUS
 62
     5
 10
-9.746077
 20
-15.820867
 30
0.0
 11
-7.648106000000006
 21
-15.820867
 31
0.0
  0
LINE
  5
43C
  8
DETAIL
  6
CONTINUOUS
 62
     5
 10
-9.746077
 20
-18.36086700000001
 30
0.0
 11
-9.746077
 21
-15.00029900000001
 31
0.0
  0
LINE
  5
43D
  8
DETAIL
  6
CONTINUOUS
 62
     5
 10
-10.21607700000001
 20
-18.36086700000001
 30
0.0
 11
-10.21607700000001
 21
-15.00029900000001
 31
0.0
  0
LINE
  5
43E
  8
DETAIL
  6
CONTINUOUS
 62
     5
 10
-12.28607700000001
 20
-18.36086700000001
 30
0.0
 11
-7.676076999999999
 21
-18.36086700000001
 31
0.0
  0
LINE
  5
43F
  8
DETAIL
  6
CONTINUOUS
 62
     5
 10
-7.206077000000001
 20
-18.36086700000001
 30
0.0
 11
-7.152784000000004
 21
-18.36086700000001
 31
0.0
  0
LINE
  5
440
  8
DETAIL
  6
CONTINUOUS
 62
     5
 10
-12.28607700000001
 20
-18.830867
 30
0.0
 11
-7.676076999999999
 21
-18.830867
 31
0.0
  0
LINE
  5
441
  8
DETAIL
  6
CONTINUOUS
 62
     5
 10
-9.746077
 20
-16.29086700000001
 30
0.0
 11
-7.312016
 21
-16.29086700000001
 31
0.0
  0
LINE
  5
442
  8
DETAIL
  6
CONTINUOUS
 62
     5
 10
-7.206077000000001
 20
-18.494238
 30
0.0
 11
-7.206077000000001
 21
-16.50635900000001
 31
0.0
  0
LINE
  5
443
  8
DETAIL
  6
CONTINUOUS
 62
     5
 10
-7.676076999999999
 20
-19.210066
 30
0.0
 11
-7.676076999999999
 21
-16.29086700000001
 31
0.0
  0
ARC
  5
444
  8
DETAIL
  6
CONTINUOUS
 62
     5
 10
-29.5
 20
-32.500299
 30
0.0
 40
2.5
 50
90.0
 51
270.0
  0
ARC
  5
445
  8
DETAIL
  6
CONTINUOUS
 62
     5
 10
-9.5
 20
-32.500299
 30
0.0
 40
2.5
 50
270.0
 51
90.0
  0
ARC
  5
446
  8
DETAIL
  6
CONTINUOUS
 62
     5
 10
-29.5
 20
-25.00029900000001
 30
0.0
 40
2.5
 50
90.0
 51
270.0
  0
ARC
  5
447
  8
DETAIL
  6
CONTINUOUS
 62
     5
 10
-9.5
 20
-25.00029900000001
 30
0.0
 40
2.5
 50
270.0
 51
90.0
  0
ARC
  5
448
  8
DETAIL
  6
CONTINUOUS
 62
     5
 10
-29.5
 20
-17.50029900000001
 30
0.0
 40
2.5
 50
90.0
 51
270.0
  0
LINE
  5
449
  8
DETAIL
  6
CONTINUOUS
 62
     5
 10
-29.5
 20
-15.00029900000001
 30
0.0
 11
-9.5
 21
-15.00029900000001
 31
0.0
  0
ARC
  5
44A
  8
DETAIL
  6
CONTINUOUS
 62
     5
 10
-9.5
 20
-17.50029900000001
 30
0.0
 40
2.5
 50
270.0
 51
90.0
  0
LINE
  5
44B
  8
DETAIL
  6
CONTINUOUS
 62
     5
 10
-29.5
 20
-20.00029900000001
 30
0.0
 11
-9.5
 21
-20.00029900000001
 31
0.0
  0
LINE
  5
44C
  8
DETAIL
  6
CONTINUOUS
 62
     5
 10
-29.5
 20
-27.500299
 30
0.0
 11
-9.5
 21
-27.500299
 31
0.0
  0
LINE
  5
44D
  8
DETAIL
  6
CONTINUOUS
 62
     5
 10
-29.5
 20
-22.50029900000001
 30
0.0
 11
-9.5
 21
-22.50029900000001
 31
0.0
  0
LINE
  5
44E
  8
DETAIL
  6
CONTINUOUS
 62
     5
 10
-29.5
 20
-35.000299
 30
0.0
 11
-9.5
 21
-35.000299
 31
0.0
  0
LINE
  5
44F
  8
DETAIL
  6
CONTINUOUS
 62
     5
 10
-29.5
 20
-30.000299
 30
0.0
 11
-9.5
 21
-30.000299
 31
0.0
  0
LINE
  5
450
  8
DETAIL
  6
CONTINUOUS
 62
     5
 10
-29.5
 20
-37.500299
 30
0.0
 11
-9.5
 21
-37.500299
 31
0.0
  0
LINE
  5
451
  8
DETAIL
  6
CONTINUOUS
 62
     5
 10
-30.06607700000001
 20
-80.00029899999998
 30
0.0
 11
-30.06607700000001
 21
-78.830867
 31
0.0
  0
LINE
  5
452
  8
DETAIL
  6
CONTINUOUS
 62
     5
 10
-30.06607700000001
 20
-78.36086699999998
 30
0.0
 11
-30.06607700000001
 21
-75.00029899999998
 31
0.0
  0
LINE
  5
453
  8
DETAIL
  6
CONTINUOUS
 62
     5
 10
-30.536077
 20
-79.775501
 30
0.0
 11
-30.536077
 21
-78.830867
 31
0.0
  0
LINE
  5
454
  8
DETAIL
  6
CONTINUOUS
 62
     5
 10
-30.536077
 20
-78.36086699999998
 30
0.0
 11
-30.536077
 21
-75.225096
 31
0.0
  0
LINE
  5
455
  8
DETAIL
  6
CONTINUOUS
 62
     5
 10
-31.687984
 20
-76.290867
 30
0.0
 11
-30.536077
 21
-76.290867
 31
0.0
  0
LINE
  5
456
  8
DETAIL
  6
CONTINUOUS
 62
     5
 10
-31.351894
 20
-75.820867
 30
0.0
 11
-30.536077
 21
-75.820867
 31
0.0
  0
LINE
  5
457
  8
DETAIL
  6
CONTINUOUS
 62
     5
 10
-27.996077
 20
-80.00029899999998
 30
0.0
 11
-27.996077
 21
-76.290867
 31
0.0
  0
LINE
  5
458
  8
DETAIL
  6
CONTINUOUS
 62
     5
 10
-27.996077
 20
-75.820867
 30
0.0
 11
-27.996077
 21
-75.00029899999998
 31
0.0
  0
LINE
  5
459
  8
DETAIL
  6
CONTINUOUS
 62
     5
 10
-27.526077
 20
-80.00029899999998
 30
0.0
 11
-27.526077
 21
-76.290867
 31
0.0
  0
LINE
  5
45A
  8
DETAIL
  6
CONTINUOUS
 62
     5
 10
-27.526077
 20
-75.820867
 30
0.0
 11
-27.526077
 21
-75.00029899999998
 31
0.0
  0
LINE
  5
45B
  8
DETAIL
  6
CONTINUOUS
 62
     5
 10
-31.847216
 20
-78.36086699999998
 30
0.0
 11
-27.996077
 21
-78.36086699999998
 31
0.0
  0
LINE
  5
45C
  8
DETAIL
  6
CONTINUOUS
 62
     5
 10
-31.616504
 20
-78.830867
 30
0.0
 11
-27.996077
 21
-78.830867
 31
0.0
  0
LINE
  5
45D
  8
DETAIL
  6
CONTINUOUS
 62
     5
 10
-25.456077
 20
-80.00029899999998
 30
0.0
 11
-25.456077
 21
-78.830867
 31
0.0
  0
LINE
  5
45E
  8
DETAIL
  6
CONTINUOUS
 62
     5
 10
-25.456077
 20
-78.36086699999998
 30
0.0
 11
-25.456077
 21
-75.00029899999998
 31
0.0
  0
LINE
  5
45F
  8
DETAIL
  6
CONTINUOUS
 62
     5
 10
-24.986077
 20
-80.00029899999998
 30
0.0
 11
-24.986077
 21
-78.830867
 31
0.0
  0
LINE
  5
460
  8
DETAIL
  6
CONTINUOUS
 62
     5
 10
-24.986077
 20
-78.36086699999998
 30
0.0
 11
-24.986077
 21
-75.00029899999998
 31
0.0
  0
LINE
  5
461
  8
DETAIL
  6
CONTINUOUS
 62
     5
 10
-30.06607700000001
 20
-76.290867
 30
0.0
 11
-25.456077
 21
-76.290867
 31
0.0
  0
LINE
  5
462
  8
DETAIL
  6
CONTINUOUS
 62
     5
 10
-30.06607700000001
 20
-75.820867
 30
0.0
 11
-25.456077
 21
-75.820867
 31
0.0
  0
LINE
  5
463
  8
DETAIL
  6
CONTINUOUS
 62
     5
 10
-22.916077
 20
-80.00029899999998
 30
0.0
 11
-22.916077
 21
-76.290867
 31
0.0
  0
LINE
  5
464
  8
DETAIL
  6
CONTINUOUS
 62
     5
 10
-22.916077
 20
-75.820867
 30
0.0
 11
-22.916077
 21
-75.00029899999998
 31
0.0
  0
LINE
  5
465
  8
DETAIL
  6
CONTINUOUS
 62
     5
 10
-22.446077
 20
-80.00029899999998
 30
0.0
 11
-22.446077
 21
-76.290867
 31
0.0
  0
LINE
  5
466
  8
DETAIL
  6
CONTINUOUS
 62
     5
 10
-22.446077
 20
-75.820867
 30
0.0
 11
-22.446077
 21
-75.00029899999998
 31
0.0
  0
LINE
  5
467
  8
DETAIL
  6
CONTINUOUS
 62
     5
 10
-27.526077
 20
-78.830867
 30
0.0
 11
-22.916077
 21
-78.830867
 31
0.0
  0
LINE
  5
468
  8
DETAIL
  6
CONTINUOUS
 62
     5
 10
-27.526077
 20
-78.36086699999998
 30
0.0
 11
-22.916077
 21
-78.36086699999998
 31
0.0
  0
LINE
  5
469
  8
DETAIL
  6
CONTINUOUS
 62
     5
 10
-20.376077
 20
-80.00029899999998
 30
0.0
 11
-20.376077
 21
-78.830867
 31
0.0
  0
LINE
  5
46A
  8
DETAIL
  6
CONTINUOUS
 62
     5
 10
-20.376077
 20
-78.36086699999998
 30
0.0
 11
-20.376077
 21
-75.00029899999998
 31
0.0
  0
LINE
  5
46B
  8
DETAIL
  6
CONTINUOUS
 62
     5
 10
-19.906077
 20
-80.00029899999998
 30
0.0
 11
-19.906077
 21
-78.830867
 31
0.0
  0
LINE
  5
46C
  8
DETAIL
  6
CONTINUOUS
 62
     5
 10
-19.906077
 20
-78.36086699999998
 30
0.0
 11
-19.906077
 21
-75.00029899999998
 31
0.0
  0
LINE
  5
46D
  8
DETAIL
  6
CONTINUOUS
 62
     5
 10
-24.986077
 20
-76.290867
 30
0.0
 11
-20.376077
 21
-76.290867
 31
0.0
  0
LINE
  5
46E
  8
DETAIL
  6
CONTINUOUS
 62
     5
 10
-24.986077
 20
-75.820867
 30
0.0
 11
-20.376077
 21
-75.820867
 31
0.0
  0
LINE
  5
46F
  8
DETAIL
  6
CONTINUOUS
 62
     5
 10
-17.836077
 20
-80.00029899999998
 30
0.0
 11
-17.836077
 21
-76.290867
 31
0.0
  0
LINE
  5
470
  8
DETAIL
  6
CONTINUOUS
 62
     5
 10
-17.836077
 20
-75.820867
 30
0.0
 11
-17.836077
 21
-75.00029899999998
 31
0.0
  0
LINE
  5
471
  8
DETAIL
  6
CONTINUOUS
 62
     5
 10
-17.36607700000001
 20
-80.00029899999998
 30
0.0
 11
-17.36607700000001
 21
-76.290867
 31
0.0
  0
LINE
  5
472
  8
DETAIL
  6
CONTINUOUS
 62
     5
 10
-17.36607700000001
 20
-75.820867
 30
0.0
 11
-17.36607700000001
 21
-75.00029899999998
 31
0.0
  0
LINE
  5
473
  8
DETAIL
  6
CONTINUOUS
 62
     5
 10
-22.446077
 20
-78.36086699999998
 30
0.0
 11
-17.836077
 21
-78.36086699999998
 31
0.0
  0
LINE
  5
474
  8
DETAIL
  6
CONTINUOUS
 62
     5
 10
-22.446077
 20
-78.830867
 30
0.0
 11
-17.836077
 21
-78.830867
 31
0.0
  0
LINE
  5
475
  8
DETAIL
  6
CONTINUOUS
 62
     5
 10
-15.296077
 20
-80.00029899999998
 30
0.0
 11
-15.296077
 21
-78.830867
 31
0.0
  0
LINE
  5
476
  8
DETAIL
  6
CONTINUOUS
 62
     5
 10
-15.296077
 20
-78.36086699999998
 30
0.0
 11
-15.296077
 21
-75.00029899999998
 31
0.0
  0
LINE
  5
477
  8
DETAIL
  6
CONTINUOUS
 62
     5
 10
-14.82607700000001
 20
-80.00029899999998
 30
0.0
 11
-14.82607700000001
 21
-78.830867
 31
0.0
  0
LINE
  5
478
  8
DETAIL
  6
CONTINUOUS
 62
     5
 10
-14.82607700000001
 20
-78.36086699999998
 30
0.0
 11
-14.82607700000001
 21
-75.00029899999998
 31
0.0
  0
LINE
  5
479
  8
DETAIL
  6
CONTINUOUS
 62
     5
 10
-19.906077
 20
-76.290867
 30
0.0
 11
-15.296077
 21
-76.290867
 31
0.0
  0
LINE
  5
47A
  8
DETAIL
  6
CONTINUOUS
 62
     5
 10
-19.906077
 20
-75.820867
 30
0.0
 11
-15.296077
 21
-75.820867
 31
0.0
  0
LINE
  5
47B
  8
DETAIL
  6
CONTINUOUS
 62
     5
 10
-12.756077
 20
-80.00029899999998
 30
0.0
 11
-12.756077
 21
-76.290867
 31
0.0
  0
LINE
  5
47C
  8
DETAIL
  6
CONTINUOUS
 62
     5
 10
-12.756077
 20
-75.820867
 30
0.0
 11
-12.756077
 21
-75.00029899999998
 31
0.0
  0
LINE
  5
47D
  8
DETAIL
  6
CONTINUOUS
 62
     5
 10
-12.28607700000001
 20
-80.00029899999998
 30
0.0
 11
-12.28607700000001
 21
-76.290867
 31
0.0
  0
LINE
  5
47E
  8
DETAIL
  6
CONTINUOUS
 62
     5
 10
-12.28607700000001
 20
-75.820867
 30
0.0
 11
-12.28607700000001
 21
-75.00029899999998
 31
0.0
  0
LINE
  5
47F
  8
DETAIL
  6
CONTINUOUS
 62
     5
 10
-17.36607700000001
 20
-78.36086699999998
 30
0.0
 11
-12.756077
 21
-78.36086699999998
 31
0.0
  0
LINE
  5
480
  8
DETAIL
  6
CONTINUOUS
 62
     5
 10
-17.36607700000001
 20
-78.830867
 30
0.0
 11
-12.756077
 21
-78.830867
 31
0.0
  0
LINE
  5
481
  8
DETAIL
  6
CONTINUOUS
 62
     5
 10
-10.21607700000001
 20
-80.00029899999998
 30
0.0
 11
-10.21607700000001
 21
-78.830867
 31
0.0
  0
LINE
  5
482
  8
DETAIL
  6
CONTINUOUS
 62
     5
 10
-9.746077
 20
-80.00029899999998
 30
0.0
 11
-9.746077
 21
-78.830867
 31
0.0
  0
LINE
  5
483
  8
DETAIL
  6
CONTINUOUS
 62
     5
 10
-14.82607700000001
 20
-76.290867
 30
0.0
 11
-10.21607700000001
 21
-76.290867
 31
0.0
  0
LINE
  5
484
  8
DETAIL
  6
CONTINUOUS
 62
     5
 10
-14.82607700000001
 20
-75.820867
 30
0.0
 11
-10.21607700000001
 21
-75.820867
 31
0.0
  0
LINE
  5
485
  8
DETAIL
  6
CONTINUOUS
 62
     5
 10
-9.746077
 20
-75.820867
 30
0.0
 11
-7.648106000000006
 21
-75.820867
 31
0.0
  0
LINE
  5
486
  8
DETAIL
  6
CONTINUOUS
 62
     5
 10
-9.746077
 20
-78.36086699999998
 30
0.0
 11
-9.746077
 21
-75.00029899999998
 31
0.0
  0
LINE
  5
487
  8
DETAIL
  6
CONTINUOUS
 62
     5
 10
-10.21607700000001
 20
-78.36086699999998
 30
0.0
 11
-10.21607700000001
 21
-75.00029899999998
 31
0.0
  0
LINE
  5
488
  8
DETAIL
  6
CONTINUOUS
 62
     5
 10
-12.28607700000001
 20
-78.36086699999998
 30
0.0
 11
-7.676076999999999
 21
-78.36086699999998
 31
0.0
  0
LINE
  5
489
  8
DETAIL
  6
CONTINUOUS
 62
     5
 10
-7.206077000000001
 20
-78.36086699999998
 30
0.0
 11
-7.152784000000004
 21
-78.36086699999998
 31
0.0
  0
LINE
  5
48A
  8
DETAIL
  6
CONTINUOUS
 62
     5
 10
-12.28607700000001
 20
-78.830867
 30
0.0
 11
-7.676076999999999
 21
-78.830867
 31
0.0
  0
LINE
  5
48B
  8
DETAIL
  6
CONTINUOUS
 62
     5
 10
-9.746077
 20
-76.290867
 30
0.0
 11
-7.312016
 21
-76.290867
 31
0.0
  0
LINE
  5
48C
  8
DETAIL
  6
CONTINUOUS
 62
     5
 10
-7.206077000000001
 20
-78.494238
 30
0.0
 11
-7.206077000000001
 21
-76.506359
 31
0.0
  0
LINE
  5
48D
  8
DETAIL
  6
CONTINUOUS
 62
     5
 10
-7.676076999999999
 20
-79.210066
 30
0.0
 11
-7.676076999999999
 21
-76.290867
 31
0.0
  0
LINE
  5
48E
  8
DETAIL
  6
CONTINUOUS
 62
     5
 10
-30.536077
 20
-70.980867
 30
0.0
 11
-31.79967100000001
 21
-70.980867
 31
0.0
  0
LINE
  5
48F
  8
DETAIL
  6
CONTINUOUS
 62
     5
 10
-30.536077
 20
-71.450867
 30
0.0
 11
-31.536136
 21
-71.450867
 31
0.0
  0
LINE
  5
490
  8
DETAIL
  6
CONTINUOUS
 62
     5
 10
-30.536077
 20
-72.275501
 30
0.0
 11
-30.536077
 21
-68.910867
 31
0.0
  0
LINE
  5
491
  8
DETAIL
  6
CONTINUOUS
 62
     5
 10
-30.06607700000001
 20
-72.43536699999999
 30
0.0
 11
-30.06607700000001
 21
-68.910867
 31
0.0
  0
LINE
  5
492
  8
DETAIL
  6
CONTINUOUS
 62
     5
 10
-27.526077
 20
-72.500299
 30
0.0
 11
-27.526077
 21
-71.450867
 31
0.0
  0
LINE
  5
493
  8
DETAIL
  6
CONTINUOUS
 62
     5
 10
-27.996077
 20
-72.500299
 30
0.0
 11
-27.996077
 21
-71.450867
 31
0.0
  0
LINE
  5
494
  8
DETAIL
  6
CONTINUOUS
 62
     5
 10
-27.996077
 20
-70.980867
 30
0.0
 11
-27.996077
 21
-67.500299
 31
0.0
  0
LINE
  5
495
  8
DETAIL
  6
CONTINUOUS
 62
     5
 10
-27.526077
 20
-70.980867
 30
0.0
 11
-27.526077
 21
-67.500299
 31
0.0
  0
LINE
  5
496
  8
DETAIL
  6
CONTINUOUS
 62
     5
 10
-30.06607700000001
 20
-68.440867
 30
0.0
 11
-30.06607700000001
 21
-67.56523
 31
0.0
  0
LINE
  5
497
  8
DETAIL
  6
CONTINUOUS
 62
     5
 10
-30.536077
 20
-68.440867
 30
0.0
 11
-30.536077
 21
-67.725096
 31
0.0
  0
LINE
  5
498
  8
DETAIL
  6
CONTINUOUS
 62
     5
 10
-27.996077
 20
-68.910867
 30
0.0
 11
-31.750142
 21
-68.910867
 31
0.0
  0
LINE
  5
499
  8
DETAIL
  6
CONTINUOUS
 62
     5
 10
-27.996077
 20
-68.440867
 30
0.0
 11
-31.454015
 21
-68.440867
 31
0.0
  0
LINE
  5
49A
  8
DETAIL
  6
CONTINUOUS
 62
     5
 10
-25.456077
 20
-71.450867
 30
0.0
 11
-30.06607700000001
 21
-71.450867
 31
0.0
  0
LINE
  5
49B
  8
DETAIL
  6
CONTINUOUS
 62
     5
 10
-25.456077
 20
-70.980867
 30
0.0
 11
-30.06607700000001
 21
-70.980867
 31
0.0
  0
LINE
  5
49C
  8
DETAIL
  6
CONTINUOUS
 62
     5
 10
-24.986077
 20
-72.500299
 30
0.0
 11
-24.986077
 21
-68.910867
 31
0.0
  0
LINE
  5
49D
  8
DETAIL
  6
CONTINUOUS
 62
     5
 10
-24.986077
 20
-68.440867
 30
0.0
 11
-24.986077
 21
-67.500299
 31
0.0
  0
LINE
  5
49E
  8
DETAIL
  6
CONTINUOUS
 62
     5
 10
-25.456077
 20
-72.500299
 30
0.0
 11
-25.456077
 21
-68.910867
 31
0.0
  0
LINE
  5
49F
  8
DETAIL
  6
CONTINUOUS
 62
     5
 10
-25.456077
 20
-68.440867
 30
0.0
 11
-25.456077
 21
-67.500299
 31
0.0
  0
LINE
  5
4A0
  8
DETAIL
  6
CONTINUOUS
 62
     5
 10
-22.916077
 20
-68.910867
 30
0.0
 11
-27.526077
 21
-68.910867
 31
0.0
  0
LINE
  5
4A1
  8
DETAIL
  6
CONTINUOUS
 62
     5
 10
-22.916077
 20
-68.440867
 30
0.0
 11
-27.526077
 21
-68.440867
 31
0.0
  0
LINE
  5
4A2
  8
DETAIL
  6
CONTINUOUS
 62
     5
 10
-22.446077
 20
-72.500299
 30
0.0
 11
-22.446077
 21
-71.450867
 31
0.0
  0
LINE
  5
4A3
  8
DETAIL
  6
CONTINUOUS
 62
     5
 10
-22.446077
 20
-70.980867
 30
0.0
 11
-22.446077
 21
-67.500299
 31
0.0
  0
LINE
  5
4A4
  8
DETAIL
  6
CONTINUOUS
 62
     5
 10
-22.916077
 20
-72.500299
 30
0.0
 11
-22.916077
 21
-71.450867
 31
0.0
  0
LINE
  5
4A5
  8
DETAIL
  6
CONTINUOUS
 62
     5
 10
-22.916077
 20
-70.980867
 30
0.0
 11
-22.916077
 21
-67.500299
 31
0.0
  0
LINE
  5
4A6
  8
DETAIL
  6
CONTINUOUS
 62
     5
 10
-20.376077
 20
-71.450867
 30
0.0
 11
-24.986077
 21
-71.450867
 31
0.0
  0
LINE
  5
4A7
  8
DETAIL
  6
CONTINUOUS
 62
     5
 10
-20.376077
 20
-70.980867
 30
0.0
 11
-24.986077
 21
-70.980867
 31
0.0
  0
LINE
  5
4A8
  8
DETAIL
  6
CONTINUOUS
 62
     5
 10
-19.906077
 20
-72.500299
 30
0.0
 11
-19.906077
 21
-68.910867
 31
0.0
  0
LINE
  5
4A9
  8
DETAIL
  6
CONTINUOUS
 62
     5
 10
-19.906077
 20
-68.440867
 30
0.0
 11
-19.906077
 21
-67.500299
 31
0.0
  0
LINE
  5
4AA
  8
DETAIL
  6
CONTINUOUS
 62
     5
 10
-20.376077
 20
-72.500299
 30
0.0
 11
-20.376077
 21
-68.910867
 31
0.0
  0
LINE
  5
4AB
  8
DETAIL
  6
CONTINUOUS
 62
     5
 10
-20.376077
 20
-68.440867
 30
0.0
 11
-20.376077
 21
-67.500299
 31
0.0
  0
LINE
  5
4AC
  8
DETAIL
  6
CONTINUOUS
 62
     5
 10
-17.836077
 20
-68.910867
 30
0.0
 11
-22.446077
 21
-68.910867
 31
0.0
  0
LINE
  5
4AD
  8
DETAIL
  6
CONTINUOUS
 62
     5
 10
-17.836077
 20
-68.440867
 30
0.0
 11
-22.446077
 21
-68.440867
 31
0.0
  0
LINE
  5
4AE
  8
DETAIL
  6
CONTINUOUS
 62
     5
 10
-17.36607700000001
 20
-72.500299
 30
0.0
 11
-17.36607700000001
 21
-71.450867
 31
0.0
  0
LINE
  5
4AF
  8
DETAIL
  6
CONTINUOUS
 62
     5
 10
-17.36607700000001
 20
-70.980867
 30
0.0
 11
-17.36607700000001
 21
-67.500299
 31
0.0
  0
LINE
  5
4B0
  8
DETAIL
  6
CONTINUOUS
 62
     5
 10
-17.836077
 20
-72.500299
 30
0.0
 11
-17.836077
 21
-71.450867
 31
0.0
  0
LINE
  5
4B1
  8
DETAIL
  6
CONTINUOUS
 62
     5
 10
-17.836077
 20
-70.980867
 30
0.0
 11
-17.836077
 21
-67.500299
 31
0.0
  0
LINE
  5
4B2
  8
DETAIL
  6
CONTINUOUS
 62
     5
 10
-15.296077
 20
-71.450867
 30
0.0
 11
-19.906077
 21
-71.450867
 31
0.0
  0
LINE
  5
4B3
  8
DETAIL
  6
CONTINUOUS
 62
     5
 10
-15.296077
 20
-70.980867
 30
0.0
 11
-19.906077
 21
-70.980867
 31
0.0
  0
LINE
  5
4B4
  8
DETAIL
  6
CONTINUOUS
 62
     5
 10
-14.82607700000001
 20
-72.500299
 30
0.0
 11
-14.82607700000001
 21
-68.910867
 31
0.0
  0
LINE
  5
4B5
  8
DETAIL
  6
CONTINUOUS
 62
     5
 10
-14.82607700000001
 20
-68.440867
 30
0.0
 11
-14.82607700000001
 21
-67.500299
 31
0.0
  0
LINE
  5
4B6
  8
DETAIL
  6
CONTINUOUS
 62
     5
 10
-15.296077
 20
-72.500299
 30
0.0
 11
-15.296077
 21
-68.910867
 31
0.0
  0
LINE
  5
4B7
  8
DETAIL
  6
CONTINUOUS
 62
     5
 10
-15.296077
 20
-68.440867
 30
0.0
 11
-15.296077
 21
-67.500299
 31
0.0
  0
LINE
  5
4B8
  8
DETAIL
  6
CONTINUOUS
 62
     5
 10
-12.756077
 20
-68.440867
 30
0.0
 11
-17.36607700000001
 21
-68.440867
 31
0.0
  0
LINE
  5
4B9
  8
DETAIL
  6
CONTINUOUS
 62
     5
 10
-12.756077
 20
-68.910867
 30
0.0
 11
-17.36607700000001
 21
-68.910867
 31
0.0
  0
LINE
  5
4BA
  8
DETAIL
  6
CONTINUOUS
 62
     5
 10
-12.28607700000001
 20
-72.500299
 30
0.0
 11
-12.28607700000001
 21
-71.450867
 31
0.0
  0
LINE
  5
4BB
  8
DETAIL
  6
CONTINUOUS
 62
     5
 10
-12.28607700000001
 20
-70.980867
 30
0.0
 11
-12.28607700000001
 21
-67.500299
 31
0.0
  0
LINE
  5
4BC
  8
DETAIL
  6
CONTINUOUS
 62
     5
 10
-12.756077
 20
-72.500299
 30
0.0
 11
-12.756077
 21
-71.450867
 31
0.0
  0
LINE
  5
4BD
  8
DETAIL
  6
CONTINUOUS
 62
     5
 10
-12.756077
 20
-70.980867
 30
0.0
 11
-12.756077
 21
-67.500299
 31
0.0
  0
LINE
  5
4BE
  8
DETAIL
  6
CONTINUOUS
 62
     5
 10
-10.21607700000001
 20
-71.450867
 30
0.0
 11
-14.82607700000001
 21
-71.450867
 31
0.0
  0
LINE
  5
4BF
  8
DETAIL
  6
CONTINUOUS
 62
     5
 10
-10.21607700000001
 20
-70.980867
 30
0.0
 11
-14.82607700000001
 21
-70.980867
 31
0.0
  0
LINE
  5
4C0
  8
DETAIL
  6
CONTINUOUS
 62
     5
 10
-9.746077
 20
-72.500299
 30
0.0
 11
-9.746077
 21
-68.910867
 31
0.0
  0
LINE
  5
4C1
  8
DETAIL
  6
CONTINUOUS
 62
     5
 10
-9.746077
 20
-68.440867
 30
0.0
 11
-9.746077
 21
-67.500299
 31
0.0
  0
LINE
  5
4C2
  8
DETAIL
  6
CONTINUOUS
 62
     5
 10
-10.21607700000001
 20
-72.500299
 30
0.0
 11
-10.21607700000001
 21
-68.910867
 31
0.0
  0
LINE
  5
4C3
  8
DETAIL
  6
CONTINUOUS
 62
     5
 10
-10.21607700000001
 20
-68.440867
 30
0.0
 11
-10.21607700000001
 21
-67.500299
 31
0.0
  0
LINE
  5
4C4
  8
DETAIL
  6
CONTINUOUS
 62
     5
 10
-7.206077000000001
 20
-70.994238
 30
0.0
 11
-7.206077000000001
 21
-69.006359
 31
0.0
  0
LINE
  5
4C5
  8
DETAIL
  6
CONTINUOUS
 62
     5
 10
-7.676076999999999
 20
-71.710066
 30
0.0
 11
-7.676076999999999
 21
-71.450867
 31
0.0
  0
LINE
  5
4C6
  8
DETAIL
  6
CONTINUOUS
 62
     5
 10
-7.676076999999999
 20
-70.980867
 30
0.0
 11
-7.676076999999999
 21
-68.290532
 31
0.0
  0
LINE
  5
4C7
  8
DETAIL
  6
CONTINUOUS
 62
     5
 10
-7.463864000000001
 20
-71.450867
 30
0.0
 11
-9.746077
 21
-71.450867
 31
0.0
  0
LINE
  5
4C8
  8
DETAIL
  6
CONTINUOUS
 62
     5
 10
-7.200329000000004
 20
-70.980867
 30
0.0
 11
-9.746077
 21
-70.980867
 31
0.0
  0
LINE
  5
4C9
  8
DETAIL
  6
CONTINUOUS
 62
     5
 10
-7.676076999999999
 20
-68.910867
 30
0.0
 11
-12.28607700000001
 21
-68.910867
 31
0.0
  0
LINE
  5
4CA
  8
DETAIL
  6
CONTINUOUS
 62
     5
 10
-7.676076999999999
 20
-68.440867
 30
0.0
 11
-12.28607700000001
 21
-68.440867
 31
0.0
  0
LINE
  5
4CB
  8
DETAIL
  6
CONTINUOUS
 62
     5
 10
-30.06607700000001
 20
-65.000299
 30
0.0
 11
-30.06607700000001
 21
-63.83086700000001
 31
0.0
  0
LINE
  5
4CC
  8
DETAIL
  6
CONTINUOUS
 62
     5
 10
-30.06607700000001
 20
-63.36086700000001
 30
0.0
 11
-30.06607700000001
 21
-60.000299
 31
0.0
  0
LINE
  5
4CD
  8
DETAIL
  6
CONTINUOUS
 62
     5
 10
-30.536077
 20
-64.775501
 30
0.0
 11
-30.536077
 21
-63.83086700000001
 31
0.0
  0
LINE
  5
4CE
  8
DETAIL
  6
CONTINUOUS
 62
     5
 10
-30.536077
 20
-63.36086700000001
 30
0.0
 11
-30.536077
 21
-60.22509599999999
 31
0.0
  0
LINE
  5
4CF
  8
DETAIL
  6
CONTINUOUS
 62
     5
 10
-31.687984
 20
-61.29086700000001
 30
0.0
 11
-30.536077
 21
-61.29086700000001
 31
0.0
  0
LINE
  5
4D0
  8
DETAIL
  6
CONTINUOUS
 62
     5
 10
-31.351894
 20
-60.82086700000001
 30
0.0
 11
-30.536077
 21
-60.82086700000001
 31
0.0
  0
LINE
  5
4D1
  8
DETAIL
  6
CONTINUOUS
 62
     5
 10
-27.996077
 20
-65.000299
 30
0.0
 11
-27.996077
 21
-61.29086700000001
 31
0.0
  0
LINE
  5
4D2
  8
DETAIL
  6
CONTINUOUS
 62
     5
 10
-27.996077
 20
-60.82086700000001
 30
0.0
 11
-27.996077
 21
-60.000299
 31
0.0
  0
LINE
  5
4D3
  8
DETAIL
  6
CONTINUOUS
 62
     5
 10
-27.526077
 20
-65.000299
 30
0.0
 11
-27.526077
 21
-61.29086700000001
 31
0.0
  0
LINE
  5
4D4
  8
DETAIL
  6
CONTINUOUS
 62
     5
 10
-27.526077
 20
-60.82086700000001
 30
0.0
 11
-27.526077
 21
-60.000299
 31
0.0
  0
LINE
  5
4D5
  8
DETAIL
  6
CONTINUOUS
 62
     5
 10
-31.847216
 20
-63.36086700000001
 30
0.0
 11
-27.996077
 21
-63.36086700000001
 31
0.0
  0
LINE
  5
4D6
  8
DETAIL
  6
CONTINUOUS
 62
     5
 10
-31.616504
 20
-63.83086700000001
 30
0.0
 11
-27.996077
 21
-63.83086700000001
 31
0.0
  0
LINE
  5
4D7
  8
DETAIL
  6
CONTINUOUS
 62
     5
 10
-25.456077
 20
-65.000299
 30
0.0
 11
-25.456077
 21
-63.83086700000001
 31
0.0
  0
LINE
  5
4D8
  8
DETAIL
  6
CONTINUOUS
 62
     5
 10
-25.456077
 20
-63.36086700000001
 30
0.0
 11
-25.456077
 21
-60.000299
 31
0.0
  0
LINE
  5
4D9
  8
DETAIL
  6
CONTINUOUS
 62
     5
 10
-24.986077
 20
-65.000299
 30
0.0
 11
-24.986077
 21
-63.83086700000001
 31
0.0
  0
LINE
  5
4DA
  8
DETAIL
  6
CONTINUOUS
 62
     5
 10
-24.986077
 20
-63.36086700000001
 30
0.0
 11
-24.986077
 21
-60.000299
 31
0.0
  0
LINE
  5
4DB
  8
DETAIL
  6
CONTINUOUS
 62
     5
 10
-30.06607700000001
 20
-61.29086700000001
 30
0.0
 11
-25.456077
 21
-61.29086700000001
 31
0.0
  0
LINE
  5
4DC
  8
DETAIL
  6
CONTINUOUS
 62
     5
 10
-30.06607700000001
 20
-60.82086700000001
 30
0.0
 11
-25.456077
 21
-60.82086700000001
 31
0.0
  0
LINE
  5
4DD
  8
DETAIL
  6
CONTINUOUS
 62
     5
 10
-22.916077
 20
-65.000299
 30
0.0
 11
-22.916077
 21
-61.29086700000001
 31
0.0
  0
LINE
  5
4DE
  8
DETAIL
  6
CONTINUOUS
 62
     5
 10
-22.916077
 20
-60.82086700000001
 30
0.0
 11
-22.916077
 21
-60.000299
 31
0.0
  0
LINE
  5
4DF
  8
DETAIL
  6
CONTINUOUS
 62
     5
 10
-22.446077
 20
-65.000299
 30
0.0
 11
-22.446077
 21
-61.29086700000001
 31
0.0
  0
LINE
  5
4E0
  8
DETAIL
  6
CONTINUOUS
 62
     5
 10
-22.446077
 20
-60.82086700000001
 30
0.0
 11
-22.446077
 21
-60.000299
 31
0.0
  0
LINE
  5
4E1
  8
DETAIL
  6
CONTINUOUS
 62
     5
 10
-27.526077
 20
-63.83086700000001
 30
0.0
 11
-22.916077
 21
-63.83086700000001
 31
0.0
  0
LINE
  5
4E2
  8
DETAIL
  6
CONTINUOUS
 62
     5
 10
-27.526077
 20
-63.36086700000001
 30
0.0
 11
-22.916077
 21
-63.36086700000001
 31
0.0
  0
LINE
  5
4E3
  8
DETAIL
  6
CONTINUOUS
 62
     5
 10
-20.376077
 20
-65.000299
 30
0.0
 11
-20.376077
 21
-63.83086700000001
 31
0.0
  0
LINE
  5
4E4
  8
DETAIL
  6
CONTINUOUS
 62
     5
 10
-20.376077
 20
-63.36086700000001
 30
0.0
 11
-20.376077
 21
-60.000299
 31
0.0
  0
LINE
  5
4E5
  8
DETAIL
  6
CONTINUOUS
 62
     5
 10
-19.906077
 20
-65.000299
 30
0.0
 11
-19.906077
 21
-63.83086700000001
 31
0.0
  0
LINE
  5
4E6
  8
DETAIL
  6
CONTINUOUS
 62
     5
 10
-19.906077
 20
-63.36086700000001
 30
0.0
 11
-19.906077
 21
-60.000299
 31
0.0
  0
LINE
  5
4E7
  8
DETAIL
  6
CONTINUOUS
 62
     5
 10
-24.986077
 20
-61.29086700000001
 30
0.0
 11
-20.376077
 21
-61.29086700000001
 31
0.0
  0
LINE
  5
4E8
  8
DETAIL
  6
CONTINUOUS
 62
     5
 10
-24.986077
 20
-60.82086700000001
 30
0.0
 11
-20.376077
 21
-60.82086700000001
 31
0.0
  0
LINE
  5
4E9
  8
DETAIL
  6
CONTINUOUS
 62
     5
 10
-17.836077
 20
-65.000299
 30
0.0
 11
-17.836077
 21
-61.29086700000001
 31
0.0
  0
LINE
  5
4EA
  8
DETAIL
  6
CONTINUOUS
 62
     5
 10
-17.836077
 20
-60.82086700000001
 30
0.0
 11
-17.836077
 21
-60.000299
 31
0.0
  0
LINE
  5
4EB
  8
DETAIL
  6
CONTINUOUS
 62
     5
 10
-17.36607700000001
 20
-65.000299
 30
0.0
 11
-17.36607700000001
 21
-61.29086700000001
 31
0.0
  0
LINE
  5
4EC
  8
DETAIL
  6
CONTINUOUS
 62
     5
 10
-17.36607700000001
 20
-60.82086700000001
 30
0.0
 11
-17.36607700000001
 21
-60.000299
 31
0.0
  0
LINE
  5
4ED
  8
DETAIL
  6
CONTINUOUS
 62
     5
 10
-22.446077
 20
-63.36086700000001
 30
0.0
 11
-17.836077
 21
-63.36086700000001
 31
0.0
  0
LINE
  5
4EE
  8
DETAIL
  6
CONTINUOUS
 62
     5
 10
-22.446077
 20
-63.83086700000001
 30
0.0
 11
-17.836077
 21
-63.83086700000001
 31
0.0
  0
LINE
  5
4EF
  8
DETAIL
  6
CONTINUOUS
 62
     5
 10
-15.296077
 20
-65.000299
 30
0.0
 11
-15.296077
 21
-63.83086700000001
 31
0.0
  0
LINE
  5
4F0
  8
DETAIL
  6
CONTINUOUS
 62
     5
 10
-15.296077
 20
-63.36086700000001
 30
0.0
 11
-15.296077
 21
-60.000299
 31
0.0
  0
LINE
  5
4F1
  8
DETAIL
  6
CONTINUOUS
 62
     5
 10
-14.82607700000001
 20
-65.000299
 30
0.0
 11
-14.82607700000001
 21
-63.83086700000001
 31
0.0
  0
LINE
  5
4F2
  8
DETAIL
  6
CONTINUOUS
 62
     5
 10
-14.82607700000001
 20
-63.36086700000001
 30
0.0
 11
-14.82607700000001
 21
-60.000299
 31
0.0
  0
LINE
  5
4F3
  8
DETAIL
  6
CONTINUOUS
 62
     5
 10
-19.906077
 20
-61.29086700000001
 30
0.0
 11
-15.296077
 21
-61.29086700000001
 31
0.0
  0
LINE
  5
4F4
  8
DETAIL
  6
CONTINUOUS
 62
     5
 10
-19.906077
 20
-60.82086700000001
 30
0.0
 11
-15.296077
 21
-60.82086700000001
 31
0.0
  0
LINE
  5
4F5
  8
DETAIL
  6
CONTINUOUS
 62
     5
 10
-12.756077
 20
-65.000299
 30
0.0
 11
-12.756077
 21
-61.29086700000001
 31
0.0
  0
LINE
  5
4F6
  8
DETAIL
  6
CONTINUOUS
 62
     5
 10
-12.756077
 20
-60.82086700000001
 30
0.0
 11
-12.756077
 21
-60.000299
 31
0.0
  0
LINE
  5
4F7
  8
DETAIL
  6
CONTINUOUS
 62
     5
 10
-12.28607700000001
 20
-65.000299
 30
0.0
 11
-12.28607700000001
 21
-61.29086700000001
 31
0.0
  0
LINE
  5
4F8
  8
DETAIL
  6
CONTINUOUS
 62
     5
 10
-12.28607700000001
 20
-60.82086700000001
 30
0.0
 11
-12.28607700000001
 21
-60.000299
 31
0.0
  0
LINE
  5
4F9
  8
DETAIL
  6
CONTINUOUS
 62
     5
 10
-17.36607700000001
 20
-63.36086700000001
 30
0.0
 11
-12.756077
 21
-63.36086700000001
 31
0.0
  0
LINE
  5
4FA
  8
DETAIL
  6
CONTINUOUS
 62
     5
 10
-17.36607700000001
 20
-63.83086700000001
 30
0.0
 11
-12.756077
 21
-63.83086700000001
 31
0.0
  0
LINE
  5
4FB
  8
DETAIL
  6
CONTINUOUS
 62
     5
 10
-10.21607700000001
 20
-65.000299
 30
0.0
 11
-10.21607700000001
 21
-63.83086700000001
 31
0.0
  0
LINE
  5
4FC
  8
DETAIL
  6
CONTINUOUS
 62
     5
 10
-9.746077
 20
-65.000299
 30
0.0
 11
-9.746077
 21
-63.83086700000001
 31
0.0
  0
LINE
  5
4FD
  8
DETAIL
  6
CONTINUOUS
 62
     5
 10
-14.82607700000001
 20
-61.29086700000001
 30
0.0
 11
-10.21607700000001
 21
-61.29086700000001
 31
0.0
  0
LINE
  5
4FE
  8
DETAIL
  6
CONTINUOUS
 62
     5
 10
-14.82607700000001
 20
-60.82086700000001
 30
0.0
 11
-10.21607700000001
 21
-60.82086700000001
 31
0.0
  0
LINE
  5
4FF
  8
DETAIL
  6
CONTINUOUS
 62
     5
 10
-9.746077
 20
-60.82086700000001
 30
0.0
 11
-7.648106000000006
 21
-60.82086700000001
 31
0.0
  0
LINE
  5
500
  8
DETAIL
  6
CONTINUOUS
 62
     5
 10
-9.746077
 20
-63.36086700000001
 30
0.0
 11
-9.746077
 21
-60.000299
 31
0.0
  0
LINE
  5
501
  8
DETAIL
  6
CONTINUOUS
 62
     5
 10
-10.21607700000001
 20
-63.36086700000001
 30
0.0
 11
-10.21607700000001
 21
-60.000299
 31
0.0
  0
LINE
  5
502
  8
DETAIL
  6
CONTINUOUS
 62
     5
 10
-12.28607700000001
 20
-63.36086700000001
 30
0.0
 11
-7.676076999999999
 21
-63.36086700000001
 31
0.0
  0
LINE
  5
503
  8
DETAIL
  6
CONTINUOUS
 62
     5
 10
-7.206077000000001
 20
-63.36086700000001
 30
0.0
 11
-7.152784000000004
 21
-63.36086700000001
 31
0.0
  0
LINE
  5
504
  8
DETAIL
  6
CONTINUOUS
 62
     5
 10
-12.28607700000001
 20
-63.83086700000001
 30
0.0
 11
-7.676076999999999
 21
-63.83086700000001
 31
0.0
  0
LINE
  5
505
  8
DETAIL
  6
CONTINUOUS
 62
     5
 10
-9.746077
 20
-61.29086700000001
 30
0.0
 11
-7.312016
 21
-61.29086700000001
 31
0.0
  0
LINE
  5
506
  8
DETAIL
  6
CONTINUOUS
 62
     5
 10
-7.206077000000001
 20
-63.494238
 30
0.0
 11
-7.206077000000001
 21
-61.506359
 31
0.0
  0
LINE
  5
507
  8
DETAIL
  6
CONTINUOUS
 62
     5
 10
-7.676076999999999
 20
-64.210066
 30
0.0
 11
-7.676076999999999
 21
-61.29086700000001
 31
0.0
  0
LINE
  5
508
  8
DETAIL
  6
CONTINUOUS
 62
     5
 10
-30.536077
 20
-55.980867
 30
0.0
 11
-31.79967100000001
 21
-55.980867
 31
0.0
  0
LINE
  5
509
  8
DETAIL
  6
CONTINUOUS
 62
     5
 10
-30.536077
 20
-56.450867
 30
0.0
 11
-31.536136
 21
-56.450867
 31
0.0
  0
LINE
  5
50A
  8
DETAIL
  6
CONTINUOUS
 62
     5
 10
-30.536077
 20
-57.275501
 30
0.0
 11
-30.536077
 21
-53.910867
 31
0.0
  0
LINE
  5
50B
  8
DETAIL
  6
CONTINUOUS
 62
     5
 10
-30.06607700000001
 20
-57.43536700000001
 30
0.0
 11
-30.06607700000001
 21
-53.910867
 31
0.0
  0
LINE
  5
50C
  8
DETAIL
  6
CONTINUOUS
 62
     5
 10
-27.526077
 20
-57.500299
 30
0.0
 11
-27.526077
 21
-56.450867
 31
0.0
  0
LINE
  5
50D
  8
DETAIL
  6
CONTINUOUS
 62
     5
 10
-27.996077
 20
-57.500299
 30
0.0
 11
-27.996077
 21
-56.450867
 31
0.0
  0
LINE
  5
50E
  8
DETAIL
  6
CONTINUOUS
 62
     5
 10
-27.996077
 20
-55.980867
 30
0.0
 11
-27.996077
 21
-52.500299
 31
0.0
  0
LINE
  5
50F
  8
DETAIL
  6
CONTINUOUS
 62
     5
 10
-27.526077
 20
-55.980867
 30
0.0
 11
-27.526077
 21
-52.500299
 31
0.0
  0
LINE
  5
510
  8
DETAIL
  6
CONTINUOUS
 62
     5
 10
-30.06607700000001
 20
-53.440867
 30
0.0
 11
-30.06607700000001
 21
-52.56523000000001
 31
0.0
  0
LINE
  5
511
  8
DETAIL
  6
CONTINUOUS
 62
     5
 10
-30.536077
 20
-53.440867
 30
0.0
 11
-30.536077
 21
-52.72509599999999
 31
0.0
  0
LINE
  5
512
  8
DETAIL
  6
CONTINUOUS
 62
     5
 10
-27.996077
 20
-53.910867
 30
0.0
 11
-31.750142
 21
-53.910867
 31
0.0
  0
LINE
  5
513
  8
DETAIL
  6
CONTINUOUS
 62
     5
 10
-27.996077
 20
-53.440867
 30
0.0
 11
-31.454015
 21
-53.440867
 31
0.0
  0
LINE
  5
514
  8
DETAIL
  6
CONTINUOUS
 62
     5
 10
-25.456077
 20
-56.450867
 30
0.0
 11
-30.06607700000001
 21
-56.450867
 31
0.0
  0
LINE
  5
515
  8
DETAIL
  6
CONTINUOUS
 62
     5
 10
-25.456077
 20
-55.980867
 30
0.0
 11
-30.06607700000001
 21
-55.980867
 31
0.0
  0
LINE
  5
516
  8
DETAIL
  6
CONTINUOUS
 62
     5
 10
-24.986077
 20
-57.500299
 30
0.0
 11
-24.986077
 21
-53.910867
 31
0.0
  0
LINE
  5
517
  8
DETAIL
  6
CONTINUOUS
 62
     5
 10
-24.986077
 20
-53.440867
 30
0.0
 11
-24.986077
 21
-52.500299
 31
0.0
  0
LINE
  5
518
  8
DETAIL
  6
CONTINUOUS
 62
     5
 10
-25.456077
 20
-57.500299
 30
0.0
 11
-25.456077
 21
-53.910867
 31
0.0
  0
LINE
  5
519
  8
DETAIL
  6
CONTINUOUS
 62
     5
 10
-25.456077
 20
-53.440867
 30
0.0
 11
-25.456077
 21
-52.500299
 31
0.0
  0
LINE
  5
51A
  8
DETAIL
  6
CONTINUOUS
 62
     5
 10
-22.916077
 20
-53.910867
 30
0.0
 11
-27.526077
 21
-53.910867
 31
0.0
  0
LINE
  5
51B
  8
DETAIL
  6
CONTINUOUS
 62
     5
 10
-22.916077
 20
-53.440867
 30
0.0
 11
-27.526077
 21
-53.440867
 31
0.0
  0
LINE
  5
51C
  8
DETAIL
  6
CONTINUOUS
 62
     5
 10
-22.446077
 20
-57.500299
 30
0.0
 11
-22.446077
 21
-56.450867
 31
0.0
  0
LINE
  5
51D
  8
DETAIL
  6
CONTINUOUS
 62
     5
 10
-22.446077
 20
-55.980867
 30
0.0
 11
-22.446077
 21
-52.500299
 31
0.0
  0
LINE
  5
51E
  8
DETAIL
  6
CONTINUOUS
 62
     5
 10
-22.916077
 20
-57.500299
 30
0.0
 11
-22.916077
 21
-56.450867
 31
0.0
  0
LINE
  5
51F
  8
DETAIL
  6
CONTINUOUS
 62
     5
 10
-22.916077
 20
-55.980867
 30
0.0
 11
-22.916077
 21
-52.500299
 31
0.0
  0
LINE
  5
520
  8
DETAIL
  6
CONTINUOUS
 62
     5
 10
-20.376077
 20
-56.450867
 30
0.0
 11
-24.986077
 21
-56.450867
 31
0.0
  0
LINE
  5
521
  8
DETAIL
  6
CONTINUOUS
 62
     5
 10
-20.376077
 20
-55.980867
 30
0.0
 11
-24.986077
 21
-55.980867
 31
0.0
  0
LINE
  5
522
  8
DETAIL
  6
CONTINUOUS
 62
     5
 10
-19.906077
 20
-57.500299
 30
0.0
 11
-19.906077
 21
-53.910867
 31
0.0
  0
LINE
  5
523
  8
DETAIL
  6
CONTINUOUS
 62
     5
 10
-19.906077
 20
-53.440867
 30
0.0
 11
-19.906077
 21
-52.500299
 31
0.0
  0
LINE
  5
524
  8
DETAIL
  6
CONTINUOUS
 62
     5
 10
-20.376077
 20
-57.500299
 30
0.0
 11
-20.376077
 21
-53.910867
 31
0.0
  0
LINE
  5
525
  8
DETAIL
  6
CONTINUOUS
 62
     5
 10
-20.376077
 20
-53.440867
 30
0.0
 11
-20.376077
 21
-52.500299
 31
0.0
  0
LINE
  5
526
  8
DETAIL
  6
CONTINUOUS
 62
     5
 10
-17.836077
 20
-53.910867
 30
0.0
 11
-22.446077
 21
-53.910867
 31
0.0
  0
LINE
  5
527
  8
DETAIL
  6
CONTINUOUS
 62
     5
 10
-17.836077
 20
-53.440867
 30
0.0
 11
-22.446077
 21
-53.440867
 31
0.0
  0
LINE
  5
528
  8
DETAIL
  6
CONTINUOUS
 62
     5
 10
-17.36607700000001
 20
-57.500299
 30
0.0
 11
-17.36607700000001
 21
-56.450867
 31
0.0
  0
LINE
  5
529
  8
DETAIL
  6
CONTINUOUS
 62
     5
 10
-17.36607700000001
 20
-55.980867
 30
0.0
 11
-17.36607700000001
 21
-52.500299
 31
0.0
  0
LINE
  5
52A
  8
DETAIL
  6
CONTINUOUS
 62
     5
 10
-17.836077
 20
-57.500299
 30
0.0
 11
-17.836077
 21
-56.450867
 31
0.0
  0
LINE
  5
52B
  8
DETAIL
  6
CONTINUOUS
 62
     5
 10
-17.836077
 20
-55.980867
 30
0.0
 11
-17.836077
 21
-52.500299
 31
0.0
  0
LINE
  5
52C
  8
DETAIL
  6
CONTINUOUS
 62
     5
 10
-15.296077
 20
-56.450867
 30
0.0
 11
-19.906077
 21
-56.450867
 31
0.0
  0
LINE
  5
52D
  8
DETAIL
  6
CONTINUOUS
 62
     5
 10
-15.296077
 20
-55.980867
 30
0.0
 11
-19.906077
 21
-55.980867
 31
0.0
  0
LINE
  5
52E
  8
DETAIL
  6
CONTINUOUS
 62
     5
 10
-14.82607700000001
 20
-57.500299
 30
0.0
 11
-14.82607700000001
 21
-53.910867
 31
0.0
  0
LINE
  5
52F
  8
DETAIL
  6
CONTINUOUS
 62
     5
 10
-14.82607700000001
 20
-53.440867
 30
0.0
 11
-14.82607700000001
 21
-52.500299
 31
0.0
  0
LINE
  5
530
  8
DETAIL
  6
CONTINUOUS
 62
     5
 10
-15.296077
 20
-57.500299
 30
0.0
 11
-15.296077
 21
-53.910867
 31
0.0
  0
LINE
  5
531
  8
DETAIL
  6
CONTINUOUS
 62
     5
 10
-15.296077
 20
-53.440867
 30
0.0
 11
-15.296077
 21
-52.500299
 31
0.0
  0
LINE
  5
532
  8
DETAIL
  6
CONTINUOUS
 62
     5
 10
-12.756077
 20
-53.440867
 30
0.0
 11
-17.36607700000001
 21
-53.440867
 31
0.0
  0
LINE
  5
533
  8
DETAIL
  6
CONTINUOUS
 62
     5
 10
-12.756077
 20
-53.910867
 30
0.0
 11
-17.36607700000001
 21
-53.910867
 31
0.0
  0
LINE
  5
534
  8
DETAIL
  6
CONTINUOUS
 62
     5
 10
-12.28607700000001
 20
-57.500299
 30
0.0
 11
-12.28607700000001
 21
-56.450867
 31
0.0
  0
LINE
  5
535
  8
DETAIL
  6
CONTINUOUS
 62
     5
 10
-12.28607700000001
 20
-55.980867
 30
0.0
 11
-12.28607700000001
 21
-52.500299
 31
0.0
  0
LINE
  5
536
  8
DETAIL
  6
CONTINUOUS
 62
     5
 10
-12.756077
 20
-57.500299
 30
0.0
 11
-12.756077
 21
-56.450867
 31
0.0
  0
LINE
  5
537
  8
DETAIL
  6
CONTINUOUS
 62
     5
 10
-12.756077
 20
-55.980867
 30
0.0
 11
-12.756077
 21
-52.500299
 31
0.0
  0
LINE
  5
538
  8
DETAIL
  6
CONTINUOUS
 62
     5
 10
-10.21607700000001
 20
-56.450867
 30
0.0
 11
-14.82607700000001
 21
-56.450867
 31
0.0
  0
LINE
  5
539
  8
DETAIL
  6
CONTINUOUS
 62
     5
 10
-10.21607700000001
 20
-55.980867
 30
0.0
 11
-14.82607700000001
 21
-55.980867
 31
0.0
  0
LINE
  5
53A
  8
DETAIL
  6
CONTINUOUS
 62
     5
 10
-9.746077
 20
-57.500299
 30
0.0
 11
-9.746077
 21
-53.910867
 31
0.0
  0
LINE
  5
53B
  8
DETAIL
  6
CONTINUOUS
 62
     5
 10
-9.746077
 20
-53.440867
 30
0.0
 11
-9.746077
 21
-52.500299
 31
0.0
  0
LINE
  5
53C
  8
DETAIL
  6
CONTINUOUS
 62
     5
 10
-10.21607700000001
 20
-57.500299
 30
0.0
 11
-10.21607700000001
 21
-53.910867
 31
0.0
  0
LINE
  5
53D
  8
DETAIL
  6
CONTINUOUS
 62
     5
 10
-10.21607700000001
 20
-53.440867
 30
0.0
 11
-10.21607700000001
 21
-52.500299
 31
0.0
  0
LINE
  5
53E
  8
DETAIL
  6
CONTINUOUS
 62
     5
 10
-7.206077000000001
 20
-55.994238
 30
0.0
 11
-7.206077000000001
 21
-54.006359
 31
0.0
  0
LINE
  5
53F
  8
DETAIL
  6
CONTINUOUS
 62
     5
 10
-7.676076999999999
 20
-56.710066
 30
0.0
 11
-7.676076999999999
 21
-56.450867
 31
0.0
  0
LINE
  5
540
  8
DETAIL
  6
CONTINUOUS
 62
     5
 10
-7.676076999999999
 20
-55.980867
 30
0.0
 11
-7.676076999999999
 21
-53.29053199999999
 31
0.0
  0
LINE
  5
541
  8
DETAIL
  6
CONTINUOUS
 62
     5
 10
-7.463864000000001
 20
-56.450867
 30
0.0
 11
-9.746077
 21
-56.450867
 31
0.0
  0
LINE
  5
542
  8
DETAIL
  6
CONTINUOUS
 62
     5
 10
-7.200329000000004
 20
-55.980867
 30
0.0
 11
-9.746077
 21
-55.980867
 31
0.0
  0
LINE
  5
543
  8
DETAIL
  6
CONTINUOUS
 62
     5
 10
-7.676076999999999
 20
-53.910867
 30
0.0
 11
-12.28607700000001
 21
-53.910867
 31
0.0
  0
LINE
  5
544
  8
DETAIL
  6
CONTINUOUS
 62
     5
 10
-7.676076999999999
 20
-53.440867
 30
0.0
 11
-12.28607700000001
 21
-53.440867
 31
0.0
  0
LINE
  5
545
  8
DETAIL
  6
CONTINUOUS
 62
     5
 10
-30.06607700000001
 20
-50.000299
 30
0.0
 11
-30.06607700000001
 21
-48.830867
 31
0.0
  0
LINE
  5
546
  8
DETAIL
  6
CONTINUOUS
 62
     5
 10
-30.06607700000001
 20
-48.360867
 30
0.0
 11
-30.06607700000001
 21
-45.00029900000001
 31
0.0
  0
LINE
  5
547
  8
DETAIL
  6
CONTINUOUS
 62
     5
 10
-30.536077
 20
-49.775501
 30
0.0
 11
-30.536077
 21
-48.830867
 31
0.0
  0
LINE
  5
548
  8
DETAIL
  6
CONTINUOUS
 62
     5
 10
-30.536077
 20
-48.360867
 30
0.0
 11
-30.536077
 21
-45.225096
 31
0.0
  0
LINE
  5
549
  8
DETAIL
  6
CONTINUOUS
 62
     5
 10
-31.687984
 20
-46.29086700000001
 30
0.0
 11
-30.536077
 21
-46.29086700000001
 31
0.0
  0
LINE
  5
54A
  8
DETAIL
  6
CONTINUOUS
 62
     5
 10
-31.351894
 20
-45.82086700000001
 30
0.0
 11
-30.536077
 21
-45.82086700000001
 31
0.0
  0
LINE
  5
54B
  8
DETAIL
  6
CONTINUOUS
 62
     5
 10
-27.996077
 20
-50.000299
 30
0.0
 11
-27.996077
 21
-46.29086700000001
 31
0.0
  0
LINE
  5
54C
  8
DETAIL
  6
CONTINUOUS
 62
     5
 10
-27.996077
 20
-45.82086700000001
 30
0.0
 11
-27.996077
 21
-45.00029900000001
 31
0.0
  0
LINE
  5
54D
  8
DETAIL
  6
CONTINUOUS
 62
     5
 10
-27.526077
 20
-50.000299
 30
0.0
 11
-27.526077
 21
-46.29086700000001
 31
0.0
  0
LINE
  5
54E
  8
DETAIL
  6
CONTINUOUS
 62
     5
 10
-27.526077
 20
-45.82086700000001
 30
0.0
 11
-27.526077
 21
-45.00029900000001
 31
0.0
  0
LINE
  5
54F
  8
DETAIL
  6
CONTINUOUS
 62
     5
 10
-31.847216
 20
-48.360867
 30
0.0
 11
-27.996077
 21
-48.360867
 31
0.0
  0
LINE
  5
550
  8
DETAIL
  6
CONTINUOUS
 62
     5
 10
-31.616504
 20
-48.830867
 30
0.0
 11
-27.996077
 21
-48.830867
 31
0.0
  0
LINE
  5
551
  8
DETAIL
  6
CONTINUOUS
 62
     5
 10
-25.456077
 20
-50.000299
 30
0.0
 11
-25.456077
 21
-48.830867
 31
0.0
  0
LINE
  5
552
  8
DETAIL
  6
CONTINUOUS
 62
     5
 10
-25.456077
 20
-48.360867
 30
0.0
 11
-25.456077
 21
-45.00029900000001
 31
0.0
  0
LINE
  5
553
  8
DETAIL
  6
CONTINUOUS
 62
     5
 10
-24.986077
 20
-50.000299
 30
0.0
 11
-24.986077
 21
-48.830867
 31
0.0
  0
LINE
  5
554
  8
DETAIL
  6
CONTINUOUS
 62
     5
 10
-24.986077
 20
-48.360867
 30
0.0
 11
-24.986077
 21
-45.00029900000001
 31
0.0
  0
LINE
  5
555
  8
DETAIL
  6
CONTINUOUS
 62
     5
 10
-30.06607700000001
 20
-46.29086700000001
 30
0.0
 11
-25.456077
 21
-46.29086700000001
 31
0.0
  0
LINE
  5
556
  8
DETAIL
  6
CONTINUOUS
 62
     5
 10
-30.06607700000001
 20
-45.82086700000001
 30
0.0
 11
-25.456077
 21
-45.82086700000001
 31
0.0
  0
LINE
  5
557
  8
DETAIL
  6
CONTINUOUS
 62
     5
 10
-22.916077
 20
-50.000299
 30
0.0
 11
-22.916077
 21
-46.29086700000001
 31
0.0
  0
LINE
  5
558
  8
DETAIL
  6
CONTINUOUS
 62
     5
 10
-22.916077
 20
-45.82086700000001
 30
0.0
 11
-22.916077
 21
-45.00029900000001
 31
0.0
  0
LINE
  5
559
  8
DETAIL
  6
CONTINUOUS
 62
     5
 10
-22.446077
 20
-50.000299
 30
0.0
 11
-22.446077
 21
-46.29086700000001
 31
0.0
  0
LINE
  5
55A
  8
DETAIL
  6
CONTINUOUS
 62
     5
 10
-22.446077
 20
-45.82086700000001
 30
0.0
 11
-22.446077
 21
-45.00029900000001
 31
0.0
  0
LINE
  5
55B
  8
DETAIL
  6
CONTINUOUS
 62
     5
 10
-27.526077
 20
-48.830867
 30
0.0
 11
-22.916077
 21
-48.830867
 31
0.0
  0
LINE
  5
55C
  8
DETAIL
  6
CONTINUOUS
 62
     5
 10
-27.526077
 20
-48.360867
 30
0.0
 11
-22.916077
 21
-48.360867
 31
0.0
  0
LINE
  5
55D
  8
DETAIL
  6
CONTINUOUS
 62
     5
 10
-20.376077
 20
-50.000299
 30
0.0
 11
-20.376077
 21
-48.830867
 31
0.0
  0
LINE
  5
55E
  8
DETAIL
  6
CONTINUOUS
 62
     5
 10
-20.376077
 20
-48.360867
 30
0.0
 11
-20.376077
 21
-45.00029900000001
 31
0.0
  0
LINE
  5
55F
  8
DETAIL
  6
CONTINUOUS
 62
     5
 10
-19.906077
 20
-50.000299
 30
0.0
 11
-19.906077
 21
-48.830867
 31
0.0
  0
LINE
  5
560
  8
DETAIL
  6
CONTINUOUS
 62
     5
 10
-19.906077
 20
-48.360867
 30
0.0
 11
-19.906077
 21
-45.00029900000001
 31
0.0
  0
LINE
  5
561
  8
DETAIL
  6
CONTINUOUS
 62
     5
 10
-24.986077
 20
-46.29086700000001
 30
0.0
 11
-20.376077
 21
-46.29086700000001
 31
0.0
  0
LINE
  5
562
  8
DETAIL
  6
CONTINUOUS
 62
     5
 10
-24.986077
 20
-45.82086700000001
 30
0.0
 11
-20.376077
 21
-45.82086700000001
 31
0.0
  0
LINE
  5
563
  8
DETAIL
  6
CONTINUOUS
 62
     5
 10
-17.836077
 20
-50.000299
 30
0.0
 11
-17.836077
 21
-46.29086700000001
 31
0.0
  0
LINE
  5
564
  8
DETAIL
  6
CONTINUOUS
 62
     5
 10
-17.836077
 20
-45.82086700000001
 30
0.0
 11
-17.836077
 21
-45.00029900000001
 31
0.0
  0
LINE
  5
565
  8
DETAIL
  6
CONTINUOUS
 62
     5
 10
-17.36607700000001
 20
-50.000299
 30
0.0
 11
-17.36607700000001
 21
-46.29086700000001
 31
0.0
  0
LINE
  5
566
  8
DETAIL
  6
CONTINUOUS
 62
     5
 10
-17.36607700000001
 20
-45.82086700000001
 30
0.0
 11
-17.36607700000001
 21
-45.00029900000001
 31
0.0
  0
LINE
  5
567
  8
DETAIL
  6
CONTINUOUS
 62
     5
 10
-22.446077
 20
-48.360867
 30
0.0
 11
-17.836077
 21
-48.360867
 31
0.0
  0
LINE
  5
568
  8
DETAIL
  6
CONTINUOUS
 62
     5
 10
-22.446077
 20
-48.830867
 30
0.0
 11
-17.836077
 21
-48.830867
 31
0.0
  0
LINE
  5
569
  8
DETAIL
  6
CONTINUOUS
 62
     5
 10
-15.296077
 20
-50.000299
 30
0.0
 11
-15.296077
 21
-48.830867
 31
0.0
  0
LINE
  5
56A
  8
DETAIL
  6
CONTINUOUS
 62
     5
 10
-15.296077
 20
-48.360867
 30
0.0
 11
-15.296077
 21
-45.00029900000001
 31
0.0
  0
LINE
  5
56B
  8
DETAIL
  6
CONTINUOUS
 62
     5
 10
-14.82607700000001
 20
-50.000299
 30
0.0
 11
-14.82607700000001
 21
-48.830867
 31
0.0
  0
LINE
  5
56C
  8
DETAIL
  6
CONTINUOUS
 62
     5
 10
-14.82607700000001
 20
-48.360867
 30
0.0
 11
-14.82607700000001
 21
-45.00029900000001
 31
0.0
  0
LINE
  5
56D
  8
DETAIL
  6
CONTINUOUS
 62
     5
 10
-19.906077
 20
-46.29086700000001
 30
0.0
 11
-15.296077
 21
-46.29086700000001
 31
0.0
  0
LINE
  5
56E
  8
DETAIL
  6
CONTINUOUS
 62
     5
 10
-19.906077
 20
-45.82086700000001
 30
0.0
 11
-15.296077
 21
-45.82086700000001
 31
0.0
  0
LINE
  5
56F
  8
DETAIL
  6
CONTINUOUS
 62
     5
 10
-12.756077
 20
-50.000299
 30
0.0
 11
-12.756077
 21
-46.29086700000001
 31
0.0
  0
LINE
  5
570
  8
DETAIL
  6
CONTINUOUS
 62
     5
 10
-12.756077
 20
-45.82086700000001
 30
0.0
 11
-12.756077
 21
-45.00029900000001
 31
0.0
  0
LINE
  5
571
  8
DETAIL
  6
CONTINUOUS
 62
     5
 10
-12.28607700000001
 20
-50.000299
 30
0.0
 11
-12.28607700000001
 21
-46.29086700000001
 31
0.0
  0
LINE
  5
572
  8
DETAIL
  6
CONTINUOUS
 62
     5
 10
-12.28607700000001
 20
-45.82086700000001
 30
0.0
 11
-12.28607700000001
 21
-45.00029900000001
 31
0.0
  0
LINE
  5
573
  8
DETAIL
  6
CONTINUOUS
 62
     5
 10
-17.36607700000001
 20
-48.360867
 30
0.0
 11
-12.756077
 21
-48.360867
 31
0.0
  0
LINE
  5
574
  8
DETAIL
  6
CONTINUOUS
 62
     5
 10
-17.36607700000001
 20
-48.830867
 30
0.0
 11
-12.756077
 21
-48.830867
 31
0.0
  0
LINE
  5
575
  8
DETAIL
  6
CONTINUOUS
 62
     5
 10
-10.21607700000001
 20
-50.000299
 30
0.0
 11
-10.21607700000001
 21
-48.830867
 31
0.0
  0
LINE
  5
576
  8
DETAIL
  6
CONTINUOUS
 62
     5
 10
-9.746077
 20
-50.000299
 30
0.0
 11
-9.746077
 21
-48.830867
 31
0.0
  0
LINE
  5
577
  8
DETAIL
  6
CONTINUOUS
 62
     5
 10
-14.82607700000001
 20
-46.29086700000001
 30
0.0
 11
-10.21607700000001
 21
-46.29086700000001
 31
0.0
  0
LINE
  5
578
  8
DETAIL
  6
CONTINUOUS
 62
     5
 10
-14.82607700000001
 20
-45.82086700000001
 30
0.0
 11
-10.21607700000001
 21
-45.82086700000001
 31
0.0
  0
LINE
  5
579
  8
DETAIL
  6
CONTINUOUS
 62
     5
 10
-9.746077
 20
-45.82086700000001
 30
0.0
 11
-7.648106000000006
 21
-45.82086700000001
 31
0.0
  0
LINE
  5
57A
  8
DETAIL
  6
CONTINUOUS
 62
     5
 10
-9.746077
 20
-48.360867
 30
0.0
 11
-9.746077
 21
-45.00029900000001
 31
0.0
  0
LINE
  5
57B
  8
DETAIL
  6
CONTINUOUS
 62
     5
 10
-10.21607700000001
 20
-48.360867
 30
0.0
 11
-10.21607700000001
 21
-45.00029900000001
 31
0.0
  0
LINE
  5
57C
  8
DETAIL
  6
CONTINUOUS
 62
     5
 10
-12.28607700000001
 20
-48.360867
 30
0.0
 11
-7.676076999999999
 21
-48.360867
 31
0.0
  0
LINE
  5
57D
  8
DETAIL
  6
CONTINUOUS
 62
     5
 10
-7.206077000000001
 20
-48.360867
 30
0.0
 11
-7.152784000000004
 21
-48.360867
 31
0.0
  0
LINE
  5
57E
  8
DETAIL
  6
CONTINUOUS
 62
     5
 10
-12.28607700000001
 20
-48.830867
 30
0.0
 11
-7.676076999999999
 21
-48.830867
 31
0.0
  0
LINE
  5
57F
  8
DETAIL
  6
CONTINUOUS
 62
     5
 10
-9.746077
 20
-46.29086700000001
 30
0.0
 11
-7.312016
 21
-46.29086700000001
 31
0.0
  0
LINE
  5
580
  8
DETAIL
  6
CONTINUOUS
 62
     5
 10
-7.206077000000001
 20
-48.494238
 30
0.0
 11
-7.206077000000001
 21
-46.50635900000001
 31
0.0
  0
LINE
  5
581
  8
DETAIL
  6
CONTINUOUS
 62
     5
 10
-7.676076999999999
 20
-49.210066
 30
0.0
 11
-7.676076999999999
 21
-46.29086700000001
 31
0.0
  0
LINE
  5
582
  8
DETAIL
  6
CONTINUOUS
 62
     5
 10
-30.536077
 20
-40.980867
 30
0.0
 11
-31.79967100000001
 21
-40.980867
 31
0.0
  0
LINE
  5
583
  8
DETAIL
  6
CONTINUOUS
 62
     5
 10
-30.536077
 20
-41.450867
 30
0.0
 11
-31.536136
 21
-41.450867
 31
0.0
  0
LINE
  5
584
  8
DETAIL
  6
CONTINUOUS
 62
     5
 10
-27.526077
 20
-42.50029900000001
 30
0.0
 11
-27.526077
 21
-41.450867
 31
0.0
  0
LINE
  5
585
  8
DETAIL
  6
CONTINUOUS
 62
     5
 10
-27.996077
 20
-42.50029900000001
 30
0.0
 11
-27.996077
 21
-41.450867
 31
0.0
  0
LINE
  5
586
  8
DETAIL
  6
CONTINUOUS
 62
     5
 10
-25.456077
 20
-41.450867
 30
0.0
 11
-30.06607700000001
 21
-41.450867
 31
0.0
  0
LINE
  5
587
  8
DETAIL
  6
CONTINUOUS
 62
     5
 10
-25.456077
 20
-40.980867
 30
0.0
 11
-30.06607700000001
 21
-40.980867
 31
0.0
  0
LINE
  5
588
  8
DETAIL
  6
CONTINUOUS
 62
     5
 10
-22.446077
 20
-42.50029900000001
 30
0.0
 11
-22.446077
 21
-41.450867
 31
0.0
  0
LINE
  5
589
  8
DETAIL
  6
CONTINUOUS
 62
     5
 10
-22.916077
 20
-42.50029900000001
 30
0.0
 11
-22.916077
 21
-41.450867
 31
0.0
  0
LINE
  5
58A
  8
DETAIL
  6
CONTINUOUS
 62
     5
 10
-20.376077
 20
-41.450867
 30
0.0
 11
-24.986077
 21
-41.450867
 31
0.0
  0
LINE
  5
58B
  8
DETAIL
  6
CONTINUOUS
 62
     5
 10
-20.376077
 20
-40.980867
 30
0.0
 11
-24.986077
 21
-40.980867
 31
0.0
  0
LINE
  5
58C
  8
DETAIL
  6
CONTINUOUS
 62
     5
 10
-17.36607700000001
 20
-42.50029900000001
 30
0.0
 11
-17.36607700000001
 21
-41.450867
 31
0.0
  0
LINE
  5
58D
  8
DETAIL
  6
CONTINUOUS
 62
     5
 10
-17.836077
 20
-42.50029900000001
 30
0.0
 11
-17.836077
 21
-41.450867
 31
0.0
  0
LINE
  5
58E
  8
DETAIL
  6
CONTINUOUS
 62
     5
 10
-15.296077
 20
-41.450867
 30
0.0
 11
-19.906077
 21
-41.450867
 31
0.0
  0
LINE
  5
58F
  8
DETAIL
  6
CONTINUOUS
 62
     5
 10
-15.296077
 20
-40.980867
 30
0.0
 11
-19.906077
 21
-40.980867
 31
0.0
  0
LINE
  5
590
  8
DETAIL
  6
CONTINUOUS
 62
     5
 10
-12.28607700000001
 20
-42.50029900000001
 30
0.0
 11
-12.28607700000001
 21
-41.450867
 31
0.0
  0
LINE
  5
591
  8
DETAIL
  6
CONTINUOUS
 62
     5
 10
-12.756077
 20
-42.50029900000001
 30
0.0
 11
-12.756077
 21
-41.450867
 31
0.0
  0
LINE
  5
592
  8
DETAIL
  6
CONTINUOUS
 62
     5
 10
-10.21607700000001
 20
-41.450867
 30
0.0
 11
-14.82607700000001
 21
-41.450867
 31
0.0
  0
LINE
  5
593
  8
DETAIL
  6
CONTINUOUS
 62
     5
 10
-10.21607700000001
 20
-40.980867
 30
0.0
 11
-14.82607700000001
 21
-40.980867
 31
0.0
  0
LINE
  5
594
  8
DETAIL
  6
CONTINUOUS
 62
     5
 10
-7.676076999999999
 20
-41.710066
 30
0.0
 11
-7.676076999999999
 21
-41.450867
 31
0.0
  0
LINE
  5
595
  8
DETAIL
  6
CONTINUOUS
 62
     5
 10
-7.463864000000001
 20
-41.450867
 30
0.0
 11
-9.746077
 21
-41.450867
 31
0.0
  0
LINE
  5
596
  8
DETAIL
  6
CONTINUOUS
 62
     5
 10
-7.200329000000004
 20
-40.980867
 30
0.0
 11
-9.746077
 21
-40.980867
 31
0.0
  0
ARC
  5
597
  8
DETAIL
  6
CONTINUOUS
 62
     5
 10
-29.5
 20
-77.50029899999998
 30
0.0
 40
2.5
 50
90.0
 51
270.0
  0
ARC
  5
598
  8
DETAIL
  6
CONTINUOUS
 62
     5
 10
-9.5
 20
-77.50029899999998
 30
0.0
 40
2.5
 50
270.0
 51
90.0
  0
ARC
  5
599
  8
DETAIL
  6
CONTINUOUS
 62
     5
 10
-29.5
 20
-70.000299
 30
0.0
 40
2.5
 50
90.0
 51
270.0
  0
ARC
  5
59A
  8
DETAIL
  6
CONTINUOUS
 62
     5
 10
-9.5
 20
-70.000299
 30
0.0
 40
2.5
 50
270.0
 51
90.0
  0
ARC
  5
59B
  8
DETAIL
  6
CONTINUOUS
 62
     5
 10
-29.5
 20
-62.500299
 30
0.0
 40
2.5
 50
90.0
 51
270.0
  0
ARC
  5
59C
  8
DETAIL
  6
CONTINUOUS
 62
     5
 10
-9.5
 20
-62.500299
 30
0.0
 40
2.5
 50
270.0
 51
90.0
  0
ARC
  5
59D
  8
DETAIL
  6
CONTINUOUS
 62
     5
 10
-29.5
 20
-55.000299
 30
0.0
 40
2.5
 50
90.0
 51
270.0
  0
ARC
  5
59E
  8
DETAIL
  6
CONTINUOUS
 62
     5
 10
-9.5
 20
-55.000299
 30
0.0
 40
2.5
 50
270.0
 51
90.0
  0
ARC
  5
59F
  8
DETAIL
  6
CONTINUOUS
 62
     5
 10
-29.5
 20
-47.50029900000001
 30
0.0
 40
2.5
 50
90.0
 51
270.0
  0
ARC
  5
5A0
  8
DETAIL
  6
CONTINUOUS
 62
     5
 10
-9.5
 20
-47.50029900000001
 30
0.0
 40
2.5
 50
270.0
 51
90.0
  0
LINE
  5
5A1
  8
DETAIL
  6
CONTINUOUS
 62
     5
 10
-29.5
 20
-42.50029900000001
 30
0.0
 11
-9.5
 21
-42.50029900000001
 31
0.0
  0
LINE
  5
5A2
  8
DETAIL
  6
CONTINUOUS
 62
     5
 10
-29.5
 20
-50.000299
 30
0.0
 11
-9.5
 21
-50.000299
 31
0.0
  0
LINE
  5
5A3
  8
DETAIL
  6
CONTINUOUS
 62
     5
 10
-29.5
 20
-45.00029900000001
 30
0.0
 11
-9.5
 21
-45.00029900000001
 31
0.0
  0
LINE
  5
5A4
  8
DETAIL
  6
CONTINUOUS
 62
     5
 10
-29.5
 20
-57.500299
 30
0.0
 11
-9.5
 21
-57.500299
 31
0.0
  0
LINE
  5
5A5
  8
DETAIL
  6
CONTINUOUS
 62
     5
 10
-29.5
 20
-52.500299
 30
0.0
 11
-9.5
 21
-52.500299
 31
0.0
  0
LINE
  5
5A6
  8
DETAIL
  6
CONTINUOUS
 62
     5
 10
-29.5
 20
-65.000299
 30
0.0
 11
-9.5
 21
-65.000299
 31
0.0
  0
LINE
  5
5A7
  8
DETAIL
  6
CONTINUOUS
 62
     5
 10
-29.5
 20
-60.000299
 30
0.0
 11
-9.5
 21
-60.000299
 31
0.0
  0
LINE
  5
5A8
  8
DETAIL
  6
CONTINUOUS
 62
     5
 10
-29.5
 20
-72.500299
 30
0.0
 11
-9.5
 21
-72.500299
 31
0.0
  0
LINE
  5
5A9
  8
DETAIL
  6
CONTINUOUS
 62
     5
 10
-29.5
 20
-67.500299
 30
0.0
 11
-9.5
 21
-67.500299
 31
0.0
  0
LINE
  5
5AA
  8
DETAIL
  6
CONTINUOUS
 62
     5
 10
-29.5
 20
-80.00029899999998
 30
0.0
 11
-9.5
 21
-80.00029899999998
 31
0.0
  0
LINE
  5
5AB
  8
DETAIL
  6
CONTINUOUS
 62
     5
 10
-29.5
 20
-75.00029899999998
 30
0.0
 11
-9.5
 21
-75.00029899999998
 31
0.0
  0
LINE
  5
5AC
  8
DETAIL
  6
CONTINUOUS
 62
     5
 10
-30.536077
 20
-42.27550100000001
 30
0.0
 11
-30.536077
 21
-38.910867
 31
0.0
  0
LINE
  5
5AD
  8
DETAIL
  6
CONTINUOUS
 62
     5
 10
-30.06607700000001
 20
-42.435367
 30
0.0
 11
-30.06607700000001
 21
-38.910867
 31
0.0
  0
LINE
  5
5AE
  8
DETAIL
  6
CONTINUOUS
 62
     5
 10
-27.996077
 20
-40.980867
 30
0.0
 11
-27.996077
 21
-37.500299
 31
0.0
  0
LINE
  5
5AF
  8
DETAIL
  6
CONTINUOUS
 62
     5
 10
-27.526077
 20
-40.980867
 30
0.0
 11
-27.526077
 21
-37.500299
 31
0.0
  0
LINE
  5
5B0
  8
DETAIL
  6
CONTINUOUS
 62
     5
 10
-24.986077
 20
-42.50029900000001
 30
0.0
 11
-24.986077
 21
-38.910867
 31
0.0
  0
LINE
  5
5B1
  8
DETAIL
  6
CONTINUOUS
 62
     5
 10
-25.456077
 20
-42.50029900000001
 30
0.0
 11
-25.456077
 21
-38.910867
 31
0.0
  0
LINE
  5
5B2
  8
DETAIL
  6
CONTINUOUS
 62
     5
 10
-22.446077
 20
-40.980867
 30
0.0
 11
-22.446077
 21
-37.500299
 31
0.0
  0
LINE
  5
5B3
  8
DETAIL
  6
CONTINUOUS
 62
     5
 10
-22.916077
 20
-40.980867
 30
0.0
 11
-22.916077
 21
-37.500299
 31
0.0
  0
LINE
  5
5B4
  8
DETAIL
  6
CONTINUOUS
 62
     5
 10
-19.906077
 20
-42.50029900000001
 30
0.0
 11
-19.906077
 21
-38.910867
 31
0.0
  0
LINE
  5
5B5
  8
DETAIL
  6
CONTINUOUS
 62
     5
 10
-20.376077
 20
-42.50029900000001
 30
0.0
 11
-20.376077
 21
-38.910867
 31
0.0
  0
LINE
  5
5B6
  8
DETAIL
  6
CONTINUOUS
 62
     5
 10
-17.36607700000001
 20
-40.980867
 30
0.0
 11
-17.36607700000001
 21
-37.500299
 31
0.0
  0
LINE
  5
5B7
  8
DETAIL
  6
CONTINUOUS
 62
     5
 10
-17.836077
 20
-40.980867
 30
0.0
 11
-17.836077
 21
-37.500299
 31
0.0
  0
LINE
  5
5B8
  8
DETAIL
  6
CONTINUOUS
 62
     5
 10
-14.82607700000001
 20
-42.50029900000001
 30
0.0
 11
-14.82607700000001
 21
-38.910867
 31
0.0
  0
LINE
  5
5B9
  8
DETAIL
  6
CONTINUOUS
 62
     5
 10
-15.296077
 20
-42.50029900000001
 30
0.0
 11
-15.296077
 21
-38.910867
 31
0.0
  0
LINE
  5
5BA
  8
DETAIL
  6
CONTINUOUS
 62
     5
 10
-12.28607700000001
 20
-40.980867
 30
0.0
 11
-12.28607700000001
 21
-37.500299
 31
0.0
  0
LINE
  5
5BB
  8
DETAIL
  6
CONTINUOUS
 62
     5
 10
-12.756077
 20
-40.980867
 30
0.0
 11
-12.756077
 21
-37.500299
 31
0.0
  0
LINE
  5
5BC
  8
DETAIL
  6
CONTINUOUS
 62
     5
 10
-9.746077
 20
-42.50029900000001
 30
0.0
 11
-9.746077
 21
-38.910867
 31
0.0
  0
LINE
  5
5BD
  8
DETAIL
  6
CONTINUOUS
 62
     5
 10
-10.21607700000001
 20
-42.50029900000001
 30
0.0
 11
-10.21607700000001
 21
-38.910867
 31
0.0
  0
LINE
  5
5BE
  8
DETAIL
  6
CONTINUOUS
 62
     5
 10
-7.206077000000001
 20
-40.99423800000001
 30
0.0
 11
-7.206077000000001
 21
-39.00635900000002
 31
0.0
  0
LINE
  5
5BF
  8
DETAIL
  6
CONTINUOUS
 62
     5
 10
-7.676076999999999
 20
-40.980867
 30
0.0
 11
-7.676076999999999
 21
-38.290532
 31
0.0
  0
ARC
  5
5C0
  8
DETAIL
  6
CONTINUOUS
 62
     5
 10
-29.5
 20
-40.000299
 30
0.0
 40
2.5
 50
90.0
 51
270.0
  0
ARC
  5
5C1
  8
DETAIL
  6
CONTINUOUS
 62
     5
 10
-9.5
 20
-40.000299
 30
0.0
 40
2.5
 50
270.0
 51
90.0
  0
LINE
  5
5C2
  8
DETAIL
  6
CONTINUOUS
 62
     5
 10
-30.536077
 20
-85.980867
 30
0.0
 11
-31.79967100000001
 21
-85.980867
 31
0.0
  0
LINE
  5
5C3
  8
DETAIL
  6
CONTINUOUS
 62
     5
 10
-30.536077
 20
-86.450867
 30
0.0
 11
-31.536136
 21
-86.450867
 31
0.0
  0
LINE
  5
5C4
  8
DETAIL
  6
CONTINUOUS
 62
     5
 10
-30.536077
 20
-87.275501
 30
0.0
 11
-30.536077
 21
-83.91086700000001
 31
0.0
  0
LINE
  5
5C5
  8
DETAIL
  6
CONTINUOUS
 62
     5
 10
-30.06607700000001
 20
-87.43536699999999
 30
0.0
 11
-30.06607700000001
 21
-83.91086700000001
 31
0.0
  0
LINE
  5
5C6
  8
DETAIL
  6
CONTINUOUS
 62
     5
 10
-27.526077
 20
-87.50029899999998
 30
0.0
 11
-27.526077
 21
-86.450867
 31
0.0
  0
LINE
  5
5C7
  8
DETAIL
  6
CONTINUOUS
 62
     5
 10
-27.996077
 20
-87.50029899999998
 30
0.0
 11
-27.996077
 21
-86.450867
 31
0.0
  0
LINE
  5
5C8
  8
DETAIL
  6
CONTINUOUS
 62
     5
 10
-27.996077
 20
-85.980867
 30
0.0
 11
-27.996077
 21
-82.50029899999998
 31
0.0
  0
LINE
  5
5C9
  8
DETAIL
  6
CONTINUOUS
 62
     5
 10
-27.526077
 20
-85.980867
 30
0.0
 11
-27.526077
 21
-82.50029899999998
 31
0.0
  0
LINE
  5
5CA
  8
DETAIL
  6
CONTINUOUS
 62
     5
 10
-30.06607700000001
 20
-83.440867
 30
0.0
 11
-30.06607700000001
 21
-82.56522999999999
 31
0.0
  0
LINE
  5
5CB
  8
DETAIL
  6
CONTINUOUS
 62
     5
 10
-30.536077
 20
-83.440867
 30
0.0
 11
-30.536077
 21
-82.725096
 31
0.0
  0
LINE
  5
5CC
  8
DETAIL
  6
CONTINUOUS
 62
     5
 10
-27.996077
 20
-83.91086700000001
 30
0.0
 11
-31.750142
 21
-83.91086700000001
 31
0.0
  0
LINE
  5
5CD
  8
DETAIL
  6
CONTINUOUS
 62
     5
 10
-27.996077
 20
-83.440867
 30
0.0
 11
-31.454015
 21
-83.440867
 31
0.0
  0
LINE
  5
5CE
  8
DETAIL
  6
CONTINUOUS
 62
     5
 10
-25.456077
 20
-86.450867
 30
0.0
 11
-30.06607700000001
 21
-86.450867
 31
0.0
  0
LINE
  5
5CF
  8
DETAIL
  6
CONTINUOUS
 62
     5
 10
-25.456077
 20
-85.980867
 30
0.0
 11
-30.06607700000001
 21
-85.980867
 31
0.0
  0
LINE
  5
5D0
  8
DETAIL
  6
CONTINUOUS
 62
     5
 10
-24.986077
 20
-87.50029899999998
 30
0.0
 11
-24.986077
 21
-83.91086700000001
 31
0.0
  0
LINE
  5
5D1
  8
DETAIL
  6
CONTINUOUS
 62
     5
 10
-24.986077
 20
-83.440867
 30
0.0
 11
-24.986077
 21
-82.50029899999998
 31
0.0
  0
LINE
  5
5D2
  8
DETAIL
  6
CONTINUOUS
 62
     5
 10
-25.456077
 20
-87.50029899999998
 30
0.0
 11
-25.456077
 21
-83.91086700000001
 31
0.0
  0
LINE
  5
5D3
  8
DETAIL
  6
CONTINUOUS
 62
     5
 10
-25.456077
 20
-83.440867
 30
0.0
 11
-25.456077
 21
-82.50029899999998
 31
0.0
  0
LINE
  5
5D4
  8
DETAIL
  6
CONTINUOUS
 62
     5
 10
-22.916077
 20
-83.91086700000001
 30
0.0
 11
-27.526077
 21
-83.91086700000001
 31
0.0
  0
LINE
  5
5D5
  8
DETAIL
  6
CONTINUOUS
 62
     5
 10
-22.916077
 20
-83.440867
 30
0.0
 11
-27.526077
 21
-83.440867
 31
0.0
  0
LINE
  5
5D6
  8
DETAIL
  6
CONTINUOUS
 62
     5
 10
-22.446077
 20
-87.50029899999998
 30
0.0
 11
-22.446077
 21
-86.450867
 31
0.0
  0
LINE
  5
5D7
  8
DETAIL
  6
CONTINUOUS
 62
     5
 10
-22.446077
 20
-85.980867
 30
0.0
 11
-22.446077
 21
-82.50029899999998
 31
0.0
  0
LINE
  5
5D8
  8
DETAIL
  6
CONTINUOUS
 62
     5
 10
-22.916077
 20
-87.50029899999998
 30
0.0
 11
-22.916077
 21
-86.450867
 31
0.0
  0
LINE
  5
5D9
  8
DETAIL
  6
CONTINUOUS
 62
     5
 10
-22.916077
 20
-85.980867
 30
0.0
 11
-22.916077
 21
-82.50029899999998
 31
0.0
  0
LINE
  5
5DA
  8
DETAIL
  6
CONTINUOUS
 62
     5
 10
-20.376077
 20
-86.450867
 30
0.0
 11
-24.986077
 21
-86.450867
 31
0.0
  0
LINE
  5
5DB
  8
DETAIL
  6
CONTINUOUS
 62
     5
 10
-20.376077
 20
-85.980867
 30
0.0
 11
-24.986077
 21
-85.980867
 31
0.0
  0
LINE
  5
5DC
  8
DETAIL
  6
CONTINUOUS
 62
     5
 10
-19.906077
 20
-87.50029899999998
 30
0.0
 11
-19.906077
 21
-83.91086700000001
 31
0.0
  0
LINE
  5
5DD
  8
DETAIL
  6
CONTINUOUS
 62
     5
 10
-19.906077
 20
-83.440867
 30
0.0
 11
-19.906077
 21
-82.50029899999998
 31
0.0
  0
LINE
  5
5DE
  8
DETAIL
  6
CONTINUOUS
 62
     5
 10
-20.376077
 20
-87.50029899999998
 30
0.0
 11
-20.376077
 21
-83.91086700000001
 31
0.0
  0
LINE
  5
5DF
  8
DETAIL
  6
CONTINUOUS
 62
     5
 10
-20.376077
 20
-83.440867
 30
0.0
 11
-20.376077
 21
-82.50029899999998
 31
0.0
  0
LINE
  5
5E0
  8
DETAIL
  6
CONTINUOUS
 62
     5
 10
-17.836077
 20
-83.91086700000001
 30
0.0
 11
-22.446077
 21
-83.91086700000001
 31
0.0
  0
LINE
  5
5E1
  8
DETAIL
  6
CONTINUOUS
 62
     5
 10
-17.836077
 20
-83.440867
 30
0.0
 11
-22.446077
 21
-83.440867
 31
0.0
  0
LINE
  5
5E2
  8
DETAIL
  6
CONTINUOUS
 62
     5
 10
-17.36607700000001
 20
-87.50029899999998
 30
0.0
 11
-17.36607700000001
 21
-86.450867
 31
0.0
  0
LINE
  5
5E3
  8
DETAIL
  6
CONTINUOUS
 62
     5
 10
-17.36607700000001
 20
-85.980867
 30
0.0
 11
-17.36607700000001
 21
-82.50029899999998
 31
0.0
  0
LINE
  5
5E4
  8
DETAIL
  6
CONTINUOUS
 62
     5
 10
-17.836077
 20
-87.50029899999998
 30
0.0
 11
-17.836077
 21
-86.450867
 31
0.0
  0
LINE
  5
5E5
  8
DETAIL
  6
CONTINUOUS
 62
     5
 10
-17.836077
 20
-85.980867
 30
0.0
 11
-17.836077
 21
-82.50029899999998
 31
0.0
  0
LINE
  5
5E6
  8
DETAIL
  6
CONTINUOUS
 62
     5
 10
-15.296077
 20
-86.450867
 30
0.0
 11
-19.906077
 21
-86.450867
 31
0.0
  0
LINE
  5
5E7
  8
DETAIL
  6
CONTINUOUS
 62
     5
 10
-15.296077
 20
-85.980867
 30
0.0
 11
-19.906077
 21
-85.980867
 31
0.0
  0
LINE
  5
5E8
  8
DETAIL
  6
CONTINUOUS
 62
     5
 10
-14.82607700000001
 20
-87.50029899999998
 30
0.0
 11
-14.82607700000001
 21
-83.91086700000001
 31
0.0
  0
LINE
  5
5E9
  8
DETAIL
  6
CONTINUOUS
 62
     5
 10
-14.82607700000001
 20
-83.440867
 30
0.0
 11
-14.82607700000001
 21
-82.50029899999998
 31
0.0
  0
LINE
  5
5EA
  8
DETAIL
  6
CONTINUOUS
 62
     5
 10
-15.296077
 20
-87.50029899999998
 30
0.0
 11
-15.296077
 21
-83.91086700000001
 31
0.0
  0
LINE
  5
5EB
  8
DETAIL
  6
CONTINUOUS
 62
     5
 10
-15.296077
 20
-83.440867
 30
0.0
 11
-15.296077
 21
-82.50029899999998
 31
0.0
  0
LINE
  5
5EC
  8
DETAIL
  6
CONTINUOUS
 62
     5
 10
-12.756077
 20
-83.440867
 30
0.0
 11
-17.36607700000001
 21
-83.440867
 31
0.0
  0
LINE
  5
5ED
  8
DETAIL
  6
CONTINUOUS
 62
     5
 10
-12.756077
 20
-83.91086700000001
 30
0.0
 11
-17.36607700000001
 21
-83.91086700000001
 31
0.0
  0
LINE
  5
5EE
  8
DETAIL
  6
CONTINUOUS
 62
     5
 10
-12.28607700000001
 20
-87.50029899999998
 30
0.0
 11
-12.28607700000001
 21
-86.450867
 31
0.0
  0
LINE
  5
5EF
  8
DETAIL
  6
CONTINUOUS
 62
     5
 10
-12.28607700000001
 20
-85.980867
 30
0.0
 11
-12.28607700000001
 21
-82.50029899999998
 31
0.0
  0
LINE
  5
5F0
  8
DETAIL
  6
CONTINUOUS
 62
     5
 10
-12.756077
 20
-87.50029899999998
 30
0.0
 11
-12.756077
 21
-86.450867
 31
0.0
  0
LINE
  5
5F1
  8
DETAIL
  6
CONTINUOUS
 62
     5
 10
-12.756077
 20
-85.980867
 30
0.0
 11
-12.756077
 21
-82.50029899999998
 31
0.0
  0
LINE
  5
5F2
  8
DETAIL
  6
CONTINUOUS
 62
     5
 10
-10.21607700000001
 20
-86.450867
 30
0.0
 11
-14.82607700000001
 21
-86.450867
 31
0.0
  0
LINE
  5
5F3
  8
DETAIL
  6
CONTINUOUS
 62
     5
 10
-10.21607700000001
 20
-85.980867
 30
0.0
 11
-14.82607700000001
 21
-85.980867
 31
0.0
  0
LINE
  5
5F4
  8
DETAIL
  6
CONTINUOUS
 62
     5
 10
-9.746077
 20
-87.50029899999998
 30
0.0
 11
-9.746077
 21
-83.91086700000001
 31
0.0
  0
LINE
  5
5F5
  8
DETAIL
  6
CONTINUOUS
 62
     5
 10
-9.746077
 20
-83.440867
 30
0.0
 11
-9.746077
 21
-82.50029899999998
 31
0.0
  0
LINE
  5
5F6
  8
DETAIL
  6
CONTINUOUS
 62
     5
 10
-10.21607700000001
 20
-87.50029899999998
 30
0.0
 11
-10.21607700000001
 21
-83.91086700000001
 31
0.0
  0
LINE
  5
5F7
  8
DETAIL
  6
CONTINUOUS
 62
     5
 10
-10.21607700000001
 20
-83.440867
 30
0.0
 11
-10.21607700000001
 21
-82.50029899999998
 31
0.0
  0
LINE
  5
5F8
  8
DETAIL
  6
CONTINUOUS
 62
     5
 10
-7.206077000000001
 20
-85.994238
 30
0.0
 11
-7.206077000000001
 21
-84.006359
 31
0.0
  0
LINE
  5
5F9
  8
DETAIL
  6
CONTINUOUS
 62
     5
 10
-7.676076999999999
 20
-86.710066
 30
0.0
 11
-7.676076999999999
 21
-86.450867
 31
0.0
  0
LINE
  5
5FA
  8
DETAIL
  6
CONTINUOUS
 62
     5
 10
-7.676076999999999
 20
-85.980867
 30
0.0
 11
-7.676076999999999
 21
-83.29053199999998
 31
0.0
  0
LINE
  5
5FB
  8
DETAIL
  6
CONTINUOUS
 62
     5
 10
-7.463864000000001
 20
-86.450867
 30
0.0
 11
-9.746077
 21
-86.450867
 31
0.0
  0
LINE
  5
5FC
  8
DETAIL
  6
CONTINUOUS
 62
     5
 10
-7.200329000000004
 20
-85.980867
 30
0.0
 11
-9.746077
 21
-85.980867
 31
0.0
  0
LINE
  5
5FD
  8
DETAIL
  6
CONTINUOUS
 62
     5
 10
-7.676076999999999
 20
-83.91086700000001
 30
0.0
 11
-12.28607700000001
 21
-83.91086700000001
 31
0.0
  0
LINE
  5
5FE
  8
DETAIL
  6
CONTINUOUS
 62
     5
 10
-7.676076999999999
 20
-83.440867
 30
0.0
 11
-12.28607700000001
 21
-83.440867
 31
0.0
  0
ARC
  5
5FF
  8
DETAIL
  6
CONTINUOUS
 62
     5
 10
-29.5
 20
-85.00029899999998
 30
0.0
 40
2.5
 50
90.0
 51
270.0
  0
ARC
  5
600
  8
DETAIL
  6
CONTINUOUS
 62
     5
 10
-9.5
 20
-85.00029899999998
 30
0.0
 40
2.5
 50
270.0
 51
90.0
  0
LINE
  5
601
  8
DETAIL
  6
CONTINUOUS
 62
     5
 10
-29.5
 20
-87.50029899999998
 30
0.0
 11
-9.5
 21
-87.50029899999998
 31
0.0
  0
LINE
  5
602
  8
DETAIL
  6
CONTINUOUS
 62
     5
 10
-29.5
 20
-82.50029899999998
 30
0.0
 11
-9.5
 21
-82.50029899999998
 31
0.0
  0
TEXT
  5
60B
  8
ETC
  6
CONTINUOUS
 62
    61
 10
624.5631833454878
 20
-19.0106651421558
 30
0.0
 40
40.0
  1
P-50VSQD5
 41
0.9
  0
TEXT
  5
60C
  8
ETC
  6
CONTINUOUS
 62
    61
 10
518.2421411747757
 20
102.7487942351829
 30
0.0
 40
40.0
  1
P-50VSQD5_4
 41
0.9
  0
TEXT
  5
60D
  8
ETC
  6
CONTINUOUS
 62
    61
 10
510.3264351747757
 20
38.18395517449109
 30
0.0
 40
40.0
  1
システム部材
 41
0.9
  0
ENDSEC
  0
EOF
