  0
SECTION
  2
HEADER
  9
$ACADVER
  1
AC1009
  9
$INSBASE
 10
0.0
 20
0.0
 30
0.0
  9
$EXTMIN
 10
-288.22630140723959
 20
-336.77672156688823
 30
-0.0015257624927045
  9
$EXTMAX
 10
753.19520167912549
 20
244.49158476722729
 30
50.001525995323327
  9
$LIMMIN
 10
-2970.0
 20
-2100.0
  9
$LIMMAX
 10
2970.0
 20
2100.0
  9
$ORTHOMODE
 70
     1
  9
$REGENMODE
 70
     0
  9
$FILLMODE
 70
     1
  9
$QTEXTMODE
 70
     0
  9
$MIRRTEXT
 70
     0
  9
$DRAGMODE
 70
     2
  9
$LTSCALE
 40
20.0
  9
$OSMODE
 70
    37
  9
$ATTMODE
 70
     1
  9
$TEXTSIZE
 40
64.0
  9
$TRACEWID
 40
0.05
  9
$TEXTSTYLE
  7
STANDARD
  9
$CLAYER
  8
SIZE
  9
$CELTYPE
  6
CONTINUOUS
  9
$CECOLOR
 62
    30
  9
$DIMSCALE
 40
1.0
  9
$DIMASZ
 40
12.0
  9
$DIMEXO
 40
20.0
  9
$DIMDLI
 40
200.0
  9
$DIMRND
 40
0.0
  9
$DIMDLE
 40
0.0
  9
$DIMEXE
 40
20.0
  9
$DIMTP
 40
0.0
  9
$DIMTM
 40
0.0
  9
$DIMTXT
 40
64.0
  9
$DIMCEN
 40
0.09
  9
$DIMTSZ
 40
0.0
  9
$DIMTOL
 70
     0
  9
$DIMLIM
 70
     0
  9
$DIMTIH
 70
     0
  9
$DIMTOH
 70
     0
  9
$DIMSE1
 70
     0
  9
$DIMSE2
 70
     0
  9
$DIMTAD
 70
     1
  9
$DIMZIN
 70
     8
  9
$DIMBLK
  1
DOT1
  9
$DIMASO
 70
     1
  9
$DIMSHO
 70
     0
  9
$DIMPOST
  1

  9
$DIMAPOST
  1

  9
$DIMALT
 70
     0
  9
$DIMALTD
 70
     2
  9
$DIMALTF
 40
25.399999999999999
  9
$DIMLFAC
 40
1.0
  9
$DIMTOFL
 70
     1
  9
$DIMTVP
 40
0.0
  9
$DIMTIX
 70
     1
  9
$DIMSOXD
 70
     0
  9
$DIMSAH
 70
     1
  9
$DIMBLK1
  1
ORIGIN
  9
$DIMBLK2
  1
ORIGIN
  9
$DIMSTYLE
  2
STANDARD
  9
$DIMCLRD
 70
     7
  9
$DIMCLRE
 70
     7
  9
$DIMCLRT
 70
     7
  9
$DIMTFAC
 40
1.0
  9
$DIMGAP
 40
25.0
  9
$LUNITS
 70
     2
  9
$LUPREC
 70
     4
  9
$SKETCHINC
 40
0.1
  9
$FILLETRAD
 40
4.0
  9
$AUNITS
 70
     1
  9
$AUPREC
 70
     3
  9
$MENU
  1
ACAD
  9
$ELEVATION
 40
0.0
  9
$PELEVATION
 40
0.0
  9
$THICKNESS
 40
50.0
  9
$LIMCHECK
 70
     0
  9
$BLIPMODE
 70
     0
  9
$CHAMFERA
 40
0.0
  9
$CHAMFERB
 40
0.0
  9
$SKPOLY
 70
     0
  9
$TDCREATE
 40
2453151.42464309
  9
$TDUPDATE
 40
2455048.4087661919
  9
$TDINDWG
 40
0.1204298495
  9
$TDUSRTIMER
 40
0.1204294792
  9
$USRTIMER
 70
     1
  9
$ANGBASE
 50
0.0
  9
$ANGDIR
 70
     0
  9
$PDMODE
 70
     3
  9
$PDSIZE
 40
-2.0
  9
$PLINEWID
 40
0.0
  9
$COORDS
 70
     0
  9
$SPLFRAME
 70
     0
  9
$SPLINETYPE
 70
     6
  9
$SPLINESEGS
 70
     8
  9
$ATTDIA
 70
     0
  9
$ATTREQ
 70
     1
  9
$HANDLING
 70
     1
  9
$HANDSEED
  5
3BD
  9
$SURFTAB1
 70
     6
  9
$SURFTAB2
 70
     6
  9
$SURFTYPE
 70
     6
  9
$SURFU
 70
     6
  9
$SURFV
 70
     6
  9
$UCSNAME
  2

  9
$UCSORG
 10
0.0
 20
0.0
 30
0.0
  9
$UCSXDIR
 10
1.0
 20
0.0
 30
0.0
  9
$UCSYDIR
 10
0.0
 20
1.0
 30
0.0
  9
$PUCSNAME
  2

  9
$PUCSORG
 10
0.0
 20
0.0
 30
0.0
  9
$PUCSXDIR
 10
1.0
 20
0.0
 30
0.0
  9
$PUCSYDIR
 10
0.0
 20
1.0
 30
0.0
  9
$USERI1
 70
     0
  9
$USERI2
 70
     0
  9
$USERI3
 70
     0
  9
$USERI4
 70
     0
  9
$USERI5
 70
     0
  9
$USERR1
 40
20.0
  9
$USERR2
 40
0.0
  9
$USERR3
 40
0.0
  9
$USERR4
 40
0.0
  9
$USERR5
 40
0.0
  9
$WORLDVIEW
 70
     1
  9
$SHADEDGE
 70
     3
  9
$SHADEDIF
 70
    70
  9
$TILEMODE
 70
     1
  9
$MAXACTVP
 70
    48
  9
$PLIMCHECK
 70
     0
  9
$PEXTMIN
 10
-1.0000000000000000E+020
 20
-1.0000000000000000E+020
 30
-1.0000000000000000E+020
  9
$PEXTMAX
 10
1.0000000000000000E+020
 20
1.0000000000000000E+020
 30
1.0000000000000000E+020
  9
$PLIMMIN
 10
0.0
 20
0.0
  9
$PLIMMAX
 10
12.0
 20
9.0
  9
$UNITMODE
 70
     0
  9
$VISRETAIN
 70
     0
  9
$PLINEGEN
 70
     0
  9
$PSLTSCALE
 70
     0
  0
ENDSEC
  0
SECTION
  2
TABLES
  0
TABLE
  2
VPORT
 70
     1
  0
VPORT
  2
*ACTIVE
 70
     0
 10
0.0
 20
0.0
 11
1.0
 21
1.0
 12
264.93896105443008
 22
-85.664667725783829
 13
0.0
 23
0.0
 14
1.0
 24
1.0
 15
0.0
 25
0.0
 16
0.0
 26
0.0
 36
1.0
 17
0.0
 27
0.0
 37
0.0
 40
980.25213671303788
 41
1.198113207547169
 42
50.0
 43
0.0
 44
0.0
 50
0.0
 51
0.0
 71
     0
 72
  1000
 73
     1
 74
     0
 75
     0
 76
     0
 77
     0
 78
     0
  0
ENDTAB
  0
TABLE
  2
LTYPE
 70
     3
  0
LTYPE
  2
CONTINUOUS
 70
     0
  3
実線
 72
    65
 73
     0
 40
0.0
  0
LTYPE
  2
DASHDOT
 70
     0
  3
____ _ ____ _ ____ _ ____ _ ____ _ ____ _ ____
 72
    65
 73
     4
 40
5.5
 49
4.0
 49
-0.6
 49
0.3
 49
-0.6
  0
LTYPE
  2
DASHED
 70
     0
  3
-- -- -- -- -- -- -- -- -- -- -- -- -- -- --
 72
    65
 73
     2
 40
0.75
 49
0.5
 49
-0.25
  0
ENDTAB
  0
TABLE
  2
LAYER
 70
    12
  0
LAYER
  2
0
 70
     0
 62
     7
  6
CONTINUOUS
  0
LAYER
  2
SIZE
 70
     0
 62
    30
  6
CONTINUOUS
  0
LAYER
  2
BASIS
 70
     0
 62
     6
  6
DASHDOT
  0
LAYER
  2
OUTLINE
 70
     0
 62
     3
  6
CONTINUOUS
  0
LAYER
  2
DETAIL
 70
     0
 62
     5
  6
CONTINUOUS
  0
LAYER
  2
ARRANGE
 70
     0
 62
     1
  6
CONTINUOUS
  0
LAYER
  2
DEFPOINTS
 70
     0
 62
     7
  6
CONTINUOUS
  0
LAYER
  2
ETC
 70
     0
 62
    61
  6
CONTINUOUS
  0
LAYER
  2
FIX
 70
     0
 62
    11
  6
CONTINUOUS
  0
LAYER
  2
NOTE
 70
     0
 62
     4
  6
CONTINUOUS
  0
LAYER
  2
SERVICESPACE
 70
     0
 62
     2
  6
DASHDOT
  0
LAYER
  2
SYMBOLLINE
 70
     0
 62
    15
  6
CONTINUOUS
  0
ENDTAB
  0
TABLE
  2
STYLE
 70
     2
  0
STYLE
  2
STANDARD
 70
     0
 40
64.0
 41
0.9
 50
0.0
 71
     0
 42
64.0
  3
SIMPLEX.shx
  4
BIGFONT.shx
  0
STYLE
  2
ANNOTATIVE
 70
     0
 40
0.0
 41
1.0
 50
0.0
 71
     0
 42
0.2
  3
txt
  4

  0
ENDTAB
  0
TABLE
  2
VIEW
 70
     1
  0
VIEW
  2
ALL
 70
     0
 40
4282.6198079999967
 10
0.0
 20
41.309903999999989
 41
5940.0
 11
0.0
 21
0.0
 31
1.0
 12
0.0
 22
0.0
 32
0.0
 42
50.0
 43
0.0
 44
0.0
 50
0.0
 71
     0
  0
ENDTAB
  0
TABLE
  2
UCS
 70
     0
  0
ENDTAB
  0
TABLE
  2
APPID
 70
     4
  0
APPID
  2
ACAD
 70
     0
  0
APPID
  2
ACADANNOTATIVE
 70
     0
  0
APPID
  2
ACAD_MLEADERVER
 70
     0
  0
APPID
  2
AUTOCAD_POSTSCRIPT_FIGURE
 70
     0
  0
ENDTAB
  0
TABLE
  2
DIMSTYLE
 70
     2
  0
DIMSTYLE
  2
STANDARD
 70
     0
  3

  4

  5

  6

  7

 40
1.0
 41
0.18
 42
0.0625
 43
0.38
 44
0.18
 45
0.0
 46
0.0
 47
0.0
 48
0.0
140
0.18
141
0.09
142
0.0
143
25.399999999999999
144
1.0
145
0.0
146
1.0
147
0.09
 71
     0
 72
     0
 73
     1
 74
     1
 75
     0
 76
     0
 77
     0
 78
     0
170
     0
171
     2
172
     0
173
     0
174
     0
175
     0
176
     7
177
     7
178
     7
  0
DIMSTYLE
  2
ANNOTATIVE
 70
     0
  3

  4

  5

  6

  7

 40
1.0
 41
0.18
 42
0.0625
 43
0.38
 44
0.18
 45
0.0
 46
0.0
 47
0.0
 48
0.0
140
0.18
141
0.09
142
0.0
143
25.399999999999999
144
1.0
145
0.0
146
1.0
147
0.09
 71
     0
 72
     0
 73
     1
 74
     1
 75
     0
 76
     0
 77
     0
 78
     0
170
     0
171
     2
172
     0
173
     0
174
     0
175
     0
176
     0
177
     0
178
     0
  0
ENDTAB
  0
ENDSEC
  0
SECTION
  2
BLOCKS
  0
BLOCK
  8
0
  2
$MODEL_SPACE
 70
     0
 10
0.0
 20
0.0
 30
0.0
  3
$MODEL_SPACE
  1

  0
ENDBLK
  5
352
  8
0
  0
BLOCK
 67
     1
  8
0
  2
$PAPER_SPACE
 70
     0
 10
0.0
 20
0.0
 30
0.0
  3
$PAPER_SPACE
  1

  0
ENDBLK
  5
34E
 67
     1
  8
0
  0
BLOCK
  8
0
  2
DOT1
 70
     0
 10
0.0
 20
0.0
 30
0.0
  3
DOT1
  1

  0
CIRCLE
  5
22A
  8
SIZE
  6
CONTINUOUS
 62
     7
 10
0.0
 20
0.0
 30
0.0
 40
3.0
  0
ENDBLK
  5
22B
  8
0
  0
BLOCK
  8
0
  2
_ORIGIN
 70
     0
 10
0.0
 20
0.0
 30
0.0
  3
_ORIGIN
  1

  0
CIRCLE
  5
22E
  8
0
  6
CONTINUOUS
 62
     7
 10
0.0
 20
0.0
 30
0.0
 40
0.5
  0
LINE
  5
22F
  8
0
  6
CONTINUOUS
 62
     7
 10
0.0
 20
0.0
 30
0.0
 11
-1.0
 21
0.0
 31
0.0
  0
ENDBLK
  5
230
  8
0
  0
ENDSEC
  0
SECTION
  2
ENTITIES
  0
LINE
  5
231
  8
BASIS
  6
DASHDOT
 62
     6
 39
50.0
 10
0.0
 20
-166.57794099999981
 30
0.0
 11
0.0
 21
152.95478199999991
 31
0.0
  0
LINE
  5
232
  8
BASIS
  6
DASHDOT
 62
     6
 39
50.0
 10
-143.85668799999991
 20
0.0
 30
0.0
 11
142.32852199999991
 21
0.0
 31
0.0
  0
LINE
  5
233
  8
DETAIL
  6
CONTINUOUS
 62
     5
 10
104.4999999999999
 20
85.724070999999967
 30
0.0
 11
104.4999999999999
 21
-100.500281
 31
0.0
  0
LINE
  5
234
  8
DETAIL
  6
CONTINUOUS
 62
     5
 10
-104.4999999999999
 20
85.724390999999983
 30
0.0
 11
-104.4999999999999
 21
-100.500281
 31
0.0
  0
LINE
  5
235
  8
SIZE
  6
CONTINUOUS
 62
    30
 10
105.0
 20
-133.4209899999999
 30
0.0
 11
105.0
 21
-336.72482400000001
 31
0.0
  0
LINE
  5
236
  8
SIZE
  6
CONTINUOUS
 62
    30
 10
-105.0
 20
-133.4209899999999
 30
0.0
 11
-105.0
 21
-336.72482400000001
 31
0.0
  0
LINE
  5
237
  8
SIZE
  6
CONTINUOUS
 62
    30
 10
93.0
 20
-316.72482400000001
 30
0.0
 11
-93.0
 21
-316.72482400000001
 31
0.0
  0
CIRCLE
  5
238
  8
SIZE
  6
CONTINUOUS
 62
    30
 10
105.0
 20
-316.72482400000001
 30
0.0
 40
6.0
  0
LINE
  5
239
  8
SIZE
  6
CONTINUOUS
 62
    30
 10
105.0
 20
-316.72482400000001
 30
0.0
 11
93.0
 21
-316.72482400000001
 31
0.0
  0
CIRCLE
  5
23A
  8
SIZE
  6
CONTINUOUS
 62
    30
 10
-105.0
 20
-316.72482400000001
 30
0.0
 40
6.0
  0
LINE
  5
23B
  8
SIZE
  6
CONTINUOUS
 62
    30
 10
-105.0
 20
-316.72482400000001
 30
0.0
 11
-93.0
 21
-316.72482400000001
 31
0.0
  0
TEXT
  5
23C
  8
SIZE
  6
CONTINUOUS
 62
    30
 10
-68.571428571428555
 20
-291.72482400000001
 30
0.0
 40
64.0
  1
210
 41
0.9
 72
     1
 11
0.0
 21
-291.72482400000001
 31
0.0
  0
LINE
  5
23D
  8
DETAIL
  6
CONTINUOUS
 62
     5
 10
100.0
 20
-118.4209899999999
 30
0.0
 11
-100.0
 21
-118.4209899999999
 31
0.0
  0
LINE
  5
23E
  8
DETAIL
  6
CONTINUOUS
 62
     5
 10
100.0
 20
-119.5
 30
0.0
 11
-100.0
 21
-119.5
 31
0.0
  0
LINE
  5
23F
  8
DETAIL
  6
CONTINUOUS
 62
     5
 10
-103.415272
 20
-103.8632879999999
 30
0.0
 11
103.50346500000001
 21
-103.8632879999999
 31
0.0
  0
LINE
  5
240
  8
DETAIL
  6
CONTINUOUS
 62
     5
 10
-104.4999999999999
 20
-100.500281
 30
0.0
 11
104.4999999999999
 21
-100.500281
 31
0.0
  0
LINE
  5
241
  8
DETAIL
  6
CONTINUOUS
 62
     5
 10
-105.0
 20
-103.0
 30
0.0
 11
-105.0
 21
-114.5
 31
0.0
  0
ARC
  5
242
  8
DETAIL
  6
CONTINUOUS
 62
     5
 10
-100.0
 20
-114.5
 30
0.0
 40
5.0
 50
180.0
 51
270.0
  0
ARC
  5
243
  8
DETAIL
  6
CONTINUOUS
 62
     5
 10
-100.0
 20
-113.4209899999997
 30
0.0
 40
5.0
 50
180.0
 51
270.0
  0
LINE
  5
244
  8
DETAIL
  6
CONTINUOUS
 62
     5
 10
-103.4999999999999
 20
-101.5
 30
0.0
 11
-102.4999999999999
 21
-101.5
 31
0.0
  0
LINE
  5
245
  8
DETAIL
  6
DASHED
 62
     5
 10
-104.4999999999999
 20
-99.500000000000014
 30
0.0
 11
-102.4999999999999
 21
-99.500000000000014
 31
0.0
  0
ARC
  5
246
  8
DETAIL
  6
CONTINUOUS
 62
     5
 10
-102.4999999999999
 20
-100.5
 30
0.0
 40
1.0
 50
270.0
 51
359.98392799999982
  0
ARC
  5
247
  8
DETAIL
  6
CONTINUOUS
 62
     5
 10
-103.4999999999999
 20
-103.0
 30
0.0
 40
1.5
 50
90.0
 51
180.0
  0
ARC
  5
248
  8
DETAIL
  6
DASHED
 62
     5
 10
-102.4999999999999
 20
-100.5
 30
0.0
 40
1.0
 50
359.98392799999982
 51
90.0
  0
ARC
  5
249
  8
DETAIL
  6
CONTINUOUS
 62
     5
 10
100.0
 20
-113.4209899999997
 30
0.0
 40
5.0
 50
270.0
 51
0.0
  0
ARC
  5
24A
  8
DETAIL
  6
CONTINUOUS
 62
     5
 10
100.0
 20
-114.5
 30
0.0
 40
5.0
 50
270.0
 51
0.0
  0
LINE
  5
24B
  8
DETAIL
  6
CONTINUOUS
 62
     5
 10
105.0
 20
-103.0
 30
0.0
 11
105.0
 21
-114.5
 31
0.0
  0
LINE
  5
24C
  8
DETAIL
  6
CONTINUOUS
 62
     5
 10
102.4999999999999
 20
-101.5
 30
0.0
 11
103.4999999999999
 21
-101.5
 31
0.0
  0
LINE
  5
24D
  8
DETAIL
  6
DASHED
 62
     5
 10
102.4999999999999
 20
-99.500000000000014
 30
0.0
 11
104.4999999999999
 21
-99.500000000000014
 31
0.0
  0
ARC
  5
24E
  8
DETAIL
  6
DASHED
 62
     5
 10
102.4999999999999
 20
-100.5
 30
0.0
 40
1.0
 50
90.0
 51
180.01607200000001
  0
ARC
  5
24F
  8
DETAIL
  6
CONTINUOUS
 62
     5
 10
103.4999999999999
 20
-103.0
 30
0.0
 40
1.5
 50
0.0
 51
90.0
  0
ARC
  5
250
  8
DETAIL
  6
CONTINUOUS
 62
     5
 10
102.4999999999999
 20
-100.5
 30
0.0
 40
1.0
 50
180.01607200000001
 51
270.0
  0
LINE
  5
251
  8
DETAIL
  6
CONTINUOUS
 62
     5
 10
-101.5
 20
102.4999999999999
 30
0.0
 11
101.5
 21
102.4999999999999
 31
0.0
  0
LINE
  5
252
  8
DETAIL
  6
CONTINUOUS
 62
     5
 10
-101.5
 20
103.4999999999999
 30
0.0
 11
101.5
 21
103.4999999999999
 31
0.0
  0
LINE
  5
253
  8
DETAIL
  6
CONTINUOUS
 62
     5
 10
105.0
 20
101.5
 30
0.0
 11
-105.0
 21
101.5
 31
0.0
  0
LINE
  5
254
  8
DETAIL
  6
CONTINUOUS
 62
     5
 10
-101.5
 20
103.4999999999999
 30
0.0
 11
-101.5
 21
101.5
 31
0.0
  0
ARC
  5
255
  8
DETAIL
  6
CONTINUOUS
 62
     5
 10
-105.0
 20
100.5
 30
0.0
 40
1.0
 50
90.0
 51
180.0
  0
LINE
  5
256
  8
DETAIL
  6
CONTINUOUS
 62
     5
 10
-106.0
 20
100.5
 30
0.0
 11
-106.0
 21
86.710761999999988
 31
0.0
  0
LINE
  5
257
  8
DETAIL
  6
CONTINUOUS
 62
     5
 10
101.5
 20
103.4999999999999
 30
0.0
 11
101.5
 21
101.5
 31
0.0
  0
ARC
  5
258
  8
DETAIL
  6
CONTINUOUS
 62
     5
 10
105.0
 20
100.5
 30
0.0
 40
1.0
 50
0.0
 51
90.0
  0
LINE
  5
259
  8
DETAIL
  6
CONTINUOUS
 62
     5
 10
106.0
 20
100.5
 30
0.0
 11
106.0
 21
86.710436000000001
 31
0.0
  0
LINE
  5
25A
  8
SIZE
  6
CONTINUOUS
 62
    30
 10
-124.5
 20
-100.500281
 30
0.0
 11
-219.18465499999999
 21
-100.500281
 31
0.0
  0
LINE
  5
25B
  8
SIZE
  6
CONTINUOUS
 62
    30
 10
-20.0
 20
69.499718999999999
 30
0.0
 11
-219.18465499999999
 21
69.499718999999999
 31
0.0
  0
LINE
  5
25C
  8
SIZE
  6
CONTINUOUS
 62
    30
 10
-199.18465499999991
 20
-112.500281
 30
0.0
 11
-199.18465499999991
 21
-124.500281
 31
0.0
  0
LINE
  5
25D
  8
SIZE
  6
CONTINUOUS
 62
    30
 10
-199.18465499999991
 20
81.499718999999999
 30
0.0
 11
-199.18465499999991
 21
93.499718999999985
 31
0.0
  0
LINE
  5
25E
  8
SIZE
  6
CONTINUOUS
 62
    30
 10
-199.18465499999991
 20
-100.500281
 30
0.0
 11
-199.18465499999991
 21
69.499718999999999
 31
0.0
  0
CIRCLE
  5
25F
  8
SIZE
  6
CONTINUOUS
 62
    30
 10
-199.18465499999991
 20
-100.500281
 30
0.0
 40
6.0
  0
LINE
  5
260
  8
SIZE
  6
CONTINUOUS
 62
    30
 10
-199.18465499999991
 20
-100.500281
 30
0.0
 11
-199.18465499999991
 21
-112.500281
 31
0.0
  0
CIRCLE
  5
261
  8
SIZE
  6
CONTINUOUS
 62
    30
 10
-199.18465499999991
 20
69.499718999999999
 30
0.0
 40
6.0
  0
LINE
  5
262
  8
SIZE
  6
CONTINUOUS
 62
    30
 10
-199.18465499999991
 20
69.499718999999999
 30
0.0
 11
-199.18465499999991
 21
81.499718999999999
 31
0.0
  0
TEXT
  5
263
  8
SIZE
  6
CONTINUOUS
 62
    30
 10
-224.18465499999991
 20
-84.071709571428585
 30
0.0
 40
64.0
  1
170
 50
90.0
 41
0.9
 72
     1
 11
-224.18465499999991
 21
-15.500280999999999
 31
0.0
  0
LINE
  5
264
  8
SIZE
  6
CONTINUOUS
 62
    30
 10
124.5
 20
-99.500000000000014
 30
0.0
 11
304.36033700000002
 21
-99.500000000000014
 31
0.0
  0
LINE
  5
265
  8
SIZE
  6
CONTINUOUS
 62
    30
 10
121.5
 20
103.4999999999999
 30
0.0
 11
304.36033700000002
 21
103.4999999999999
 31
0.0
  0
LINE
  5
266
  8
SIZE
  6
CONTINUOUS
 62
    30
 10
284.36033700000002
 20
-87.5
 30
0.0
 11
284.36033700000002
 21
91.5
 31
0.0
  0
CIRCLE
  5
267
  8
SIZE
  6
CONTINUOUS
 62
    30
 10
284.36033700000002
 20
-99.500000000000014
 30
0.0
 40
6.0
  0
LINE
  5
268
  8
SIZE
  6
CONTINUOUS
 62
    30
 10
284.36033700000002
 20
-99.500000000000014
 30
0.0
 11
284.36033700000002
 21
-87.5
 31
0.0
  0
CIRCLE
  5
269
  8
SIZE
  6
CONTINUOUS
 62
    30
 10
284.36033700000002
 20
103.4999999999999
 30
0.0
 40
6.0
  0
LINE
  5
26A
  8
SIZE
  6
CONTINUOUS
 62
    30
 10
284.36033700000002
 20
103.4999999999999
 30
0.0
 11
284.36033700000002
 21
91.5
 31
0.0
  0
TEXT
  5
26B
  8
SIZE
  6
CONTINUOUS
 62
    30
 10
259.36033700000002
 20
-72.057142857142836
 30
0.0
 40
64.0
  1
203
 50
90.0
 41
0.9
 72
     1
 11
259.36033700000002
 21
2.0
 31
0.0
  0
LINE
  5
26C
  8
SIZE
  6
CONTINUOUS
 62
    30
 10
124.5
 20
-99.500000000000014
 30
0.0
 11
304.36033700000002
 21
-99.500000000000014
 31
0.0
  0
LINE
  5
26D
  8
SIZE
  6
CONTINUOUS
 62
    30
 10
120.0
 20
-119.5
 30
0.0
 11
304.36033700000002
 21
-119.5
 31
0.0
  0
LINE
  5
26E
  8
SIZE
  6
CONTINUOUS
 62
    30
 10
284.36033700000002
 20
-87.5
 30
0.0
 11
284.36033700000002
 21
-75.5
 31
0.0
  0
LINE
  5
26F
  8
SIZE
  6
CONTINUOUS
 62
    30
 10
284.36033700000002
 20
-131.49999999999969
 30
0.0
 11
284.36033700000002
 21
-143.5
 31
0.0
  0
LINE
  5
270
  8
SIZE
  6
CONTINUOUS
 62
    30
 10
284.36033700000002
 20
-290.96342799999991
 30
0.0
 11
284.36033700000002
 21
-119.5
 31
0.0
  0
TEXT
  5
271
  8
SIZE
  6
CONTINUOUS
 62
    30
 10
259.36033700000002
 20
-265.96342742857138
 30
0.0
 40
64.0
  1
20
 50
90.0
 41
0.9
 72
     1
 11
259.36033700000002
 21
-219.334856
 31
0.0
  0
LINE
  5
272
  8
SIZE
  6
CONTINUOUS
 62
    30
 10
284.36033700000002
 20
-99.500000000000014
 30
0.0
 11
284.36033700000002
 21
-119.5
 31
0.0
  0
LINE
  5
273
  8
SIZE
  6
CONTINUOUS
 62
    30
 10
284.36033700000002
 20
-99.500000000000014
 30
0.0
 11
284.36033700000002
 21
-119.5
 31
0.0
  0
CIRCLE
  5
274
  8
SIZE
  6
CONTINUOUS
 62
    30
 10
284.36033700000002
 20
-99.500000000000014
 30
0.0
 40
6.0
  0
LINE
  5
275
  8
SIZE
  6
CONTINUOUS
 62
    30
 10
284.36033700000002
 20
-99.500000000000014
 30
0.0
 11
284.36033700000002
 21
-87.5
 31
0.0
  0
CIRCLE
  5
276
  8
SIZE
  6
CONTINUOUS
 62
    30
 10
284.36033700000002
 20
-119.5
 30
0.0
 40
6.0
  0
LINE
  5
277
  8
SIZE
  6
CONTINUOUS
 62
    30
 10
284.36033700000002
 20
-119.5
 30
0.0
 11
284.36033700000002
 21
-131.49999999999969
 31
0.0
  0
CIRCLE
  5
278
  8
ARRANGE
  6
CONTINUOUS
 62
     1
 39
50.0
 10
0.0
 20
0.0
 30
0.0
 40
40.0
  0
POINT
  5
279
  8
ARRANGE
  6
CONTINUOUS
 62
     1
 10
0.0
 20
0.0
 30
0.0
 39
50.0
  0
LINE
  5
27A
  8
OUTLINE
  6
CONTINUOUS
 62
     3
 10
105.0
 20
101.5
 30
0.0
 11
-105.0
 21
101.5
 31
0.0
  0
LINE
  5
27B
  8
OUTLINE
  6
CONTINUOUS
 62
     3
 10
-101.5
 20
103.4999999999999
 30
0.0
 11
101.5
 21
103.4999999999999
 31
0.0
  0
LINE
  5
27C
  8
OUTLINE
  6
CONTINUOUS
 62
     3
 10
-104.4999999999999
 20
-100.500281
 30
0.0
 11
104.4999999999999
 21
-100.500281
 31
0.0
  0
LINE
  5
27D
  8
OUTLINE
  6
CONTINUOUS
 62
     3
 10
100.0
 20
-119.5
 30
0.0
 11
-100.0
 21
-119.5
 31
0.0
  0
LINE
  5
27E
  8
OUTLINE
  6
CONTINUOUS
 62
     3
 10
-104.4999999999999
 20
85.724390999999983
 30
0.0
 11
-104.4999999999999
 21
-100.500281
 31
0.0
  0
LINE
  5
27F
  8
OUTLINE
  6
DASHED
 62
     3
 10
-104.4999999999999
 20
-99.500000000000014
 30
0.0
 11
-102.4999999999999
 21
-99.500000000000014
 31
0.0
  0
ARC
  5
280
  8
OUTLINE
  6
DASHED
 62
     3
 10
-102.4999999999999
 20
-100.5
 30
0.0
 40
1.0
 50
359.98392799999982
 51
90.0
  0
ARC
  5
281
  8
OUTLINE
  6
CONTINUOUS
 62
     3
 10
-103.4999999999999
 20
-103.0
 30
0.0
 40
1.5
 50
90.0
 51
180.0
  0
ARC
  5
282
  8
OUTLINE
  6
CONTINUOUS
 62
     3
 10
-102.4999999999999
 20
-100.5
 30
0.0
 40
1.0
 50
270.0
 51
359.98392799999982
  0
LINE
  5
283
  8
OUTLINE
  6
CONTINUOUS
 62
     3
 10
-103.4999999999999
 20
-101.5
 30
0.0
 11
-102.4999999999999
 21
-101.5
 31
0.0
  0
ARC
  5
284
  8
OUTLINE
  6
CONTINUOUS
 62
     3
 10
-100.0
 20
-114.5
 30
0.0
 40
5.0
 50
180.0
 51
270.0
  0
LINE
  5
285
  8
OUTLINE
  6
CONTINUOUS
 62
     3
 10
-105.0
 20
-103.0
 30
0.0
 11
-105.0
 21
-114.5
 31
0.0
  0
LINE
  5
286
  8
OUTLINE
  6
CONTINUOUS
 62
     3
 10
-106.0
 20
100.5
 30
0.0
 11
-106.0
 21
86.710761999999988
 31
0.0
  0
ARC
  5
287
  8
OUTLINE
  6
CONTINUOUS
 62
     3
 10
-105.0
 20
100.5
 30
0.0
 40
1.0
 50
90.0
 51
180.0
  0
LINE
  5
288
  8
OUTLINE
  6
CONTINUOUS
 62
     3
 10
-101.5
 20
103.4999999999999
 30
0.0
 11
-101.5
 21
101.5
 31
0.0
  0
LINE
  5
289
  8
OUTLINE
  6
CONTINUOUS
 62
     3
 10
104.4999999999999
 20
85.724070999999967
 30
0.0
 11
104.4999999999999
 21
-100.500281
 31
0.0
  0
LINE
  5
28A
  8
OUTLINE
  6
DASHED
 62
     3
 10
102.4999999999999
 20
-99.500000000000014
 30
0.0
 11
104.4999999999999
 21
-99.500000000000014
 31
0.0
  0
ARC
  5
28B
  8
OUTLINE
  6
CONTINUOUS
 62
     3
 10
102.4999999999999
 20
-100.5
 30
0.0
 40
1.0
 50
180.01607200000001
 51
270.0
  0
ARC
  5
28C
  8
OUTLINE
  6
CONTINUOUS
 62
     3
 10
103.4999999999999
 20
-103.0
 30
0.0
 40
1.5
 50
0.0
 51
90.0
  0
ARC
  5
28D
  8
OUTLINE
  6
DASHED
 62
     3
 10
102.4999999999999
 20
-100.5
 30
0.0
 40
1.0
 50
90.0
 51
180.01607200000001
  0
LINE
  5
28E
  8
OUTLINE
  6
CONTINUOUS
 62
     3
 10
102.4999999999999
 20
-101.5
 30
0.0
 11
103.4999999999999
 21
-101.5
 31
0.0
  0
LINE
  5
28F
  8
OUTLINE
  6
CONTINUOUS
 62
     3
 10
105.0
 20
-103.0
 30
0.0
 11
105.0
 21
-114.5
 31
0.0
  0
ARC
  5
290
  8
OUTLINE
  6
CONTINUOUS
 62
     3
 10
100.0
 20
-114.5
 30
0.0
 40
5.0
 50
270.0
 51
0.0
  0
LINE
  5
291
  8
OUTLINE
  6
CONTINUOUS
 62
     3
 10
106.0
 20
100.5
 30
0.0
 11
106.0
 21
86.710436000000001
 31
0.0
  0
ARC
  5
292
  8
OUTLINE
  6
CONTINUOUS
 62
     3
 10
105.0
 20
100.5
 30
0.0
 40
1.0
 50
0.0
 51
90.0
  0
LINE
  5
293
  8
OUTLINE
  6
CONTINUOUS
 62
     3
 10
101.5
 20
103.4999999999999
 30
0.0
 11
101.5
 21
101.5
 31
0.0
  0
ARC
  5
294
  8
DETAIL
  6
CONTINUOUS
 62
     5
 10
0.000291
 20
261.06177200000002
 30
0.0
 40
191.56205199999999
 50
236.530575
 51
303.46930800000001
  0
ARC
  5
295
  8
DETAIL
  6
CONTINUOUS
 62
     5
 10
0.000248
 20
247.6931679999999
 30
0.0
 40
192.74695199999999
 50
236.63675099999989
 51
303.36307199999999
  0
ARC
  5
296
  8
OUTLINE
  6
CONTINUOUS
 62
     3
 10
0.000248
 20
247.6931679999999
 30
0.0
 40
192.74695199999999
 50
236.63675099999989
 51
303.36307199999999
  0
ARC
  5
297
  8
OUTLINE
  6
CONTINUOUS
 62
     3
 10
0.000291
 20
261.06177200000002
 30
0.0
 40
191.56205199999999
 50
236.530575
 51
303.46930800000001
  0
TEXT
  5
298
  8
ETC
  6
CONTINUOUS
 62
    61
 10
329.91881460712221
 20
204.36868388971141
 30
0.0
 40
40.0
  1
P-50VSSQ5_2
 41
0.9
  0
TEXT
  5
299
  8
ETC
  6
CONTINUOUS
 62
    61
 10
322.00310760712239
 20
134.95383888971151
 30
0.0
 40
40.0
  1
システム部材
 41
0.9
  0
TEXT
  5
29A
  8
ETC
  6
CONTINUOUS
 62
    61
 10
439.14683582357452
 20
76.351331505897363
 30
0.0
 40
40.0
  1
P-50VSSQ5
 41
0.9
  0
ENDSEC
  0
EOF
