  0
SECTION
  2
HEADER
  9
$ACADVER
  1
AC1009
  9
$INSBASE
 10
0.0
 20
0.0
 30
0.0
  9
$EXTMIN
 10
-635.36680474105185
 20
-313.3849979068454
 30
-0.0015257624927045
  9
$EXTMAX
 10
832.95594395947955
 20
525.51270325844234
 30
50.001525995323327
  9
$LIMMIN
 10
-2970.0
 20
-2100.0
  9
$LIMMAX
 10
2970.0
 20
2100.0
  9
$ORTHOMODE
 70
     1
  9
$REGENMODE
 70
     0
  9
$FILLMODE
 70
     1
  9
$QTEXTMODE
 70
     0
  9
$MIRRTEXT
 70
     0
  9
$DRAGMODE
 70
     2
  9
$LTSCALE
 40
20.0
  9
$OSMODE
 70
    37
  9
$ATTMODE
 70
     1
  9
$TEXTSIZE
 40
64.0
  9
$TRACEWID
 40
0.05
  9
$TEXTSTYLE
  7
STANDARD
  9
$CLAYER
  8
SIZE
  9
$CELTYPE
  6
CONTINUOUS
  9
$CECOLOR
 62
    30
  9
$DIMSCALE
 40
1.0
  9
$DIMASZ
 40
12.0
  9
$DIMEXO
 40
20.0
  9
$DIMDLI
 40
200.0
  9
$DIMRND
 40
0.0
  9
$DIMDLE
 40
0.0
  9
$DIMEXE
 40
20.0
  9
$DIMTP
 40
0.0
  9
$DIMTM
 40
0.0
  9
$DIMTXT
 40
64.0
  9
$DIMCEN
 40
0.09
  9
$DIMTSZ
 40
0.0
  9
$DIMTOL
 70
     0
  9
$DIMLIM
 70
     0
  9
$DIMTIH
 70
     0
  9
$DIMTOH
 70
     0
  9
$DIMSE1
 70
     0
  9
$DIMSE2
 70
     0
  9
$DIMTAD
 70
     1
  9
$DIMZIN
 70
     8
  9
$DIMBLK
  1
DOT1
  9
$DIMASO
 70
     1
  9
$DIMSHO
 70
     0
  9
$DIMPOST
  1

  9
$DIMAPOST
  1

  9
$DIMALT
 70
     0
  9
$DIMALTD
 70
     2
  9
$DIMALTF
 40
25.399999999999999
  9
$DIMLFAC
 40
1.0
  9
$DIMTOFL
 70
     1
  9
$DIMTVP
 40
0.0
  9
$DIMTIX
 70
     1
  9
$DIMSOXD
 70
     0
  9
$DIMSAH
 70
     1
  9
$DIMBLK1
  1
ORIGIN
  9
$DIMBLK2
  1
ORIGIN
  9
$DIMSTYLE
  2
STANDARD
  9
$DIMCLRD
 70
     7
  9
$DIMCLRE
 70
     7
  9
$DIMCLRT
 70
     7
  9
$DIMTFAC
 40
1.0
  9
$DIMGAP
 40
25.0
  9
$LUNITS
 70
     2
  9
$LUPREC
 70
     4
  9
$SKETCHINC
 40
0.1
  9
$FILLETRAD
 40
5.0
  9
$AUNITS
 70
     1
  9
$AUPREC
 70
     3
  9
$MENU
  1
ACAD
  9
$ELEVATION
 40
0.0
  9
$PELEVATION
 40
0.0
  9
$THICKNESS
 40
50.0
  9
$LIMCHECK
 70
     0
  9
$BLIPMODE
 70
     0
  9
$CHAMFERA
 40
0.0
  9
$CHAMFERB
 40
0.0
  9
$SKPOLY
 70
     0
  9
$TDCREATE
 40
2453151.42464309
  9
$TDUPDATE
 40
2455048.4143103589
  9
$TDINDWG
 40
0.0970382755
  9
$TDUSRTIMER
 40
0.0970379167
  9
$USRTIMER
 70
     1
  9
$ANGBASE
 50
0.0
  9
$ANGDIR
 70
     0
  9
$PDMODE
 70
     3
  9
$PDSIZE
 40
-2.0
  9
$PLINEWID
 40
0.0
  9
$COORDS
 70
     0
  9
$SPLFRAME
 70
     0
  9
$SPLINETYPE
 70
     6
  9
$SPLINESEGS
 70
     8
  9
$ATTDIA
 70
     0
  9
$ATTREQ
 70
     1
  9
$HANDLING
 70
     1
  9
$HANDSEED
  5
2C0
  9
$SURFTAB1
 70
     6
  9
$SURFTAB2
 70
     6
  9
$SURFTYPE
 70
     6
  9
$SURFU
 70
     6
  9
$SURFV
 70
     6
  9
$UCSNAME
  2

  9
$UCSORG
 10
0.0
 20
0.0
 30
0.0
  9
$UCSXDIR
 10
1.0
 20
0.0
 30
0.0
  9
$UCSYDIR
 10
0.0
 20
1.0
 30
0.0
  9
$PUCSNAME
  2

  9
$PUCSORG
 10
0.0
 20
0.0
 30
0.0
  9
$PUCSXDIR
 10
1.0
 20
0.0
 30
0.0
  9
$PUCSYDIR
 10
0.0
 20
1.0
 30
0.0
  9
$USERI1
 70
     0
  9
$USERI2
 70
     0
  9
$USERI3
 70
     0
  9
$USERI4
 70
     0
  9
$USERI5
 70
     0
  9
$USERR1
 40
20.0
  9
$USERR2
 40
0.0
  9
$USERR3
 40
0.0
  9
$USERR4
 40
0.0
  9
$USERR5
 40
0.0
  9
$WORLDVIEW
 70
     1
  9
$SHADEDGE
 70
     3
  9
$SHADEDIF
 70
    70
  9
$TILEMODE
 70
     1
  9
$MAXACTVP
 70
    48
  9
$PLIMCHECK
 70
     0
  9
$PEXTMIN
 10
-1.0000000000000000E+020
 20
-1.0000000000000000E+020
 30
-1.0000000000000000E+020
  9
$PEXTMAX
 10
1.0000000000000000E+020
 20
1.0000000000000000E+020
 30
1.0000000000000000E+020
  9
$PLIMMIN
 10
0.0
 20
0.0
  9
$PLIMMAX
 10
12.0
 20
9.0
  9
$UNITMODE
 70
     0
  9
$VISRETAIN
 70
     0
  9
$PLINEGEN
 70
     0
  9
$PSLTSCALE
 70
     0
  0
ENDSEC
  0
SECTION
  2
TABLES
  0
TABLE
  2
VPORT
 70
     1
  0
VPORT
  2
*ACTIVE
 70
     0
 10
0.0
 20
0.0
 11
1.0
 21
1.0
 12
104.4888363436459
 22
74.706533669137571
 13
0.0
 23
0.0
 14
1.0
 24
1.0
 15
0.0
 25
0.0
 16
0.0
 26
0.0
 36
1.0
 17
0.0
 27
0.0
 37
0.0
 40
1382.0787266653299
 41
1.198113207547169
 42
50.0
 43
0.0
 44
0.0
 50
0.0
 51
0.0
 71
     0
 72
  1000
 73
     1
 74
     0
 75
     0
 76
     0
 77
     0
 78
     0
  0
ENDTAB
  0
TABLE
  2
LTYPE
 70
     2
  0
LTYPE
  2
CONTINUOUS
 70
     0
  3
実線
 72
    65
 73
     0
 40
0.0
  0
LTYPE
  2
DASHDOT
 70
     0
  3
____ _ ____ _ ____ _ ____ _ ____ _ ____ _ ____
 72
    65
 73
     4
 40
5.5
 49
4.0
 49
-0.6
 49
0.3
 49
-0.6
  0
ENDTAB
  0
TABLE
  2
LAYER
 70
    12
  0
LAYER
  2
0
 70
     0
 62
     7
  6
CONTINUOUS
  0
LAYER
  2
SIZE
 70
     0
 62
    30
  6
CONTINUOUS
  0
LAYER
  2
BASIS
 70
     0
 62
     6
  6
DASHDOT
  0
LAYER
  2
OUTLINE
 70
     0
 62
     3
  6
CONTINUOUS
  0
LAYER
  2
DETAIL
 70
     0
 62
     5
  6
CONTINUOUS
  0
LAYER
  2
ARRANGE
 70
     0
 62
     1
  6
CONTINUOUS
  0
LAYER
  2
DEFPOINTS
 70
     0
 62
     7
  6
CONTINUOUS
  0
LAYER
  2
ETC
 70
     0
 62
    61
  6
CONTINUOUS
  0
LAYER
  2
FIX
 70
     0
 62
    11
  6
CONTINUOUS
  0
LAYER
  2
NOTE
 70
     0
 62
     4
  6
CONTINUOUS
  0
LAYER
  2
SERVICESPACE
 70
     0
 62
     2
  6
DASHDOT
  0
LAYER
  2
SYMBOLLINE
 70
     0
 62
    15
  6
CONTINUOUS
  0
ENDTAB
  0
TABLE
  2
STYLE
 70
     2
  0
STYLE
  2
STANDARD
 70
     0
 40
64.0
 41
0.9
 50
0.0
 71
     0
 42
64.0
  3
SIMPLEX.shx
  4
BIGFONT.shx
  0
STYLE
  2
ANNOTATIVE
 70
     0
 40
0.0
 41
1.0
 50
0.0
 71
     0
 42
0.2
  3
txt
  4

  0
ENDTAB
  0
TABLE
  2
VIEW
 70
     1
  0
VIEW
  2
ALL
 70
     0
 40
4282.6198079999967
 10
0.0
 20
41.309903999999989
 41
5940.0
 11
0.0
 21
0.0
 31
1.0
 12
0.0
 22
0.0
 32
0.0
 42
50.0
 43
0.0
 44
0.0
 50
0.0
 71
     0
  0
ENDTAB
  0
TABLE
  2
UCS
 70
     0
  0
ENDTAB
  0
TABLE
  2
APPID
 70
     4
  0
APPID
  2
ACAD
 70
     0
  0
APPID
  2
ACADANNOTATIVE
 70
     0
  0
APPID
  2
ACAD_MLEADERVER
 70
     0
  0
APPID
  2
AUTOCAD_POSTSCRIPT_FIGURE
 70
     0
  0
ENDTAB
  0
TABLE
  2
DIMSTYLE
 70
     2
  0
DIMSTYLE
  2
STANDARD
 70
     0
  3

  4

  5

  6

  7

 40
1.0
 41
0.18
 42
0.0625
 43
0.38
 44
0.18
 45
0.0
 46
0.0
 47
0.0
 48
0.0
140
0.18
141
0.09
142
0.0
143
25.399999999999999
144
1.0
145
0.0
146
1.0
147
0.09
 71
     0
 72
     0
 73
     1
 74
     1
 75
     0
 76
     0
 77
     0
 78
     0
170
     0
171
     2
172
     0
173
     0
174
     0
175
     0
176
     7
177
     7
178
     7
  0
DIMSTYLE
  2
ANNOTATIVE
 70
     0
  3

  4

  5

  6

  7

 40
1.0
 41
0.18
 42
0.0625
 43
0.38
 44
0.18
 45
0.0
 46
0.0
 47
0.0
 48
0.0
140
0.18
141
0.09
142
0.0
143
25.399999999999999
144
1.0
145
0.0
146
1.0
147
0.09
 71
     0
 72
     0
 73
     1
 74
     1
 75
     0
 76
     0
 77
     0
 78
     0
170
     0
171
     2
172
     0
173
     0
174
     0
175
     0
176
     0
177
     0
178
     0
  0
ENDTAB
  0
ENDSEC
  0
SECTION
  2
BLOCKS
  0
BLOCK
  8
0
  2
$MODEL_SPACE
 70
     0
 10
0.0
 20
0.0
 30
0.0
  3
$MODEL_SPACE
  1

  0
ENDBLK
  5
26C
  8
0
  0
BLOCK
 67
     1
  8
0
  2
$PAPER_SPACE
 70
     0
 10
0.0
 20
0.0
 30
0.0
  3
$PAPER_SPACE
  1

  0
ENDBLK
  5
268
 67
     1
  8
0
  0
BLOCK
  8
0
  2
DOT1
 70
     0
 10
0.0
 20
0.0
 30
0.0
  3
DOT1
  1

  0
CIRCLE
  5
140
  8
SIZE
  6
CONTINUOUS
 62
     7
 10
0.0
 20
0.0
 30
0.0
 40
3.0
  0
ENDBLK
  5
141
  8
0
  0
BLOCK
  8
0
  2
_ORIGIN
 70
     0
 10
0.0
 20
0.0
 30
0.0
  3
_ORIGIN
  1

  0
CIRCLE
  5
144
  8
0
  6
CONTINUOUS
 62
     7
 10
0.0
 20
0.0
 30
0.0
 40
0.5
  0
LINE
  5
145
  8
0
  6
CONTINUOUS
 62
     7
 10
0.0
 20
0.0
 30
0.0
 11
-1.0
 21
0.0
 31
0.0
  0
ENDBLK
  5
146
  8
0
  0
ENDSEC
  0
SECTION
  2
ENTITIES
  0
LINE
  5
147
  8
BASIS
  6
DASHDOT
 62
     6
 39
50.0
 10
0.0
 20
-155.3282929999998
 30
0.0
 11
0.0
 21
76.502187000000006
 31
0.0
  0
CIRCLE
  5
148
  8
ARRANGE
  6
CONTINUOUS
 62
     1
 39
50.0
 10
0.0
 20
0.0
 30
0.0
 40
40.0
  0
POINT
  5
149
  8
ARRANGE
  6
CONTINUOUS
 62
     1
 10
0.0
 20
0.0
 30
0.0
 39
50.0
  0
LINE
  5
14A
  8
DETAIL
  6
CONTINUOUS
 62
     5
 10
-105.0
 20
-10.0
 30
0.0
 11
-105.0
 21
0.0
 31
0.0
  0
LINE
  5
14B
  8
DETAIL
  6
CONTINUOUS
 62
     5
 10
105.0
 20
0.0
 30
0.0
 11
-105.0
 21
0.0
 31
0.0
  0
LINE
  5
14C
  8
DETAIL
  6
CONTINUOUS
 62
     5
 10
105.0
 20
0.0
 30
0.0
 11
105.0
 21
-10.6
 31
0.0
  0
LINE
  5
14D
  8
DETAIL
  6
CONTINUOUS
 62
     5
 10
102.119861
 20
-0.8
 30
0.0
 11
105.0
 21
-0.8
 31
0.0
  0
LINE
  5
14E
  8
DETAIL
  6
CONTINUOUS
 62
     5
 10
-105.0
 20
-0.8
 30
0.0
 11
-101.8801389999999
 21
-0.8
 31
0.0
  0
LINE
  5
14F
  8
DETAIL
  6
CONTINUOUS
 62
     5
 10
-105.975233
 20
-33.299999999999997
 30
0.0
 11
-101.380139
 21
-33.299999999999997
 31
0.0
  0
ARC
  5
150
  8
DETAIL
  6
CONTINUOUS
 62
     5
 10
-101.380139
 20
-32.79999999999999
 30
0.0
 40
0.5
 50
270.0
 51
90.0
  0
LINE
  5
151
  8
DETAIL
  6
CONTINUOUS
 62
     5
 10
-101.8801389999999
 20
-32.29999999999999
 30
0.0
 11
-101.380139
 21
-32.29999999999999
 31
0.0
  0
LINE
  5
152
  8
DETAIL
  6
CONTINUOUS
 62
     5
 10
-101.8801389999999
 20
-14.633042
 30
0.0
 11
-101.8801389999999
 21
-32.29999999999999
 31
0.0
  0
ARC
  5
153
  8
DETAIL
  6
CONTINUOUS
 62
     5
 10
101.619861
 20
-32.79999999999999
 30
0.0
 40
0.5
 50
90.0
 51
270.0
  0
LINE
  5
154
  8
DETAIL
  6
CONTINUOUS
 62
     5
 10
102.119861
 20
-32.29999999999999
 30
0.0
 11
101.619861
 21
-32.29999999999999
 31
0.0
  0
LINE
  5
155
  8
DETAIL
  6
CONTINUOUS
 62
     5
 10
105.975233
 20
-33.299999999999997
 30
0.0
 11
101.619861
 21
-33.299999999999997
 31
0.0
  0
LINE
  5
156
  8
DETAIL
  6
CONTINUOUS
 62
     5
 10
-101.8801389999999
 20
-0.8
 30
0.0
 11
102.119861
 21
-0.8
 31
0.0
  0
LINE
  5
157
  8
DETAIL
  6
CONTINUOUS
 62
     5
 10
102.119861
 20
-14.528376
 30
0.0
 11
102.119861
 21
-32.29999999999999
 31
0.0
  0
LINE
  5
158
  8
SIZE
  6
CONTINUOUS
 62
    30
 10
105.0
 20
20.0
 30
0.0
 11
105.0
 21
388.84615499999978
 31
0.0
  0
LINE
  5
159
  8
SIZE
  6
CONTINUOUS
 62
    30
 10
-105.0
 20
20.0
 30
0.0
 11
-105.0
 21
388.84615499999978
 31
0.0
  0
LINE
  5
15A
  8
SIZE
  6
CONTINUOUS
 62
    30
 10
93.0
 20
368.84615499999978
 30
0.0
 11
-93.0
 21
368.84615499999978
 31
0.0
  0
CIRCLE
  5
15B
  8
SIZE
  6
CONTINUOUS
 62
    30
 10
105.0
 20
368.84615499999978
 30
0.0
 40
6.0
  0
LINE
  5
15C
  8
SIZE
  6
CONTINUOUS
 62
    30
 10
105.0
 20
368.84615499999978
 30
0.0
 11
93.0
 21
368.84615499999978
 31
0.0
  0
CIRCLE
  5
15D
  8
SIZE
  6
CONTINUOUS
 62
    30
 10
-105.0
 20
368.84615499999978
 30
0.0
 40
6.0
  0
LINE
  5
15E
  8
SIZE
  6
CONTINUOUS
 62
    30
 10
-105.0
 20
368.84615499999978
 30
0.0
 11
-93.0
 21
368.84615499999978
 31
0.0
  0
TEXT
  5
15F
  8
SIZE
  6
CONTINUOUS
 62
    30
 10
-68.571428571428555
 20
393.84615499999978
 30
0.0
 40
64.0
  1
210
 41
0.9
 72
     1
 11
0.0
 21
393.84615499999978
 31
0.0
  0
CIRCLE
  5
160
  8
FIX
  6
CONTINUOUS
 62
    11
 39
50.0
 10
-85.0
 20
0.0
 30
0.0
 40
5.5
  0
CIRCLE
  5
161
  8
FIX
  6
CONTINUOUS
 62
    11
 39
50.0
 10
-70.0
 20
0.0
 30
0.0
 40
2.5
  0
LINE
  5
162
  8
NOTE
  6
CONTINUOUS
 62
     4
 10
-70.0
 20
-20.0
 30
0.0
 11
-70.0
 21
20.0
 31
0.0
  0
LINE
  5
163
  8
NOTE
  6
CONTINUOUS
 62
     4
 10
-90.0
 20
0.0
 30
0.0
 11
-50.0
 21
0.0
 31
0.0
  0
LINE
  5
164
  8
NOTE
  6
CONTINUOUS
 62
     4
 10
-85.0
 20
-20.0
 30
0.0
 11
-85.0
 21
20.0
 31
0.0
  0
LINE
  5
165
  8
NOTE
  6
CONTINUOUS
 62
     4
 10
-105.0
 20
0.0
 30
0.0
 11
-65.0
 21
0.0
 31
0.0
  0
LINE
  5
166
  8
NOTE
  6
CONTINUOUS
 62
     4
 10
85.0
 20
-20.0
 30
0.0
 11
85.0
 21
20.0
 31
0.0
  0
LINE
  5
167
  8
NOTE
  6
CONTINUOUS
 62
     4
 10
105.0
 20
0.0
 30
0.0
 11
65.0
 21
0.0
 31
0.0
  0
LINE
  5
168
  8
NOTE
  6
CONTINUOUS
 62
     4
 10
70.0
 20
-20.0
 30
0.0
 11
70.0
 21
20.0
 31
0.0
  0
LINE
  5
169
  8
NOTE
  6
CONTINUOUS
 62
     4
 10
90.0
 20
0.0
 30
0.0
 11
50.0
 21
0.0
 31
0.0
  0
CIRCLE
  5
16A
  8
FIX
  6
CONTINUOUS
 62
    11
 39
50.0
 10
70.0
 20
0.0
 30
0.0
 40
2.5
  0
CIRCLE
  5
16B
  8
FIX
  6
CONTINUOUS
 62
    11
 39
50.0
 10
85.0
 20
0.0
 30
0.0
 40
5.5
  0
ARC
  5
16C
  8
DETAIL
  6
CONTINUOUS
 62
     5
 10
0.0
 20
-6.7494550000000002
 30
0.0
 40
109.2505449999999
 50
194.06511
 51
345.93489
  0
LINE
  5
16D
  8
SIZE
  6
CONTINUOUS
 62
    30
 10
125.0
 20
0.0
 30
0.0
 11
293.993313
 21
0.0
 31
0.0
  0
LINE
  5
16E
  8
SIZE
  6
CONTINUOUS
 62
    30
 10
20.0
 20
-116.0
 30
0.0
 11
293.993313
 21
-116.0
 31
0.0
  0
LINE
  5
16F
  8
SIZE
  6
CONTINUOUS
 62
    30
 10
273.993313
 20
-12.0
 30
0.0
 11
273.993313
 21
-104.0
 31
0.0
  0
LINE
  5
170
  8
SIZE
  6
CONTINUOUS
 62
    30
 10
273.993313
 20
-313.13564100000002
 30
0.0
 11
273.993313
 21
-116.0
 31
0.0
  0
TEXT
  5
171
  8
SIZE
  6
CONTINUOUS
 62
    30
 10
248.993313
 20
-288.13564171428561
 30
0.0
 40
64.0
  1
116
 50
90.0
 41
0.9
 72
     1
 11
248.993313
 21
-226.42135599999989
 31
0.0
  0
CIRCLE
  5
172
  8
SIZE
  6
CONTINUOUS
 62
    30
 10
273.993313
 20
0.0
 30
0.0
 40
6.0
  0
LINE
  5
173
  8
SIZE
  6
CONTINUOUS
 62
    30
 10
273.993313
 20
0.0
 30
0.0
 11
273.993313
 21
-12.0
 31
0.0
  0
CIRCLE
  5
174
  8
SIZE
  6
CONTINUOUS
 62
    30
 10
273.993313
 20
-116.0
 30
0.0
 40
6.0
  0
LINE
  5
175
  8
SIZE
  6
CONTINUOUS
 62
    30
 10
273.993313
 20
-116.0
 30
0.0
 11
273.993313
 21
-104.0
 31
0.0
  0
ARC
  5
176
  8
DETAIL
  6
CONTINUOUS
 62
     5
 10
-100.0
 20
-10.0
 30
0.0
 40
5.0
 50
180.0
 51
270.0
  0
ARC
  5
177
  8
DETAIL
  6
CONTINUOUS
 62
     5
 10
100.0
 20
-10.0
 30
0.0
 40
5.0
 50
270.0
 51
0.0
  0
LINE
  5
178
  8
SIZE
  6
CONTINUOUS
 62
    30
 10
85.0
 20
40.0
 30
0.0
 11
85.0
 21
268.865882
 31
0.0
  0
LINE
  5
179
  8
SIZE
  6
CONTINUOUS
 62
    30
 10
-85.0
 20
40.0
 30
0.0
 11
-85.0
 21
268.865882
 31
0.0
  0
LINE
  5
17A
  8
SIZE
  6
CONTINUOUS
 62
    30
 10
97.0
 20
248.86588199999991
 30
0.0
 11
109.0
 21
248.86588199999991
 31
0.0
  0
LINE
  5
17B
  8
SIZE
  6
CONTINUOUS
 62
    30
 10
-97.0
 20
248.86588199999991
 30
0.0
 11
-109.0
 21
248.86588199999991
 31
0.0
  0
LINE
  5
17C
  8
SIZE
  6
CONTINUOUS
 62
    30
 10
85.0
 20
248.86588199999991
 30
0.0
 11
-85.0
 21
248.86588199999991
 31
0.0
  0
CIRCLE
  5
17D
  8
SIZE
  6
CONTINUOUS
 62
    30
 10
85.0
 20
248.86588199999991
 30
0.0
 40
6.0
  0
LINE
  5
17E
  8
SIZE
  6
CONTINUOUS
 62
    30
 10
85.0
 20
248.86588199999991
 30
0.0
 11
97.0
 21
248.86588199999991
 31
0.0
  0
CIRCLE
  5
17F
  8
SIZE
  6
CONTINUOUS
 62
    30
 10
-85.0
 20
248.86588199999991
 30
0.0
 40
6.0
  0
LINE
  5
180
  8
SIZE
  6
CONTINUOUS
 62
    30
 10
-85.0
 20
248.86588199999991
 30
0.0
 11
-97.0
 21
248.86588199999991
 31
0.0
  0
TEXT
  5
181
  8
SIZE
  6
CONTINUOUS
 62
    30
 10
-68.571428571428569
 20
273.86588199999989
 30
0.0
 40
64.0
  1
170
 41
0.9
 72
     1
 11
0.0
 21
273.86588199999989
 31
0.0
  0
LINE
  5
182
  8
SIZE
  6
CONTINUOUS
 62
    30
 10
70.0
 20
40.0
 30
0.0
 11
70.0
 21
148.7475389999999
 31
0.0
  0
LINE
  5
183
  8
SIZE
  6
CONTINUOUS
 62
    30
 10
-70.0
 20
40.0
 30
0.0
 11
-70.0
 21
148.7475389999999
 31
0.0
  0
LINE
  5
184
  8
SIZE
  6
CONTINUOUS
 62
    30
 10
82.0
 20
128.7475389999999
 30
0.0
 11
94.0
 21
128.7475389999999
 31
0.0
  0
LINE
  5
185
  8
SIZE
  6
CONTINUOUS
 62
    30
 10
-82.0
 20
128.7475389999999
 30
0.0
 11
-94.0
 21
128.7475389999999
 31
0.0
  0
LINE
  5
186
  8
SIZE
  6
CONTINUOUS
 62
    30
 10
70.0
 20
128.7475389999999
 30
0.0
 11
-70.0
 21
128.7475389999999
 31
0.0
  0
CIRCLE
  5
187
  8
SIZE
  6
CONTINUOUS
 62
    30
 10
70.0
 20
128.7475389999999
 30
0.0
 40
6.0
  0
LINE
  5
188
  8
SIZE
  6
CONTINUOUS
 62
    30
 10
70.0
 20
128.7475389999999
 30
0.0
 11
82.0
 21
128.7475389999999
 31
0.0
  0
CIRCLE
  5
189
  8
SIZE
  6
CONTINUOUS
 62
    30
 10
-70.0
 20
128.7475389999999
 30
0.0
 40
6.0
  0
LINE
  5
18A
  8
SIZE
  6
CONTINUOUS
 62
    30
 10
-70.0
 20
128.7475389999999
 30
0.0
 11
-82.0
 21
128.7475389999999
 31
0.0
  0
TEXT
  5
18B
  8
SIZE
  6
CONTINUOUS
 62
    30
 10
-68.571428571428569
 20
153.7475389999999
 30
0.0
 40
64.0
  1
140
 41
0.9
 72
     1
 11
0.0
 21
153.7475389999999
 31
0.0
  0
LINE
  5
18C
  8
NOTE
  6
CONTINUOUS
 62
     4
 39
50.0
 10
-85.0
 20
0.0
 30
0.0
 11
-155.28111799999991
 21
152.89346
 31
0.0
  0
LINE
  5
18D
  8
NOTE
  6
CONTINUOUS
 62
     4
 10
-634.96016399999985
 20
152.89346
 30
0.0
 11
-155.28111799999991
 21
152.89346
 31
0.0
  0
LINE
  5
18E
  8
NOTE
  6
CONTINUOUS
 62
     4
 10
-111.014473
 20
30.384982999999998
 30
0.0
 11
-85.0
 21
0.0
 31
0.0
  0
LINE
  5
18F
  8
NOTE
  6
CONTINUOUS
 62
     4
 10
-85.0
 20
0.0
 30
0.0
 11
-92.336702000000002
 21
39.321404000000001
 31
0.0
  0
TEXT
  5
190
  8
NOTE
  6
CONTINUOUS
 62
     4
 10
-617.88599899999986
 20
188.2481029999999
 30
0.0
 40
64.0
  1
4-φ11×22
 41
0.9
  0
LINE
  5
191
  8
NOTE
  6
CONTINUOUS
 62
     4
 39
50.0
 10
146.1637299999999
 20
187.6801249999998
 30
0.0
 11
70.0
 21
0.0
 31
0.0
  0
LINE
  5
192
  8
NOTE
  6
CONTINUOUS
 62
     4
 10
146.1637299999999
 20
187.6801249999998
 30
0.0
 11
413.81724699999972
 21
187.6801249999998
 31
0.0
  0
TEXT
  5
193
  8
NOTE
  6
CONTINUOUS
 62
     4
 10
165.0230419999998
 20
223.03476800000001
 30
0.0
 40
64.0
  1
4-φ5
 41
0.9
  0
LINE
  5
194
  8
NOTE
  6
CONTINUOUS
 62
     4
 10
74.818681999999981
 20
39.708692999999997
 30
0.0
 11
70.0
 21
0.0
 31
0.0
  0
LINE
  5
195
  8
NOTE
  6
CONTINUOUS
 62
     4
 10
70.0
 20
0.0
 30
0.0
 11
94.027447999999964
 21
31.979396000000001
 31
0.0
  0
LINE
  5
196
  8
DETAIL
  6
CONTINUOUS
 62
     5
 10
100.0
 20
-15.0
 30
0.0
 11
-100.0
 21
-15.0
 31
0.0
  0
LINE
  5
197
  8
OUTLINE
  6
CONTINUOUS
 62
     3
 10
100.0
 20
-15.0
 30
0.0
 11
-100.0
 21
-15.0
 31
0.0
  0
ARC
  5
198
  8
OUTLINE
  6
CONTINUOUS
 62
     3
 10
0.0
 20
-6.7494550000000002
 30
0.0
 40
109.2505449999999
 50
194.06511
 51
345.93489
  0
LINE
  5
199
  8
OUTLINE
  6
CONTINUOUS
 62
     3
 10
105.0
 20
0.0
 30
0.0
 11
-105.0
 21
0.0
 31
0.0
  0
LINE
  5
19A
  8
OUTLINE
  6
CONTINUOUS
 62
     3
 10
-101.8801389999999
 20
-14.633042
 30
0.0
 11
-101.8801389999999
 21
-32.29999999999999
 31
0.0
  0
ARC
  5
19B
  8
OUTLINE
  6
CONTINUOUS
 62
     3
 10
-100.0
 20
-10.0
 30
0.0
 40
5.0
 50
180.0
 51
270.0
  0
LINE
  5
19C
  8
OUTLINE
  6
CONTINUOUS
 62
     3
 10
-101.8801389999999
 20
-32.29999999999999
 30
0.0
 11
-101.380139
 21
-32.29999999999999
 31
0.0
  0
ARC
  5
19D
  8
OUTLINE
  6
CONTINUOUS
 62
     3
 10
-101.380139
 20
-32.79999999999999
 30
0.0
 40
0.5
 50
270.0
 51
90.0
  0
LINE
  5
19E
  8
OUTLINE
  6
CONTINUOUS
 62
     3
 10
-105.975233
 20
-33.299999999999997
 30
0.0
 11
-101.380139
 21
-33.299999999999997
 31
0.0
  0
LINE
  5
19F
  8
OUTLINE
  6
CONTINUOUS
 62
     3
 10
-105.0
 20
-10.0
 30
0.0
 11
-105.0
 21
0.0
 31
0.0
  0
LINE
  5
1A0
  8
OUTLINE
  6
CONTINUOUS
 62
     3
 10
102.119861
 20
-14.528376
 30
0.0
 11
102.119861
 21
-32.29999999999999
 31
0.0
  0
ARC
  5
1A1
  8
OUTLINE
  6
CONTINUOUS
 62
     3
 10
100.0
 20
-10.0
 30
0.0
 40
5.0
 50
270.0
 51
0.0
  0
LINE
  5
1A2
  8
OUTLINE
  6
CONTINUOUS
 62
     3
 10
105.975233
 20
-33.299999999999997
 30
0.0
 11
101.619861
 21
-33.299999999999997
 31
0.0
  0
LINE
  5
1A3
  8
OUTLINE
  6
CONTINUOUS
 62
     3
 10
102.119861
 20
-32.29999999999999
 30
0.0
 11
101.619861
 21
-32.29999999999999
 31
0.0
  0
ARC
  5
1A4
  8
OUTLINE
  6
CONTINUOUS
 62
     3
 10
101.619861
 20
-32.79999999999999
 30
0.0
 40
0.5
 50
90.0
 51
270.0
  0
LINE
  5
1A5
  8
OUTLINE
  6
CONTINUOUS
 62
     3
 10
105.0
 20
0.0
 30
0.0
 11
105.0
 21
-10.0
 31
0.0
  0
LINE
  5
1A6
  8
SIZE
  6
CONTINUOUS
 62
    30
 10
-125.0
 20
0.0
 30
0.0
 11
-225.11712299999999
 21
0.0
 31
0.0
  0
LINE
  5
1A7
  8
SIZE
  6
CONTINUOUS
 62
    30
 10
-120.0
 20
-15.0
 30
0.0
 11
-225.11712299999999
 21
-15.0
 31
0.0
  0
LINE
  5
1A8
  8
SIZE
  6
CONTINUOUS
 62
    30
 10
-205.11712299999999
 20
12.0
 30
0.0
 11
-205.11712299999999
 21
24.0
 31
0.0
  0
LINE
  5
1A9
  8
SIZE
  6
CONTINUOUS
 62
    30
 10
-205.11712299999999
 20
-27.0
 30
0.0
 11
-205.11712299999999
 21
-39.0
 31
0.0
  0
LINE
  5
1AA
  8
SIZE
  6
CONTINUOUS
 62
    30
 10
-205.11712299999999
 20
-178.0901069999999
 30
0.0
 11
-205.11712299999999
 21
-15.0
 31
0.0
  0
TEXT
  5
1AB
  8
SIZE
  6
CONTINUOUS
 62
    30
 10
-230.11712299999999
 20
-153.090106142857
 30
0.0
 40
64.0
  1
15
 50
90.0
 41
0.9
 72
     1
 11
-230.11712299999999
 21
-111.9472489999999
 31
0.0
  0
LINE
  5
1AC
  8
SIZE
  6
CONTINUOUS
 62
    30
 10
-205.11712299999999
 20
0.0
 30
0.0
 11
-205.11712299999999
 21
-15.0
 31
0.0
  0
LINE
  5
1AD
  8
SIZE
  6
CONTINUOUS
 62
    30
 10
-205.11712299999999
 20
0.0
 30
0.0
 11
-205.11712299999999
 21
-15.0
 31
0.0
  0
CIRCLE
  5
1AE
  8
SIZE
  6
CONTINUOUS
 62
    30
 10
-205.11712299999999
 20
0.0
 30
0.0
 40
6.0
  0
LINE
  5
1AF
  8
SIZE
  6
CONTINUOUS
 62
    30
 10
-205.11712299999999
 20
0.0
 30
0.0
 11
-205.11712299999999
 21
12.0
 31
0.0
  0
CIRCLE
  5
1B0
  8
SIZE
  6
CONTINUOUS
 62
    30
 10
-205.11712299999999
 20
-15.0
 30
0.0
 40
6.0
  0
LINE
  5
1B1
  8
SIZE
  6
CONTINUOUS
 62
    30
 10
-205.11712299999999
 20
-15.0
 30
0.0
 11
-205.11712299999999
 21
-27.0
 31
0.0
  0
TEXT
  5
1B2
  8
ETC
  6
CONTINUOUS
 62
    61
 10
409.73697547946801
 20
485.45328066538673
 30
0.0
 40
40.0
  1
P-50VSSQ5_6
 41
0.9
  0
TEXT
  5
1B3
  8
ETC
  6
CONTINUOUS
 62
    61
 10
401.82126847946802
 20
416.03843566538683
 30
0.0
 40
40.0
  1
システム部材
 41
0.9
  0
TEXT
  5
1B4
  8
ETC
  6
CONTINUOUS
 62
    61
 10
518.96499669592049
 20
357.43592828157239
 30
0.0
 40
40.0
  1
P-50VSSQ5
 41
0.9
  0
ENDSEC
  0
EOF
