  0
SECTION
  2
HEADER
  9
$ACADVER
  1
AC1009
  9
$DWGCODEPAGE
  3
dos932
  9
$INSBASE
 10
0.0
 20
0.0
 30
0.0
  9
$EXTMIN
 10
-1118.364211
 20
-324.720457
 30
0.0
  9
$EXTMAX
 10
593.776403911403
 20
637.0266436133203
 30
50.0
  9
$LIMMIN
 10
-2970.0
 20
-2100.0
  9
$LIMMAX
 10
2970.0
 20
2100.0
  9
$ORTHOMODE
 70
     1
  9
$REGENMODE
 70
     1
  9
$FILLMODE
 70
     1
  9
$QTEXTMODE
 70
     0
  9
$MIRRTEXT
 70
     0
  9
$DRAGMODE
 70
     2
  9
$LTSCALE
 40
20.0
  9
$OSMODE
 70
    37
  9
$ATTMODE
 70
     1
  9
$TEXTSIZE
 40
64.0
  9
$TRACEWID
 40
0.05
  9
$TEXTSTYLE
  7
STANDARD
  9
$CLAYER
  8
ETC
  9
$CELTYPE
  6
CONTINUOUS
  9
$CECOLOR
 62
     7
  9
$DIMSCALE
 40
1.0
  9
$DIMASZ
 40
12.0
  9
$DIMEXO
 40
20.0
  9
$DIMDLI
 40
200.0
  9
$DIMRND
 40
0.0
  9
$DIMDLE
 40
0.0
  9
$DIMEXE
 40
20.0
  9
$DIMTP
 40
0.0
  9
$DIMTM
 40
0.0
  9
$DIMTXT
 40
64.0
  9
$DIMCEN
 40
0.09
  9
$DIMTSZ
 40
0.0
  9
$DIMTOL
 70
     0
  9
$DIMLIM
 70
     0
  9
$DIMTIH
 70
     0
  9
$DIMTOH
 70
     0
  9
$DIMSE1
 70
     0
  9
$DIMSE2
 70
     0
  9
$DIMTAD
 70
     1
  9
$DIMZIN
 70
     8
  9
$DIMBLK
  1

  9
$DIMASO
 70
     1
  9
$DIMSHO
 70
     0
  9
$DIMPOST
  1

  9
$DIMAPOST
  1

  9
$DIMALT
 70
     0
  9
$DIMALTD
 70
     2
  9
$DIMALTF
 40
25.4
  9
$DIMLFAC
 40
1.0
  9
$DIMTOFL
 70
     1
  9
$DIMTVP
 40
0.0
  9
$DIMTIX
 70
     1
  9
$DIMSOXD
 70
     0
  9
$DIMSAH
 70
     0
  9
$DIMBLK1
  1

  9
$DIMBLK2
  1

  9
$DIMSTYLE
  2
STANDARD
  9
$DIMCLRD
 70
     7
  9
$DIMCLRE
 70
     7
  9
$DIMCLRT
 70
     7
  9
$DIMTFAC
 40
1.0
  9
$DIMGAP
 40
25.0
  9
$LUNITS
 70
     2
  9
$LUPREC
 70
     4
  9
$SKETCHINC
 40
0.1
  9
$FILLETRAD
 40
10.0
  9
$AUNITS
 70
     1
  9
$AUPREC
 70
     3
  9
$MENU
  1
ACAD
  9
$ELEVATION
 40
0.0
  9
$PELEVATION
 40
0.0
  9
$THICKNESS
 40
50.0
  9
$LIMCHECK
 70
     0
  9
$CHAMFERA
 40
0.0
  9
$CHAMFERB
 40
0.0
  9
$SKPOLY
 70
     0
  9
$TDCREATE
 40
2453019.623010359
  9
$TDUPDATE
 40
2457485.573521065
  9
$TDINDWG
 40
0.6693532176
  9
$TDUSRTIMER
 40
0.669353044
  9
$USRTIMER
 70
     1
  9
$ANGBASE
 50
0.0
  9
$ANGDIR
 70
     0
  9
$PDMODE
 70
     3
  9
$PDSIZE
 40
-2.0
  9
$PLINEWID
 40
0.0
  9
$COORDS
 70
     1
  9
$SPLFRAME
 70
     0
  9
$SPLINETYPE
 70
     6
  9
$SPLINESEGS
 70
     8
  9
$ATTDIA
 70
     0
  9
$ATTREQ
 70
     1
  9
$HANDLING
 70
     1
  9
$HANDSEED
  5
1FA
  9
$SURFTAB1
 70
     6
  9
$SURFTAB2
 70
     6
  9
$SURFTYPE
 70
     6
  9
$SURFU
 70
     6
  9
$SURFV
 70
     6
  9
$UCSNAME
  2

  9
$UCSORG
 10
0.0
 20
0.0
 30
0.0
  9
$UCSXDIR
 10
1.0
 20
0.0
 30
0.0
  9
$UCSYDIR
 10
0.0
 20
1.0
 30
0.0
  9
$PUCSNAME
  2

  9
$PUCSORG
 10
0.0
 20
0.0
 30
0.0
  9
$PUCSXDIR
 10
1.0
 20
0.0
 30
0.0
  9
$PUCSYDIR
 10
0.0
 20
1.0
 30
0.0
  9
$USERI1
 70
     0
  9
$USERI2
 70
     0
  9
$USERI3
 70
     0
  9
$USERI4
 70
     0
  9
$USERI5
 70
     0
  9
$USERR1
 40
20.0
  9
$USERR2
 40
0.0
  9
$USERR3
 40
0.0
  9
$USERR4
 40
0.0
  9
$USERR5
 40
0.0
  9
$WORLDVIEW
 70
     1
  9
$SHADEDGE
 70
     3
  9
$SHADEDIF
 70
    70
  9
$TILEMODE
 70
     1
  9
$MAXACTVP
 70
    48
  9
$PLIMCHECK
 70
     0
  9
$PEXTMIN
 10
-1.000000000000000E+20
 20
-1.000000000000000E+20
 30
-1.000000000000000E+20
  9
$PEXTMAX
 10
1.000000000000000E+20
 20
1.000000000000000E+20
 30
1.000000000000000E+20
  9
$PLIMMIN
 10
0.0
 20
0.0
  9
$PLIMMAX
 10
12.0
 20
9.0
  9
$UNITMODE
 70
     0
  9
$VISRETAIN
 70
     0
  9
$PLINEGEN
 70
     0
  9
$PSLTSCALE
 70
     0
  0
ENDSEC
  0
SECTION
  2
TABLES
  0
TABLE
  2
VPORT
 70
     1
  0
VPORT
  2
*ACTIVE
 70
     0
 10
0.0
 20
0.0
 11
1.0
 21
1.0
 12
-268.2320180254997
 22
136.216814080793
 13
0.0
 23
0.0
 14
1.0
 24
1.0
 15
0.0
 25
0.0
 16
0.0
 26
0.0
 36
1.0
 17
0.0
 27
0.0
 37
0.0
 40
1168.984570569191
 41
1.573435504469987
 42
50.0
 43
0.0
 44
0.0
 50
0.0
 51
0.0
 71
     0
 72
  1000
 73
     1
 74
     0
 75
     0
 76
     0
 77
     0
 78
     0
  0
ENDTAB
  0
TABLE
  2
LTYPE
 70
     2
  0
LTYPE
  2
CONTINUOUS
 70
     0
  3
実線
 72
    65
 73
     0
 40
0.0
  0
LTYPE
  2
DASHDOT
 70
     0
  3
____ _ ____ _ ____ _ ____ _ ____ _ ____ _ ____
 72
    65
 73
     4
 40
5.5
 49
4.0
 49
-0.6
 49
0.3
 49
-0.6
  0
ENDTAB
  0
TABLE
  2
LAYER
 70
    12
  0
LAYER
  2
0
 70
     0
 62
     7
  6
CONTINUOUS
  0
LAYER
  2
ETC
 70
     0
 62
    61
  6
CONTINUOUS
  0
LAYER
  2
DETAIL
 70
     0
 62
     5
  6
CONTINUOUS
  0
LAYER
  2
SIZE
 70
     0
 62
    30
  6
CONTINUOUS
  0
LAYER
  2
DEFPOINTS
 70
     0
 62
     7
  6
CONTINUOUS
  0
LAYER
  2
NOTE
 70
     0
 62
     4
  6
CONTINUOUS
  0
LAYER
  2
OUTLINE
 70
     0
 62
     3
  6
CONTINUOUS
  0
LAYER
  2
BASIS
 70
     0
 62
     6
  6
DASHDOT
  0
LAYER
  2
ARRANGE
 70
     0
 62
     1
  6
CONTINUOUS
  0
LAYER
  2
FIX
 70
     0
 62
    11
  6
CONTINUOUS
  0
LAYER
  2
SERVICESPACE
 70
     0
 62
     2
  6
DASHDOT
  0
LAYER
  2
SYMBOLLINE
 70
     0
 62
    15
  6
CONTINUOUS
  0
ENDTAB
  0
TABLE
  2
STYLE
 70
     1
  0
STYLE
  2
STANDARD
 70
     0
 40
64.0
 41
0.9
 50
0.0
 71
     0
 42
64.0
  3
SIMPLEX.shx
  4
BIGFONT.shx
  0
ENDTAB
  0
TABLE
  2
VIEW
 70
     1
  0
VIEW
  2
ALL
 70
     0
 40
4282.619807999999
 10
0.0
 20
41.309904
 41
5940.0
 11
0.0
 21
0.0
 31
1.0
 12
0.0
 22
0.0
 32
0.0
 42
50.0
 43
0.0
 44
0.0
 50
0.0
 71
     0
  0
ENDTAB
  0
TABLE
  2
UCS
 70
     0
  0
ENDTAB
  0
TABLE
  2
APPID
 70
     8
  0
APPID
  2
ACAD
 70
     0
  0
APPID
  2
AUTOCAD_POSTSCRIPT_FIGURE
 70
     0
  0
APPID
  2
ACAD_EXEMPT_FROM_CAD_STAND
 70
     0
  0
APPID
  2
ACAD_PSEXT
 70
     0
  0
APPID
  2
ACAUTHENVIRON
 70
     0
  0
APPID
  2
ACAECLAYERSTANDARD
 70
     0
  0
APPID
  2
CONTENTBLOCKDESCRIPTION
 70
     0
  0
APPID
  2
CONTENTBLOCKICON
 70
     0
  0
ENDTAB
  0
TABLE
  2
DIMSTYLE
 70
     1
  0
DIMSTYLE
  2
STANDARD
 70
     0
  3

  4

  5

  6

  7

 40
1.0
 41
0.18
 42
0.0625
 43
0.38
 44
0.18
 45
0.0
 46
0.0
 47
0.0
 48
0.0
140
0.18
141
0.09
142
0.0
143
25.4
144
1.0
145
0.0
146
1.0
147
0.09
 71
     0
 72
     0
 73
     1
 74
     1
 75
     0
 76
     0
 77
     0
 78
     0
170
     0
171
     2
172
     0
173
     0
174
     0
175
     0
176
     7
177
     7
178
     7
  0
ENDTAB
  0
ENDSEC
  0
SECTION
  2
BLOCKS
  0
BLOCK
  8
0
  2
$MODEL_SPACE
 70
     0
 10
0.0
 20
0.0
 30
0.0
  3
$MODEL_SPACE
  1

  0
ENDBLK
  5
1D2
  8
0
  0
BLOCK
 67
     1
  8
0
  2
$PAPER_SPACE
 70
     0
 10
0.0
 20
0.0
 30
0.0
  3
$PAPER_SPACE
  1

  0
ENDBLK
  5
1D4
 67
     1
  8
0
  0
BLOCK
  8
0
  2
_ORIGIN
 70
     0
 10
0.0
 20
0.0
 30
0.0
  3
_ORIGIN
  1

  0
CIRCLE
  5
130
  8
0
  6
CONTINUOUS
 62
     7
 10
0.0
 20
0.0
 30
0.0
 40
0.5
  0
LINE
  5
131
  8
0
  6
CONTINUOUS
 62
     7
 10
0.0
 20
0.0
 30
0.0
 11
-1.0
 21
0.0
 31
0.0
  0
ENDBLK
  5
132
  8
0
  0
ENDSEC
  0
SECTION
  2
ENTITIES
  0
POINT
  5
133
  8
ARRANGE
  6
CONTINUOUS
 62
     1
 39
50.0
 10
0.0
 20
0.0
 30
0.0
  0
CIRCLE
  5
134
  8
ARRANGE
  6
CONTINUOUS
 62
     1
 39
50.0
 10
0.0
 20
0.0
 30
0.0
 40
40.0
  0
LINE
  5
135
  8
DETAIL
  6
CONTINUOUS
 62
     5
 10
35.0
 20
57.0
 30
0.0
 11
35.0
 21
-57.0
 31
0.0
  0
LINE
  5
136
  8
DETAIL
  6
CONTINUOUS
 62
     5
 10
-35.0
 20
57.0
 30
0.0
 11
-35.0
 21
-57.0
 31
0.0
  0
LINE
  5
137
  8
DETAIL
  6
CONTINUOUS
 62
     5
 10
-32.0
 20
-60.0
 30
0.0
 11
32.0
 21
-60.0
 31
0.0
  0
ARC
  5
138
  8
DETAIL
  6
CONTINUOUS
 62
     5
 10
-32.0
 20
-57.0
 30
0.0
 40
3.0
 50
180.0
 51
270.0
  0
ARC
  5
139
  8
DETAIL
  6
CONTINUOUS
 62
     5
 10
32.0
 20
-57.0
 30
0.0
 40
3.0
 50
270.0
 51
0.0
  0
LINE
  5
13A
  8
DETAIL
  6
CONTINUOUS
 62
     5
 10
-32.0
 20
60.0
 30
0.0
 11
32.0
 21
60.0
 31
0.0
  0
ARC
  5
13B
  8
DETAIL
  6
CONTINUOUS
 62
     5
 10
-32.0
 20
57.0
 30
0.0
 40
3.0
 50
90.0
 51
180.0
  0
ARC
  5
13C
  8
DETAIL
  6
CONTINUOUS
 62
     5
 10
32.0
 20
57.0
 30
0.0
 40
3.0
 50
0.0
 51
90.0
  0
CIRCLE
  5
13D
  8
DETAIL
  6
CONTINUOUS
 62
     5
 10
0.0
 20
-50.0
 30
0.0
 40
2.25
  0
LINE
  5
13E
  8
DETAIL
  6
CONTINUOUS
 62
     5
 10
33.166667
 20
57.0
 30
0.0
 11
33.166667
 21
-57.0
 31
0.0
  0
LINE
  5
13F
  8
DETAIL
  6
CONTINUOUS
 62
     5
 10
-33.166667
 20
57.0
 30
0.0
 11
-33.166667
 21
-57.0
 31
0.0
  0
LINE
  5
140
  8
DETAIL
  6
CONTINUOUS
 62
     5
 10
-32.0
 20
-58.166667
 30
0.0
 11
-3.666667
 21
-58.166667
 31
0.0
  0
ARC
  5
141
  8
DETAIL
  6
CONTINUOUS
 62
     5
 10
-32.0
 20
-57.0
 30
0.0
 40
1.166667
 50
180.0
 51
270.0
  0
LINE
  5
142
  8
DETAIL
  6
CONTINUOUS
 62
     5
 10
3.666667
 20
-58.166667
 30
0.0
 11
32.0
 21
-58.166667
 31
0.0
  0
LINE
  5
143
  8
DETAIL
  6
CONTINUOUS
 62
     5
 10
-4.0
 20
-58.166667
 30
0.0
 11
-4.0
 21
-54.691264
 31
0.0
  0
LINE
  5
144
  8
DETAIL
  6
CONTINUOUS
 62
     5
 10
4.0
 20
-58.166667
 30
0.0
 11
4.0
 21
-54.691264
 31
0.0
  0
LINE
  5
145
  8
DETAIL
  6
CONTINUOUS
 62
     5
 10
-3.666667
 20
-60.0
 30
0.0
 11
3.666667
 21
-60.0
 31
0.0
  0
LINE
  5
146
  8
DETAIL
  6
CONTINUOUS
 62
     5
 10
-3.666667
 20
-60.0
 30
0.0
 11
-3.666667
 21
-58.166667
 31
0.0
  0
LINE
  5
147
  8
DETAIL
  6
CONTINUOUS
 62
     5
 10
3.666667
 20
-60.0
 30
0.0
 11
3.666667
 21
-58.166667
 31
0.0
  0
LINE
  5
148
  8
DETAIL
  6
CONTINUOUS
 62
     5
 10
4.0
 20
-54.691264
 30
0.0
 11
-4.0
 21
-54.691264
 31
0.0
  0
ARC
  5
149
  8
DETAIL
  6
CONTINUOUS
 62
     5
 10
32.0
 20
-57.0
 30
0.0
 40
1.166667
 50
270.0
 51
0.0
  0
LINE
  5
14A
  8
DETAIL
  6
CONTINUOUS
 62
     5
 10
-24.0
 20
-33.35
 30
0.0
 11
-24.0
 21
33.35
 31
0.0
  0
LINE
  5
14B
  8
DETAIL
  6
CONTINUOUS
 62
     5
 10
24.0
 20
-33.35
 30
0.0
 11
24.0
 21
33.35
 31
0.0
  0
LINE
  5
14C
  8
BASIS
  6
DASHDOT
 62
     6
 10
50.744918
 20
0.0
 30
0.0
 11
-50.981774
 21
0.0
 31
0.0
  0
ARC
  5
14D
  8
FIX
  6
CONTINUOUS
 62
    11
 10
-3.25
 20
-41.75
 30
0.0
 40
2.25
 50
90.0
 51
270.0
  0
LINE
  5
14E
  8
DETAIL
  6
CONTINUOUS
 62
     5
 10
-22.3
 20
-35.05
 30
0.0
 11
22.3
 21
-35.05
 31
0.0
  0
ARC
  5
14F
  8
DETAIL
  6
CONTINUOUS
 62
     5
 10
-22.3
 20
-33.35
 30
0.0
 40
1.7
 50
180.0
 51
270.0
  0
ARC
  5
150
  8
DETAIL
  6
CONTINUOUS
 62
     5
 10
-10.0
 20
-35.2
 30
0.0
 40
3.5
 50
177.5437140000001
 51
2.456285999999933
  0
ARC
  5
151
  8
DETAIL
  6
CONTINUOUS
 62
     5
 10
22.3
 20
-33.35
 30
0.0
 40
1.7
 50
270.0
 51
0.0
  0
ARC
  5
152
  8
DETAIL
  6
CONTINUOUS
 62
     5
 10
10.0
 20
-35.2
 30
0.0
 40
3.5
 50
177.5437140000001
 51
2.456285999999933
  0
ARC
  5
153
  8
FIX
  6
CONTINUOUS
 62
    11
 10
3.25
 20
-41.75
 30
0.0
 40
2.25
 50
270.0
 51
90.0
  0
LINE
  5
154
  8
FIX
  6
CONTINUOUS
 62
    11
 10
-3.25
 20
-44.0
 30
0.0
 11
3.25
 21
-44.0
 31
0.0
  0
LINE
  5
155
  8
FIX
  6
CONTINUOUS
 62
    11
 10
-3.25
 20
-39.5
 30
0.0
 11
3.25
 21
-39.5
 31
0.0
  0
ARC
  5
156
  8
FIX
  6
CONTINUOUS
 62
    11
 10
-3.25
 20
41.75
 30
0.0
 40
2.25
 50
90.0
 51
270.0
  0
LINE
  5
157
  8
DETAIL
  6
CONTINUOUS
 62
     5
 10
-32.0
 20
58.166667
 30
0.0
 11
-3.666667
 21
58.166667
 31
0.0
  0
ARC
  5
158
  8
DETAIL
  6
CONTINUOUS
 62
     5
 10
-10.0
 20
35.2
 30
0.0
 40
3.5
 50
357.5437140000001
 51
182.4562859999999
  0
LINE
  5
159
  8
DETAIL
  6
CONTINUOUS
 62
     5
 10
-22.3
 20
35.05
 30
0.0
 11
22.3
 21
35.05
 31
0.0
  0
ARC
  5
15A
  8
DETAIL
  6
CONTINUOUS
 62
     5
 10
-22.3
 20
33.35
 30
0.0
 40
1.7
 50
90.0
 51
180.0
  0
ARC
  5
15B
  8
DETAIL
  6
CONTINUOUS
 62
     5
 10
-32.0
 20
57.0
 30
0.0
 40
1.166667
 50
90.0
 51
180.0
  0
ARC
  5
15C
  8
DETAIL
  6
CONTINUOUS
 62
     5
 10
22.3
 20
33.35
 30
0.0
 40
1.7
 50
0.0
 51
90.0
  0
ARC
  5
15D
  8
DETAIL
  6
CONTINUOUS
 62
     5
 10
10.0
 20
35.2
 30
0.0
 40
3.5
 50
357.5437140000001
 51
182.4562859999999
  0
LINE
  5
15E
  8
FIX
  6
CONTINUOUS
 62
    11
 10
-3.25
 20
39.5
 30
0.0
 11
3.25
 21
39.5
 31
0.0
  0
LINE
  5
15F
  8
FIX
  6
CONTINUOUS
 62
    11
 10
-3.25
 20
44.0
 30
0.0
 11
3.25
 21
44.0
 31
0.0
  0
ARC
  5
160
  8
FIX
  6
CONTINUOUS
 62
    11
 10
3.25
 20
41.75
 30
0.0
 40
2.25
 50
270.0
 51
90.0
  0
CIRCLE
  5
161
  8
DETAIL
  6
CONTINUOUS
 62
     5
 10
0.0
 20
50.0
 30
0.0
 40
2.25
  0
LINE
  5
162
  8
DETAIL
  6
CONTINUOUS
 62
     5
 10
3.666667
 20
58.166667
 30
0.0
 11
32.0
 21
58.166667
 31
0.0
  0
LINE
  5
163
  8
DETAIL
  6
CONTINUOUS
 62
     5
 10
-3.666667
 20
56.333333
 30
0.0
 11
3.666667
 21
56.333333
 31
0.0
  0
LINE
  5
164
  8
DETAIL
  6
CONTINUOUS
 62
     5
 10
-3.666667
 20
56.333333
 30
0.0
 11
-3.666667
 21
58.166667
 31
0.0
  0
LINE
  5
165
  8
DETAIL
  6
CONTINUOUS
 62
     5
 10
3.666667
 20
56.333333
 30
0.0
 11
3.666667
 21
58.166667
 31
0.0
  0
ARC
  5
166
  8
DETAIL
  6
CONTINUOUS
 62
     5
 10
32.0
 20
57.0
 30
0.0
 40
1.166667
 50
0.0
 51
90.0
  0
LINE
  5
167
  8
BASIS
  6
DASHDOT
 62
     6
 39
50.0
 10
0.0
 20
73.910871
 30
0.0
 11
0.0
 21
-71.779475
 31
0.0
  0
LINE
  5
168
  8
NOTE
  6
CONTINUOUS
 62
     4
 10
0.0
 20
21.75
 30
0.0
 11
0.0
 21
61.75
 31
0.0
  0
LINE
  5
169
  8
NOTE
  6
CONTINUOUS
 62
     4
 10
-20.0
 20
41.75
 30
0.0
 11
20.0
 21
41.75
 31
0.0
  0
LINE
  5
16A
  8
NOTE
  6
CONTINUOUS
 62
     4
 10
0.0
 20
-61.75
 30
0.0
 11
0.0
 21
-21.75
 31
0.0
  0
LINE
  5
16B
  8
NOTE
  6
CONTINUOUS
 62
     4
 10
-20.0
 20
-41.75
 30
0.0
 11
20.0
 21
-41.75
 31
0.0
  0
LINE
  5
16C
  8
OUTLINE
  6
CONTINUOUS
 62
     3
 10
35.0
 20
57.0
 30
0.0
 11
35.0
 21
-57.0
 31
0.0
  0
LINE
  5
16D
  8
OUTLINE
  6
CONTINUOUS
 62
     3
 10
-35.0
 20
57.0
 30
0.0
 11
-35.0
 21
-57.0
 31
0.0
  0
LINE
  5
16E
  8
OUTLINE
  6
CONTINUOUS
 62
     3
 10
-32.0
 20
-60.0
 30
0.0
 11
32.0
 21
-60.0
 31
0.0
  0
ARC
  5
16F
  8
OUTLINE
  6
CONTINUOUS
 62
     3
 10
-32.0
 20
-57.0
 30
0.0
 40
3.0
 50
180.0
 51
270.0
  0
ARC
  5
170
  8
OUTLINE
  6
CONTINUOUS
 62
     3
 10
32.0
 20
-57.0
 30
0.0
 40
3.0
 50
270.0
 51
0.0
  0
LINE
  5
171
  8
OUTLINE
  6
CONTINUOUS
 62
     3
 10
-32.0
 20
60.0
 30
0.0
 11
32.0
 21
60.0
 31
0.0
  0
ARC
  5
172
  8
OUTLINE
  6
CONTINUOUS
 62
     3
 10
-32.0
 20
57.0
 30
0.0
 40
3.0
 50
90.0
 51
180.0
  0
ARC
  5
173
  8
OUTLINE
  6
CONTINUOUS
 62
     3
 10
32.0
 20
57.0
 30
0.0
 40
3.0
 50
0.0
 51
90.0
  0
LINE
  5
174
  8
SIZE
  6
CONTINUOUS
 62
    30
 10
-24.0
 20
53.35
 30
0.0
 11
-24.0
 21
291.013748
 31
0.0
  0
LINE
  5
175
  8
SIZE
  6
CONTINUOUS
 62
    30
 10
24.0
 20
53.35
 30
0.0
 11
24.0
 21
291.013748
 31
0.0
  0
LINE
  5
176
  8
SIZE
  6
CONTINUOUS
 62
    30
 10
-36.0
 20
271.013748
 30
0.0
 11
-48.0
 21
271.013748
 31
0.0
  0
LINE
  5
177
  8
SIZE
  6
CONTINUOUS
 62
    30
 10
36.0
 20
271.013748
 30
0.0
 11
48.0
 21
271.013748
 31
0.0
  0
LINE
  5
178
  8
SIZE
  6
CONTINUOUS
 62
    30
 10
-24.0
 20
271.013748
 30
0.0
 11
24.0
 21
271.013748
 31
0.0
  0
CIRCLE
  5
179
  8
SIZE
  6
CONTINUOUS
 62
    30
 10
-24.0
 20
271.013748
 30
0.0
 40
6.0
  0
LINE
  5
17A
  8
SIZE
  6
CONTINUOUS
 62
    30
 10
-24.0
 20
271.013748
 30
0.0
 11
-36.0
 21
271.013748
 31
0.0
  0
CIRCLE
  5
17B
  8
SIZE
  6
CONTINUOUS
 62
    30
 10
24.0
 20
271.013748
 30
0.0
 40
6.0
  0
LINE
  5
17C
  8
SIZE
  6
CONTINUOUS
 62
    30
 10
24.0
 20
271.013748
 30
0.0
 11
36.0
 21
271.013748
 31
0.0
  0
TEXT
  5
17D
  8
SIZE
  6
CONTINUOUS
 62
    30
 10
-54.85714285714286
 20
296.013748
 30
0.0
 40
64.0
  1
48
 41
0.9
 72
     1
 11
0.0
 21
296.013748
 31
0.0
  0
POINT
  5
17E
  8
DEFPOINTS
  6
CONTINUOUS
 62
    30
 10
-24.0
 20
33.35
 30
0.0
  0
POINT
  5
17F
  8
DEFPOINTS
  6
CONTINUOUS
 62
    30
 10
24.0
 20
33.35
 30
0.0
  0
POINT
  5
180
  8
DEFPOINTS
  6
CONTINUOUS
 62
    30
 10
24.0
 20
271.013748
 30
0.0
  0
LINE
  5
181
  8
SIZE
  6
CONTINUOUS
 62
    30
 10
-35.0
 20
-77.0
 30
0.0
 11
-35.0
 21
-324.720457
 31
0.0
  0
LINE
  5
182
  8
SIZE
  6
CONTINUOUS
 62
    30
 10
35.0
 20
-77.0
 30
0.0
 11
35.0
 21
-324.720457
 31
0.0
  0
LINE
  5
183
  8
SIZE
  6
CONTINUOUS
 62
    30
 10
47.0
 20
-304.720457
 30
0.0
 11
59.0
 21
-304.720457
 31
0.0
  0
LINE
  5
184
  8
SIZE
  6
CONTINUOUS
 62
    30
 10
-47.0
 20
-304.720457
 30
0.0
 11
-202.257143
 21
-304.720457
 31
0.0
  0
LINE
  5
185
  8
SIZE
  6
CONTINUOUS
 62
    30
 10
35.0
 20
-304.720457
 30
0.0
 11
-35.0
 21
-304.720457
 31
0.0
  0
CIRCLE
  5
186
  8
SIZE
  6
CONTINUOUS
 62
    30
 10
35.0
 20
-304.720457
 30
0.0
 40
6.0
  0
LINE
  5
187
  8
SIZE
  6
CONTINUOUS
 62
    30
 10
35.0
 20
-304.720457
 30
0.0
 11
47.0
 21
-304.720457
 31
0.0
  0
CIRCLE
  5
188
  8
SIZE
  6
CONTINUOUS
 62
    30
 10
-35.0
 20
-304.720457
 30
0.0
 40
6.0
  0
LINE
  5
189
  8
SIZE
  6
CONTINUOUS
 62
    30
 10
-35.0
 20
-304.720457
 30
0.0
 11
-47.0
 21
-304.720457
 31
0.0
  0
TEXT
  5
18A
  8
SIZE
  6
CONTINUOUS
 62
    30
 10
-185.4857148571429
 20
-279.720457
 30
0.0
 40
64.0
  1
70
 41
0.9
 72
     1
 11
-130.628572
 21
-279.720457
 31
0.0
  0
POINT
  5
18B
  8
DEFPOINTS
  6
CONTINUOUS
 62
    30
 10
-35.0
 20
-57.0
 30
0.0
  0
POINT
  5
18C
  8
DEFPOINTS
  6
CONTINUOUS
 62
    30
 10
35.0
 20
-57.0
 30
0.0
  0
POINT
  5
18D
  8
DEFPOINTS
  6
CONTINUOUS
 62
    30
 10
35.0
 20
-304.720457
 30
0.0
  0
LINE
  5
18E
  8
SIZE
  6
CONTINUOUS
 62
    30
 10
-40.0
 20
41.75
 30
0.0
 11
-270.900383
 21
41.75
 31
0.0
  0
LINE
  5
18F
  8
SIZE
  6
CONTINUOUS
 62
    30
 10
-40.0
 20
-41.75
 30
0.0
 11
-270.900383
 21
-41.75
 31
0.0
  0
LINE
  5
190
  8
SIZE
  6
CONTINUOUS
 62
    30
 10
-250.900383
 20
53.75
 30
0.0
 11
-250.900383
 21
65.75
 31
0.0
  0
LINE
  5
191
  8
SIZE
  6
CONTINUOUS
 62
    30
 10
-250.900383
 20
-53.75
 30
0.0
 11
-250.900383
 21
-65.75
 31
0.0
  0
LINE
  5
192
  8
SIZE
  6
CONTINUOUS
 62
    30
 10
-250.900383
 20
41.75
 30
0.0
 11
-250.900383
 21
-41.75
 31
0.0
  0
CIRCLE
  5
193
  8
SIZE
  6
CONTINUOUS
 62
    30
 10
-250.900383
 20
41.75
 30
0.0
 40
6.0
  0
LINE
  5
194
  8
SIZE
  6
CONTINUOUS
 62
    30
 10
-250.900383
 20
41.75
 30
0.0
 11
-250.900383
 21
53.75
 31
0.0
  0
CIRCLE
  5
195
  8
SIZE
  6
CONTINUOUS
 62
    30
 10
-250.900383
 20
-41.75
 30
0.0
 40
6.0
  0
LINE
  5
196
  8
SIZE
  6
CONTINUOUS
 62
    30
 10
-250.900383
 20
-41.75
 30
0.0
 11
-250.900383
 21
-53.75
 31
0.0
  0
TEXT
  5
197
  8
SIZE
  6
CONTINUOUS
 62
    30
 10
-275.900383
 20
-96.00000000000001
 30
0.0
 40
64.0
  1
83.5
 50
90.0
 41
0.9
 72
     1
 11
-275.900383
 21
0.0
 31
0.0
  0
POINT
  5
198
  8
DEFPOINTS
  6
CONTINUOUS
 62
    30
 10
-20.0
 20
41.75
 30
0.0
  0
POINT
  5
199
  8
DEFPOINTS
  6
CONTINUOUS
 62
    30
 10
-20.0
 20
-41.75
 30
0.0
  0
POINT
  5
19A
  8
DEFPOINTS
  6
CONTINUOUS
 62
    30
 10
-250.900383
 20
-41.75
 30
0.0
  0
LINE
  5
19B
  8
SIZE
  6
CONTINUOUS
 62
    30
 10
52.0
 20
60.0
 30
0.0
 11
364.109228
 21
60.0
 31
0.0
  0
LINE
  5
19C
  8
SIZE
  6
CONTINUOUS
 62
    30
 10
52.0
 20
-60.0
 30
0.0
 11
364.109228
 21
-60.0
 31
0.0
  0
LINE
  5
19D
  8
SIZE
  6
CONTINUOUS
 62
    30
 10
344.109228
 20
48.0
 30
0.0
 11
344.109228
 21
-48.0
 31
0.0
  0
LINE
  5
19E
  8
SIZE
  6
CONTINUOUS
 62
    30
 10
344.109228
 20
-60.0
 30
0.0
 11
344.109228
 21
-259.142857
 31
0.0
  0
CIRCLE
  5
19F
  8
SIZE
  6
CONTINUOUS
 62
    30
 10
344.109228
 20
60.0
 30
0.0
 40
6.0
  0
LINE
  5
1A0
  8
SIZE
  6
CONTINUOUS
 62
    30
 10
344.109228
 20
60.0
 30
0.0
 11
344.109228
 21
48.0
 31
0.0
  0
CIRCLE
  5
1A1
  8
SIZE
  6
CONTINUOUS
 62
    30
 10
344.109228
 20
-60.0
 30
0.0
 40
6.0
  0
LINE
  5
1A2
  8
SIZE
  6
CONTINUOUS
 62
    30
 10
344.109228
 20
-60.0
 30
0.0
 11
344.109228
 21
-48.0
 31
0.0
  0
TEXT
  5
1A3
  8
SIZE
  6
CONTINUOUS
 62
    30
 10
319.109228
 20
-251.971429
 30
0.0
 40
64.0
  1
120
 50
90.0
 41
0.9
 72
     1
 11
319.109228
 21
-165.571429
 31
0.0
  0
POINT
  5
1A4
  8
DEFPOINTS
  6
CONTINUOUS
 62
    30
 10
32.0
 20
60.0
 30
0.0
  0
POINT
  5
1A5
  8
DEFPOINTS
  6
CONTINUOUS
 62
    30
 10
32.0
 20
-60.0
 30
0.0
  0
POINT
  5
1A6
  8
DEFPOINTS
  6
CONTINUOUS
 62
    30
 10
344.109228
 20
-60.0
 30
0.0
  0
LINE
  5
1A7
  8
NOTE
  6
CONTINUOUS
 62
     4
 39
50.0
 10
-4.762872999999999
 20
43.415447
 30
0.0
 11
-194.338554
 21
167.596448
 31
0.0
  0
LINE
  5
1A8
  8
NOTE
  6
CONTINUOUS
 62
     4
 39
50.0
 10
-1118.482639
 20
167.596448
 30
0.0
 11
-194.338554
 21
167.596448
 31
0.0
  0
TEXT
  5
1A9
  8
NOTE
  6
CONTINUOUS
 62
     4
 10
-1100.113832
 20
181.816315
 30
0.0
 40
64.0
  1
JIS ボックス固定ネジ2ヶ所
 41
0.9
  0
LINE
  5
1AA
  8
NOTE
  6
CONTINUOUS
 62
     4
 10
-31.400893
 20
73.255284
 30
0.0
 11
-4.762872999999999
 21
43.415447
 31
0.0
  0
LINE
  5
1AB
  8
NOTE
  6
CONTINUOUS
 62
     4
 10
-4.762872999999999
 20
43.415447
 30
0.0
 11
-42.75199399999999
 21
55.93849399999999
 31
0.0
  0
TEXT
  5
1AC
  8
ETC
  6
CONTINUOUS
 62
    61
 10
88.97226162568887
 20
489.5277459067012
 30
0.0
 40
64.0
  1
P-513AR_3
 41
0.9
  0
TEXT
  5
1AD
  8
ETC
  6
CONTINUOUS
 62
    61
 10
83.54641662568883
 20
398.769343715895
 30
0.0
 40
64.0
  1
システム部材
 41
0.9
  0
TEXT
  5
1AE
  8
ETC
  6
CONTINUOUS
 62
    61
 10
138.9682296256888
 20
323.4567218041384
 30
0.0
 40
40.0
  1
P-513AR
 41
0.9
  0
ENDSEC
  0
EOF
