  0
SECTION
  2
HEADER
  9
$ACADVER
  1
AC1009
  9
$DWGCODEPAGE
  3
dos932
  9
$INSBASE
 10
0.0
 20
0.0
 30
0.0
  9
$EXTMIN
 10
-376.59757836558668
 20
-305.374133639707
 30
-0.0015257624927045
  9
$EXTMAX
 10
759.53980617870002
 20
643.11219070003426
 30
50.001525995323327
  9
$LIMMIN
 10
-2970.0
 20
-2100.0
  9
$LIMMAX
 10
2970.0
 20
2100.0
  9
$ORTHOMODE
 70
     0
  9
$REGENMODE
 70
     1
  9
$FILLMODE
 70
     1
  9
$QTEXTMODE
 70
     0
  9
$MIRRTEXT
 70
     0
  9
$LTSCALE
 40
20.0
  9
$ATTMODE
 70
     1
  9
$TEXTSIZE
 40
64.0
  9
$TRACEWID
 40
0.05
  9
$TEXTSTYLE
  7
STANDARD
  9
$CLAYER
  8
SIZE
  9
$CELTYPE
  6
CONTINUOUS
  9
$CECOLOR
 62
     7
  9
$DIMSCALE
 40
1.0
  9
$DIMASZ
 40
12.0
  9
$DIMEXO
 40
20.0
  9
$DIMDLI
 40
200.0
  9
$DIMRND
 40
0.0
  9
$DIMDLE
 40
0.0
  9
$DIMEXE
 40
20.0
  9
$DIMTP
 40
0.0
  9
$DIMTM
 40
0.0
  9
$DIMTXT
 40
64.0
  9
$DIMCEN
 40
0.09
  9
$DIMTSZ
 40
0.0
  9
$DIMTOL
 70
     0
  9
$DIMLIM
 70
     0
  9
$DIMTIH
 70
     0
  9
$DIMTOH
 70
     0
  9
$DIMSE1
 70
     0
  9
$DIMSE2
 70
     0
  9
$DIMTAD
 70
     1
  9
$DIMZIN
 70
     8
  9
$DIMBLK
  1

  9
$DIMASO
 70
     1
  9
$DIMSHO
 70
     0
  9
$DIMPOST
  1

  9
$DIMAPOST
  1

  9
$DIMALT
 70
     0
  9
$DIMALTD
 70
     2
  9
$DIMALTF
 40
25.399999999999999
  9
$DIMLFAC
 40
1.0
  9
$DIMTOFL
 70
     1
  9
$DIMTVP
 40
0.0
  9
$DIMTIX
 70
     1
  9
$DIMSOXD
 70
     0
  9
$DIMSAH
 70
     0
  9
$DIMBLK1
  1

  9
$DIMBLK2
  1

  9
$DIMSTYLE
  2
STANDARD
  9
$DIMCLRD
 70
     7
  9
$DIMCLRE
 70
     7
  9
$DIMCLRT
 70
     7
  9
$DIMTFAC
 40
1.0
  9
$DIMGAP
 40
25.0
  9
$LUNITS
 70
     2
  9
$LUPREC
 70
     4
  9
$SKETCHINC
 40
0.1
  9
$FILLETRAD
 40
3.0
  9
$AUNITS
 70
     1
  9
$AUPREC
 70
     3
  9
$MENU
  1
ACAD
  9
$ELEVATION
 40
0.0
  9
$PELEVATION
 40
0.0
  9
$THICKNESS
 40
50.0
  9
$LIMCHECK
 70
     0
  9
$CHAMFERA
 40
0.0
  9
$CHAMFERB
 40
0.0
  9
$SKPOLY
 70
     0
  9
$TDCREATE
 40
2453019.62301037
  9
$TDUPDATE
 40
2456672.454847268
  9
$TDINDWG
 40
1.7229142245
  9
$TDUSRTIMER
 40
1.7229142245
  9
$USRTIMER
 70
     1
  9
$ANGBASE
 50
0.0
  9
$ANGDIR
 70
     0
  9
$PDMODE
 70
     3
  9
$PDSIZE
 40
-2.0
  9
$PLINEWID
 40
0.0
  9
$SPLFRAME
 70
     0
  9
$SPLINETYPE
 70
     6
  9
$SPLINESEGS
 70
     8
  9
$SURFTAB1
 70
     6
  9
$SURFTAB2
 70
     6
  9
$SURFTYPE
 70
     6
  9
$SURFU
 70
     6
  9
$SURFV
 70
     6
  9
$UCSNAME
  2

  9
$UCSORG
 10
0.0
 20
0.0
 30
0.0
  9
$UCSXDIR
 10
1.0
 20
0.0
 30
0.0
  9
$UCSYDIR
 10
0.0
 20
1.0
 30
0.0
  9
$PUCSNAME
  2

  9
$PUCSORG
 10
0.0
 20
0.0
 30
0.0
  9
$PUCSXDIR
 10
1.0
 20
0.0
 30
0.0
  9
$PUCSYDIR
 10
0.0
 20
1.0
 30
0.0
  9
$USERI1
 70
     0
  9
$USERI2
 70
     0
  9
$USERI3
 70
     0
  9
$USERI4
 70
     0
  9
$USERI5
 70
     0
  9
$USERR1
 40
20.0
  9
$USERR2
 40
0.0
  9
$USERR3
 40
0.0
  9
$USERR4
 40
0.0
  9
$USERR5
 40
0.0
  9
$WORLDVIEW
 70
     1
  9
$SHADEDGE
 70
     3
  9
$SHADEDIF
 70
    70
  9
$TILEMODE
 70
     1
  9
$MAXACTVP
 70
    48
  9
$PINSBASE
 10
0.0
 20
0.0
 30
0.0
  9
$PLIMCHECK
 70
     0
  9
$PEXTMIN
 10
-100000000000000000000.0
 20
-100000000000000000000.0
 30
-100000000000000000000.0
  9
$PEXTMAX
 10
100000000000000000000.0
 20
100000000000000000000.0
 30
100000000000000000000.0
  9
$PLIMMIN
 10
0.0
 20
0.0
  9
$PLIMMAX
 10
12.0
 20
9.0
  9
$UNITMODE
 70
     0
  9
$VISRETAIN
 70
     0
  9
$PLINEGEN
 70
     0
  9
$PSLTSCALE
 70
     0
  9
$TREEDEPTH
 70
  3020
  9
$ATTDIA
 70
     0
  9
$ATTREQ
 70
     1
  9
$BLIPMODE
 70
     1
  9
$COORDS
 70
     1
  9
$DRAGMODE
 70
     2
  9
$OSMODE
 70
     0
  9
$HANDLING
 70
     0
  9
$HANDSEED
  5
E7FB
  0
ENDSEC
  0
SECTION
  2
TABLES
  0
TABLE
  2
LTYPE
 70
     3
  0
LTYPE
  2
CONTINUOUS
 70
     0
  3
実線
 72
    65
 73
     0
 40
0.0
  0
LTYPE
  2
DASHDOT
 70
     0
  3
____ _ ____ _ ____ _ ____ _ ____ _ ____ _ ____
 72
    65
 73
     4
 40
5.5
 49
4.0
 49
-0.6
 49
0.3
 49
-0.6
  0
LTYPE
  2
DASHED
 70
     0
  3
-- -- -- -- -- -- -- -- -- -- -- -- -- -- --
 72
    65
 73
     2
 40
0.75
 49
0.5
 49
-0.25
  0
ENDTAB
  0
TABLE
  2
LAYER
 70
    12
  0
LAYER
  2
0
 70
     0
 62
     7
  6
CONTINUOUS
  0
LAYER
  2
BASIS
 70
     0
 62
     6
  6
DASHDOT
  0
LAYER
  2
OUTLINE
 70
     0
 62
     3
  6
CONTINUOUS
  0
LAYER
  2
DETAIL
 70
     0
 62
     5
  6
CONTINUOUS
  0
LAYER
  2
SIZE
 70
     0
 62
    30
  6
CONTINUOUS
  0
LAYER
  2
ARRANGE
 70
     4
 62
     1
  6
CONTINUOUS
  0
LAYER
  2
DEFPOINTS
 70
     0
 62
     7
  6
CONTINUOUS
  0
LAYER
  2
ETC
 70
     0
 62
    61
  6
CONTINUOUS
  0
LAYER
  2
FIX
 70
     0
 62
    11
  6
CONTINUOUS
  0
LAYER
  2
NOTE
 70
     0
 62
     4
  6
CONTINUOUS
  0
LAYER
  2
SERVICESPACE
 70
    64
 62
     2
  6
DASHDOT
  0
LAYER
  2
SYMBOLLINE
 70
    64
 62
    15
  6
CONTINUOUS
  0
ENDTAB
  0
TABLE
  2
STYLE
 70
     1
  0
STYLE
  2
STANDARD
 70
     0
 40
64.0
 41
0.9
 50
0.0
 71
     0
 42
64.0
  3
SIMPLEX.shx
  4
BIGFONT.shx
  0
ENDTAB
  0
TABLE
  2
APPID
 70
    15
  0
APPID
  2
ACAD
 70
     0
  0
APPID
  2
AUTOCAD_POSTSCRIPT_FIGURE
 70
     0
  0
APPID
  2
ACAD_EXEMPT_FROM_CAD_STANDARDS
 70
     0
  0
APPID
  2
ACAD_PSEXT
 70
     0
  0
APPID
  2
ACAUTHENVIRON
 70
     0
  0
APPID
  2
GENIUS_GENOENT_13
 70
     0
  0
APPID
  2
GENIUS_GENCFG_13
 70
     0
  0
APPID
  2
GENIUS_GENCFG0_13
 70
     0
  0
APPID
  2
GENIUS_GENCFG1_13
 70
     0
  0
APPID
  2
GENIUS_GENCFG2_13
 70
     0
  0
APPID
  2
GENIUS_GENCFG3_13
 70
     0
  0
APPID
  2
GENIUS_GENCFG4_13
 70
     0
  0
APPID
  2
GENIUS_GEVCFG0_13
 70
     0
  0
APPID
  2
CONTENTBLOCKICON
 70
     0
  0
APPID
  2
CONTENTBLOCKDESCRIPTION
 70
     0
  0
ENDTAB
  0
TABLE
  2
DIMSTYLE
 70
     1
  0
DIMSTYLE
  2
STANDARD
 70
     0
  3

  4

  5
_ORIGIN
  6

  7

 40
1.0
 41
12.0
 42
20.0
 43
200.0
 44
20.0
 45
0.0
 46
0.0
 47
0.0
 48
0.0
140
64.0
141
0.09
142
0.0
143
25.399999999999999
144
1.0
145
0.0
146
1.0
147
25.0
 71
     0
 72
     0
 73
     0
 74
     0
 75
     0
 76
     0
 77
     1
 78
     8
170
     0
171
     2
172
     1
173
     0
174
     1
175
     0
176
     7
177
     7
178
     7
  0
ENDTAB
  0
TABLE
  2
VIEW
 70
     1
  0
VIEW
  2
ALL
 70
     0
 40
4282.6198079999986
 10
0.0
 20
41.309904000000003
 41
5940.0
 11
0.0
 21
0.0
 31
1.0
 12
0.0
 22
0.0
 32
0.0
 42
50.0
 43
0.0
 44
0.0
 50
0.0
 71
     0
  0
ENDTAB
  0
TABLE
  2
UCS
 70
     0
  0
ENDTAB
  0
TABLE
  2
VPORT
 70
     1
  0
VPORT
  2
*ACTIVE
 70
     0
 10
0.0
 20
0.0
 11
1.0
 21
1.0
 12
191.4711139065567
 22
168.86902853016369
 13
0.0
 23
0.0
 14
1.0
 24
1.0
 15
0.0
 25
0.0
 16
0.0
 26
0.0
 36
1.0
 17
0.0
 27
0.0
 37
0.0
 40
955.76371301753989
 41
1.2471190781049939
 42
50.0
 43
0.0
 44
0.0
 50
0.0
 51
0.0
 71
     0
 72
  1000
 73
     1
 74
     0
 75
     0
 76
     0
 77
     0
 78
     0
  0
ENDTAB
  0
ENDSEC
  0
SECTION
  2
BLOCKS
  0
BLOCK
  8
0
  2
_ORIGIN
 70
     0
 10
0.0
 20
0.0
 30
0.0
  3
_ORIGIN
  1

  0
CIRCLE
  8
0
  6
CONTINUOUS
 62
     7
 10
0.0
 20
0.0
 30
0.0
 40
0.5
  0
LINE
  8
0
  6
CONTINUOUS
 62
     7
 10
0.0
 20
0.0
 30
0.0
 11
-1.0
 21
0.0
 31
0.0
  0
ENDBLK
  8
0
  0
ENDSEC
  0
SECTION
  2
ENTITIES
  0
TEXT
  8
ETC
  6
CONTINUOUS
 62
    61
 10
208.00140370656391
 20
578.87009247794799
 30
0.0
 40
64.0
  1
PS-01TKA2_6
 41
0.9
  0
TEXT
  8
ETC
  6
CONTINUOUS
 62
    61
 10
203.81540970656351
 20
460.91478246311681
 30
0.0
 40
64.0
  1
システム部材
 41
0.9
  0
CIRCLE
  8
ARRANGE
  6
CONTINUOUS
 62
     1
 10
0.0
 20
0.0
 30
0.0
 40
40.0
  0
POINT
  8
ARRANGE
  6
CONTINUOUS
 62
     1
 10
0.0
 20
0.0
 30
0.0
 39
50.0
  0
LINE
  8
BASIS
  6
DASHDOT
 62
     6
 39
50.0
 10
0.0
 20
-109.2854010143142
 30
0.0
 11
0.0
 21
109.2854010143142
 31
0.0
  0
LINE
  8
BASIS
  6
DASHDOT
 62
     6
 39
50.0
 10
125.4561247050906
 20
0.0
 30
0.0
 11
-125.4561247050906
 21
0.0
 31
0.0
  0
TEXT
  8
ETC
  6
CONTINUOUS
 62
    61
 10
254.5168079551195
 20
352.76600957689152
 30
0.0
 40
40.0
  1
PS-01TKA2
 50
0.0
 41
0.9
 51
0.0
  7
STANDARD
 71
     0
 11
0.0
 21
0.0
 31
0.0
210
0.0
220
0.0
230
1.0
  0
LINE
  8
DETAIL
  6
CONTINUOUS
 62
     5
 10
25.0
 20
9.0
 30
0.0
 11
32.0
 21
9.0
 31
0.0
  0
LINE
  8
DETAIL
  6
CONTINUOUS
 62
     5
 10
32.0
 20
9.0
 30
0.0
 11
32.0
 21
-14.99999999999989
 31
0.0
  0
LINE
  8
DETAIL
  6
CONTINUOUS
 62
     5
 10
-20.0
 20
-14.99999999999989
 30
0.0
 11
-25.0
 21
-9.9999999999998863
 31
0.0
  0
LINE
  8
DETAIL
  6
CONTINUOUS
 62
     5
 10
-20.0
 20
-14.99999999999989
 30
0.0
 11
32.0
 21
-15.00000000000011
 31
0.0
  0
LINE
  8
DETAIL
  6
CONTINUOUS
 62
     5
 10
-25.0
 20
14.799999999999949
 30
0.0
 11
25.0
 21
14.799999999999949
 31
0.0
  0
LINE
  8
DETAIL
  6
CONTINUOUS
 62
     5
 10
20.0
 20
47.499999999999091
 30
0.0
 11
25.0
 21
42.499999999999091
 31
0.0
  0
LINE
  8
DETAIL
  6
CONTINUOUS
 62
     5
 10
-20.0
 20
47.499999999999091
 30
0.0
 11
-25.0
 21
42.499999999999091
 31
0.0
  0
LINE
  8
NOTE
  6
CONTINUOUS
 62
     4
 10
25.0
 20
32.499999999999091
 30
0.0
 11
-25.0
 21
32.499999999999197
 31
0.0
  0
LINE
  8
NOTE
  6
CONTINUOUS
 62
     4
 10
15.0
 20
40.499999999999091
 30
0.0
 11
15.0
 21
24.499999999999091
 31
0.0
  0
LINE
  8
NOTE
  6
CONTINUOUS
 62
     4
 10
-15.0
 20
40.499999999999091
 30
0.0
 11
-15.0
 21
24.499999999999091
 31
0.0
  0
LINE
  8
DETAIL
  6
CONTINUOUS
 62
     5
 10
-25.0
 20
42.499999999999091
 30
0.0
 11
-25.0
 21
-9.9999999999998863
 31
0.0
  0
LINE
  8
DETAIL
  6
CONTINUOUS
 62
     5
 10
-25.0
 20
12.5
 30
0.0
 11
25.0
 21
12.5
 31
0.0
  0
LINE
  8
DETAIL
  6
CONTINUOUS
 62
     5
 10
-20.0
 20
47.499999999999091
 30
0.0
 11
20.0
 21
47.499999999999091
 31
0.0
  0
LINE
  8
DETAIL
  6
CONTINUOUS
 62
     5
 10
-13.0
 20
29.499999999999091
 30
0.0
 11
-17.0
 21
29.499999999999091
 31
0.0
  0
ARC
  8
DETAIL
  6
CONTINUOUS
 62
     5
 10
-17.0
 20
32.499999999999091
 30
0.0
 40
3.0
 50
90.0
 51
270.0
  0
LINE
  8
DETAIL
  6
CONTINUOUS
 62
     5
 10
-13.0
 20
35.499999999999091
 30
0.0
 11
-17.0
 21
35.499999999999091
 31
0.0
  0
ARC
  8
DETAIL
  6
CONTINUOUS
 62
     5
 10
-13.0
 20
32.499999999999091
 30
0.0
 40
2.9999999999999929
 50
270.0
 51
90.0
  0
LINE
  8
DETAIL
  6
CONTINUOUS
 62
     5
 10
17.0
 20
29.499999999999091
 30
0.0
 11
13.0
 21
29.499999999999091
 31
0.0
  0
ARC
  8
DETAIL
  6
CONTINUOUS
 62
     5
 10
13.0
 20
32.499999999999091
 30
0.0
 40
3.0
 50
90.0
 51
270.0
  0
LINE
  8
DETAIL
  6
CONTINUOUS
 62
     5
 10
17.0
 20
35.499999999999091
 30
0.0
 11
13.0
 21
35.499999999999091
 31
0.0
  0
ARC
  8
DETAIL
  6
CONTINUOUS
 62
     5
 10
17.0
 20
32.499999999999091
 30
0.0
 40
3.0000000000000071
 50
270.0
 51
90.0
  0
CIRCLE
  8
DETAIL
  6
CONTINUOUS
 62
     5
 10
0.0
 20
0.0
 30
0.0
 40
7.0
  0
LINE
  8
OUTLINE
  6
CONTINUOUS
 62
     3
 10
25.0
 20
9.0
 30
0.0
 11
32.0
 21
9.0
 31
0.0
  0
LINE
  8
OUTLINE
  6
CONTINUOUS
 62
     3
 10
32.0
 20
9.0
 30
0.0
 11
32.0
 21
-14.99999999999989
 31
0.0
  0
LINE
  8
OUTLINE
  6
CONTINUOUS
 62
     3
 10
-20.0
 20
-14.99999999999989
 30
0.0
 11
-25.0
 21
-9.9999999999998863
 31
0.0
  0
LINE
  8
OUTLINE
  6
CONTINUOUS
 62
     3
 10
-20.0
 20
-14.99999999999989
 30
0.0
 11
32.0
 21
-15.00000000000011
 31
0.0
  0
LINE
  8
OUTLINE
  6
CONTINUOUS
 62
     3
 10
20.0
 20
47.499999999999091
 30
0.0
 11
25.0
 21
42.499999999999091
 31
0.0
  0
LINE
  8
OUTLINE
  6
CONTINUOUS
 62
     3
 10
-20.0
 20
47.499999999999091
 30
0.0
 11
-25.0
 21
42.499999999999091
 31
0.0
  0
LINE
  8
OUTLINE
  6
CONTINUOUS
 62
     3
 10
-25.0
 20
42.499999999999091
 30
0.0
 11
-25.0
 21
-9.9999999999998863
 31
0.0
  0
LINE
  8
OUTLINE
  6
CONTINUOUS
 62
     3
 10
-20.0
 20
47.499999999999091
 30
0.0
 11
20.0
 21
47.499999999999091
 31
0.0
  0
LINE
  8
DETAIL
  6
DASHED
 62
     5
 10
-25.0
 20
9.0
 30
0.0
 11
-32.0
 21
9.0
 31
0.0
  0
LINE
  8
DETAIL
  6
DASHED
 62
     5
 10
-32.0
 20
9.0
 30
0.0
 11
-32.0
 21
-14.99999999999989
 31
0.0
  0
LINE
  8
DETAIL
  6
DASHED
 62
     5
 10
20.0
 20
-14.99999999999989
 30
0.0
 11
25.0
 21
-9.9999999999998863
 31
0.0
  0
LINE
  8
DETAIL
  6
DASHED
 62
     5
 10
20.0
 20
-14.99999999999989
 30
0.0
 11
-32.0
 21
-15.00000000000011
 31
0.0
  0
LINE
  8
DETAIL
  6
DASHED
 62
     5
 10
25.0
 20
9.0
 30
0.0
 11
25.0
 21
-9.9999999999998863
 31
0.0
  0
LINE
  8
OUTLINE
  6
CONTINUOUS
 62
     3
 10
25.0
 20
42.499999999999091
 30
0.0
 11
25.0
 21
9.0
 31
0.0
  0
LINE
  8
DETAIL
  6
CONTINUOUS
 62
     5
 10
25.0
 20
42.499999999999091
 30
0.0
 11
25.0
 21
9.0
 31
0.0
  0
CIRCLE
  8
FIX
  6
CONTINUOUS
 62
    11
 39
50.0
 10
-15.0
 20
32.499999999999197
 30
0.0
 40
5.0
  0
CIRCLE
  8
FIX
  6
CONTINUOUS
 62
    11
 39
50.0
 10
15.0
 20
32.499999999999091
 30
0.0
 40
5.0
  0
CIRCLE
  8
FIX
  6
CONTINUOUS
 62
    11
 39
50.0
 10
0.0
 20
0.0
 30
0.0
 40
5.0
  0
LINE
  8
SIZE
  6
CONTINUOUS
 62
    30
 10
-15.0
 20
60.499999999999091
 30
0.0
 11
-14.999999999999989
 21
241.8016257406866
 31
0.0
  0
LINE
  8
SIZE
  6
CONTINUOUS
 62
    30
 10
15.0
 20
60.499999999999091
 30
0.0
 11
15.000000000000011
 21
241.8016257406866
 31
0.0
  0
LINE
  8
SIZE
  6
CONTINUOUS
 62
    30
 10
27.000000000000011
 20
221.8016257406866
 30
0.0
 11
39.000000000000007
 21
221.8016257406866
 31
0.0
  0
LINE
  8
SIZE
  6
CONTINUOUS
 62
    30
 10
-26.999999999999989
 20
221.8016257406866
 30
0.0
 11
-182.25714285714281
 21
221.8016257406866
 31
0.0
  0
LINE
  8
SIZE
  6
CONTINUOUS
 62
    30
 10
15.000000000000011
 20
221.8016257406866
 30
0.0
 11
-14.999999999999989
 21
221.8016257406866
 31
0.0
  0
CIRCLE
  8
SIZE
  6
CONTINUOUS
 62
    30
 10
15.000000000000011
 20
221.8016257406866
 30
0.0
 40
6.0
  0
LINE
  8
SIZE
  6
CONTINUOUS
 62
    30
 10
15.000000000000011
 20
221.8016257406866
 30
0.0
 11
27.000000000000011
 21
221.8016257406866
 31
0.0
  0
CIRCLE
  8
SIZE
  6
CONTINUOUS
 62
    30
 10
-14.999999999999989
 20
221.8016257406866
 30
0.0
 40
6.0
  0
LINE
  8
SIZE
  6
CONTINUOUS
 62
    30
 10
-14.999999999999989
 20
221.8016257406866
 30
0.0
 11
-26.999999999999989
 21
221.8016257406866
 31
0.0
  0
TEXT
  8
SIZE
  6
CONTINUOUS
 62
    30
 10
-164.77257142857141
 20
246.80162574068657
 30
0.0
 40
64.0
  1
30
 50
0.0
 41
0.9
 51
0.0
  7
STANDARD
 71
     0
 72
     1
 11
-110.62857142857141
 21
246.80162574068657
 31
0.0
210
0.0
220
0.0
230
1.0
  0
POINT
  8
DEFPOINTS
  6
CONTINUOUS
 62
    30
 10
-15.0
 20
40.499999999999091
 30
0.0
  0
POINT
  8
DEFPOINTS
  6
CONTINUOUS
 62
    30
 10
15.0
 20
40.499999999999091
 30
0.0
  0
POINT
  8
DEFPOINTS
  6
CONTINUOUS
 62
    30
 10
15.000000000000011
 20
221.8016257406866
 30
0.0
  0
LINE
  8
SIZE
  6
CONTINUOUS
 62
    30
 10
-43.318447632723156
 20
32.499999999999197
 30
0.0
 11
-307.38125111562698
 21
32.499999999999282
 31
0.0
  0
LINE
  8
SIZE
  6
CONTINUOUS
 62
    30
 10
-145.45612470509059
 20
0.0000000000000057
 30
0.0
 11
-307.38125111562698
 21
0.0000000000000515
 31
0.0
  0
LINE
  8
SIZE
  6
CONTINUOUS
 62
    30
 10
-287.38125111562698
 20
-11.99999999999995
 30
0.0
 11
-287.38125111562698
 21
-23.99999999999995
 31
0.0
  0
LINE
  8
SIZE
  6
CONTINUOUS
 62
    30
 10
-287.38125111562698
 20
44.499999999999268
 30
0.0
 11
-287.38125111562698
 21
282.04285714285652
 31
0.0
  0
LINE
  8
SIZE
  6
CONTINUOUS
 62
    30
 10
-287.38125111562698
 20
0.0000000000000459
 30
0.0
 11
-287.38125111562698
 21
32.499999999999268
 31
0.0
  0
CIRCLE
  8
SIZE
  6
CONTINUOUS
 62
    30
 10
-287.38125111562698
 20
0.0000000000000459
 30
0.0
 40
6.0
  0
LINE
  8
SIZE
  6
CONTINUOUS
 62
    30
 10
-287.38125111562698
 20
0.0000000000000459
 30
0.0
 11
-287.38125111562698
 21
-11.999999999999954
 31
0.0
  0
CIRCLE
  8
SIZE
  6
CONTINUOUS
 62
    30
 10
-287.38125111562698
 20
32.499999999999268
 30
0.0
 40
6.0
  0
LINE
  8
SIZE
  6
CONTINUOUS
 62
    30
 10
-287.38125111562698
 20
32.499999999999268
 30
0.0
 11
-287.38125111562698
 21
44.499999999999268
 31
0.0
  0
TEXT
  8
SIZE
  6
CONTINUOUS
 62
    30
 10
-312.38125111562698
 20
75.095428571427817
 30
0.0
 40
64.0
  1
32.5
 50
90.0
 41
0.9
 51
0.0
  7
STANDARD
 71
     0
 72
     1
 11
-312.38125111562698
 21
169.2714285714278
 31
0.0
210
0.0
220
0.0
230
1.0
  0
POINT
  8
DEFPOINTS
  6
CONTINUOUS
 62
    30
 10
-23.318447632723149
 20
32.499999999999197
 30
0.0
  0
POINT
  8
DEFPOINTS
  6
CONTINUOUS
 62
    30
 10
-125.4561247050906
 20
0.0
 30
0.0
  0
POINT
  8
DEFPOINTS
  6
CONTINUOUS
 62
    30
 10
-287.38125111562698
 20
0.0000000000000459
 30
0.0
  0
LINE
  8
SIZE
  6
CONTINUOUS
 62
    30
 10
-145.45612470509059
 20
0.0000000000000057
 30
0.0
 11
-307.38125111562698
 21
0.0000000000000515
 31
0.0
  0
LINE
  8
SIZE
  6
CONTINUOUS
 62
    30
 10
-39.999999999999822
 20
-15.00000000000005
 30
0.0
 11
-307.38125111562698
 21
-14.99999999999998
 31
0.0
  0
LINE
  8
SIZE
  6
CONTINUOUS
 62
    30
 10
-287.38125111562698
 20
12.00000000000005
 30
0.0
 11
-287.38125111562698
 21
24.00000000000005
 31
0.0
  0
LINE
  8
SIZE
  6
CONTINUOUS
 62
    30
 10
-287.38125111562698
 20
-26.999999999999989
 30
0.0
 11
-287.38125111562709
 21
-171.28571428571431
 31
0.0
  0
LINE
  8
SIZE
  6
CONTINUOUS
 62
    30
 10
-287.38125111562698
 20
0.0000000000000459
 30
0.0
 11
-287.38125111562698
 21
-14.99999999999998
 31
0.0
  0
CIRCLE
  8
SIZE
  6
CONTINUOUS
 62
    30
 10
-287.38125111562698
 20
0.0000000000000459
 30
0.0
 40
6.0
  0
LINE
  8
SIZE
  6
CONTINUOUS
 62
    30
 10
-287.38125111562698
 20
0.0000000000000459
 30
0.0
 11
-287.38125111562698
 21
12.000000000000046
 31
0.0
  0
CIRCLE
  8
SIZE
  6
CONTINUOUS
 62
    30
 10
-287.38125111562698
 20
-14.99999999999998
 30
0.0
 40
6.0
  0
LINE
  8
SIZE
  6
CONTINUOUS
 62
    30
 10
-287.38125111562698
 20
-14.99999999999998
 30
0.0
 11
-287.38125111562698
 21
-26.999999999999979
 31
0.0
  0
TEXT
  8
SIZE
  6
CONTINUOUS
 62
    30
 10
-312.38125111562698
 20
-152.95085714285719
 30
0.0
 40
64.0
  1
15
 50
90.0
 41
0.9
 51
0.0
  7
STANDARD
 71
     0
 72
     1
 11
-312.38125111562698
 21
-105.1428571428572
 31
0.0
210
0.0
220
0.0
230
1.0
  0
POINT
  8
DEFPOINTS
  6
CONTINUOUS
 62
    30
 10
-125.4561247050906
 20
0.0
 30
0.0
  0
POINT
  8
DEFPOINTS
  6
CONTINUOUS
 62
    30
 10
-19.999999999999819
 20
-15.00000000000006
 30
0.0
  0
POINT
  8
DEFPOINTS
  6
CONTINUOUS
 62
    30
 10
-287.38125111562698
 20
-14.99999999999998
 30
0.0
  0
LINE
  8
SIZE
  6
CONTINUOUS
 62
    30
 10
39.999999999999993
 20
47.499999999999091
 30
0.0
 11
516.75212587483566
 21
47.499999999998963
 31
0.0
  0
LINE
  8
SIZE
  6
CONTINUOUS
 62
    30
 10
52.0
 20
-15.000000000000121
 30
0.0
 11
516.75212587483566
 21
-15.00000000000025
 31
0.0
  0
LINE
  8
SIZE
  6
CONTINUOUS
 62
    30
 10
496.75212587483571
 20
59.499999999998963
 30
0.0
 11
496.75212587483571
 21
71.499999999998948
 31
0.0
  0
LINE
  8
SIZE
  6
CONTINUOUS
 62
    30
 10
496.75212587483571
 20
-27.000000000000249
 30
0.0
 11
496.7521258748356
 21
-264.54285714285737
 31
0.0
  0
LINE
  8
SIZE
  6
CONTINUOUS
 62
    30
 10
496.75212587483571
 20
47.499999999998963
 30
0.0
 11
496.75212587483571
 21
-15.00000000000025
 31
0.0
  0
CIRCLE
  8
SIZE
  6
CONTINUOUS
 62
    30
 10
496.75212587483571
 20
47.499999999998963
 30
0.0
 40
6.0
  0
LINE
  8
SIZE
  6
CONTINUOUS
 62
    30
 10
496.75212587483571
 20
47.499999999998963
 30
0.0
 11
496.75212587483571
 21
59.499999999998963
 31
0.0
  0
CIRCLE
  8
SIZE
  6
CONTINUOUS
 62
    30
 10
496.75212587483571
 20
-15.00000000000025
 30
0.0
 40
6.0
  0
LINE
  8
SIZE
  6
CONTINUOUS
 62
    30
 10
496.75212587483571
 20
-15.00000000000025
 30
0.0
 11
496.75212587483571
 21
-27.000000000000249
 31
0.0
  0
TEXT
  8
SIZE
  6
CONTINUOUS
 62
    30
 10
471.75212587483571
 20
-245.94742857142879
 30
0.0
 40
64.0
  1
62.5
 50
90.0
 41
0.9
 51
0.0
  7
STANDARD
 71
     0
 72
     1
 11
471.75212587483571
 21
-151.7714285714288
 31
0.0
210
0.0
220
0.0
230
1.0
  0
POINT
  8
DEFPOINTS
  6
CONTINUOUS
 62
    30
 10
20.0
 20
47.499999999999091
 30
0.0
  0
POINT
  8
DEFPOINTS
  6
CONTINUOUS
 62
    30
 10
32.0
 20
-15.00000000000011
 30
0.0
  0
POINT
  8
DEFPOINTS
  6
CONTINUOUS
 62
    30
 10
496.75212587483571
 20
-15.00000000000025
 30
0.0
  0
TEXT
  8
NOTE
  6
CONTINUOUS
 62
     4
 10
139.9079132539182
 20
187.46983574710609
 30
0.0
 40
64.0
  1
2-φ6×10
 50
0.0
 41
0.9
 51
0.0
  7
STANDARD
 71
     0
 11
0.0
 21
0.0
 31
0.0
210
0.0
220
0.0
230
1.0
  0
TEXT
  8
NOTE
  6
CONTINUOUS
 62
     4
 10
75.513325249361515
 20
-275.35949428525191
 30
0.0
 40
64.0
  1
M8
 50
0.0
 41
0.9
 51
0.0
  7
STANDARD
 71
     0
 11
0.0
 21
0.0
 31
0.0
210
0.0
220
0.0
230
1.0
  0
TEXT
  8
NOTE
  6
CONTINUOUS
 62
     4
 10
-236.39700883703949
 20
-149.2363660654764
 30
0.0
 40
64.0
  1
右用
 50
0.0
 41
0.9
 51
0.0
  7
STANDARD
 71
     0
 72
     2
 11
-98.157008837039484
 21
-149.2363660654764
 31
0.0
210
0.0
220
0.0
230
1.0
  0
TEXT
  8
NOTE
  6
CONTINUOUS
 62
     4
 10
193.38289645247821
 20
-130.47460874946819
 30
0.0
 40
64.0
  1
左用
 50
0.0
 41
0.9
 51
0.0
  7
STANDARD
 71
     0
 11
0.0
 21
0.0
 31
0.0
210
0.0
220
0.0
230
1.0
  0
LINE
  8
SIZE
  6
CONTINUOUS
 62
    30
 10
-52.0
 20
9.0000000000000071
 30
0.0
 11
-89.251043657583978
 21
9.000000000000016
 31
0.0
  0
LINE
  8
SIZE
  6
CONTINUOUS
 62
    30
 10
-52.0
 20
-14.999999999999879
 30
0.0
 11
-89.251043657583978
 21
-14.99999999999987
 31
0.0
  0
LINE
  8
SIZE
  6
CONTINUOUS
 62
    30
 10
-69.251043657583978
 20
-26.999999999999879
 30
0.0
 11
-69.251043657583992
 21
-38.999999999999879
 31
0.0
  0
LINE
  8
SIZE
  6
CONTINUOUS
 62
    30
 10
-69.251043657583978
 20
21.000000000000011
 30
0.0
 11
-69.251043657583935
 21
184.0593428326211
 31
0.0
  0
LINE
  8
SIZE
  6
CONTINUOUS
 62
    30
 10
-69.251043657583978
 20
-14.999999999999879
 30
0.0
 11
-69.251043657583978
 21
9.0000000000000107
 31
0.0
  0
CIRCLE
  8
SIZE
  6
CONTINUOUS
 62
    30
 10
-69.251043657583978
 20
-14.999999999999879
 30
0.0
 40
6.0
  0
LINE
  8
SIZE
  6
CONTINUOUS
 62
    30
 10
-69.251043657583978
 20
-14.999999999999879
 30
0.0
 11
-69.251043657583978
 21
-26.999999999999879
 31
0.0
  0
CIRCLE
  8
SIZE
  6
CONTINUOUS
 62
    30
 10
-69.251043657583978
 20
9.0000000000000107
 30
0.0
 40
6.0
  0
LINE
  8
SIZE
  6
CONTINUOUS
 62
    30
 10
-69.251043657583978
 20
9.0000000000000107
 30
0.0
 11
-69.251043657583978
 21
21.000000000000011
 31
0.0
  0
TEXT
  8
SIZE
  6
CONTINUOUS
 62
    30
 10
-94.251043657584006
 20
56.915342832621093
 30
0.0
 40
64.0
  1
24
 50
90.0
 41
0.9
 51
0.0
  7
STANDARD
 71
     0
 72
     1
 11
-94.251043657584006
 21
111.0593428326211
 31
0.0
210
0.0
220
0.0
230
1.0
  0
POINT
  8
DEFPOINTS
  6
CONTINUOUS
 62
    30
 10
-32.0
 20
9.0
 30
0.0
  0
POINT
  8
DEFPOINTS
  6
CONTINUOUS
 62
    30
 10
-32.0
 20
-14.99999999999989
 30
0.0
  0
POINT
  8
DEFPOINTS
  6
CONTINUOUS
 62
    30
 10
-69.251043657583978
 20
-14.999999999999879
 30
0.0
  0
LINE
  8
SIZE
  6
CONTINUOUS
 62
    30
 10
-45.0
 20
14.79999999999996
 30
0.0
 11
-199.8742215422653
 21
14.800000000000001
 31
0.0
  0
LINE
  8
SIZE
  6
CONTINUOUS
 62
    30
 10
-52.0
 20
-15.00000000000011
 30
0.0
 11
-199.8742215422653
 21
-15.000000000000069
 31
0.0
  0
LINE
  8
SIZE
  6
CONTINUOUS
 62
    30
 10
-179.8742215422653
 20
-27.000000000000071
 30
0.0
 11
-179.8742215422653
 21
-39.000000000000071
 31
0.0
  0
LINE
  8
SIZE
  6
CONTINUOUS
 62
    30
 10
-179.8742215422653
 20
26.800000000000001
 30
0.0
 11
-179.8742215422653
 21
188.91862636842879
 31
0.0
  0
LINE
  8
SIZE
  6
CONTINUOUS
 62
    30
 10
-179.8742215422653
 20
-15.000000000000069
 30
0.0
 11
-179.8742215422653
 21
14.800000000000001
 31
0.0
  0
CIRCLE
  8
SIZE
  6
CONTINUOUS
 62
    30
 10
-179.8742215422653
 20
-15.000000000000069
 30
0.0
 40
6.0
  0
LINE
  8
SIZE
  6
CONTINUOUS
 62
    30
 10
-179.8742215422653
 20
-15.000000000000069
 30
0.0
 11
-179.8742215422653
 21
-27.000000000000071
 31
0.0
  0
CIRCLE
  8
SIZE
  6
CONTINUOUS
 62
    30
 10
-179.8742215422653
 20
14.800000000000001
 30
0.0
 40
6.0
  0
LINE
  8
SIZE
  6
CONTINUOUS
 62
    30
 10
-179.8742215422653
 20
14.800000000000001
 30
0.0
 11
-179.8742215422653
 21
26.800000000000001
 31
0.0
  0
TEXT
  8
SIZE
  6
CONTINUOUS
 62
    30
 10
-204.8742215422653
 20
63.146054939857322
 30
0.0
 40
64.0
  1
30
 50
90.0
 41
0.9
 51
0.0
  7
STANDARD
 71
     0
 72
     1
 11
-204.8742215422653
 21
117.29005493985733
 31
0.0
210
0.0
220
0.0
230
1.0
  0
POINT
  8
DEFPOINTS
  6
CONTINUOUS
 62
    30
 10
-25.0
 20
14.799999999999949
 30
0.0
  0
POINT
  8
DEFPOINTS
  6
CONTINUOUS
 62
    30
 10
-32.0
 20
-15.00000000000011
 30
0.0
  0
POINT
  8
DEFPOINTS
  6
CONTINUOUS
 62
    30
 10
-179.8742215422653
 20
-15.000000000000069
 30
0.0
  0
LINE
  8
DETAIL
  6
CONTINUOUS
 62
     4
 10
20.203713374955647
 20
35.892059315710988
 30
0.0
 11
15.0
 21
32.499999999999112
 31
0.0
  0
LINE
  8
DETAIL
  6
CONTINUOUS
 62
     4
 10
15.0
 20
32.499999999999112
 30
0.0
 11
17.810509971201387
 21
38.039470461313769
 31
0.0
  0
LINE
  8
DETAIL
  6
CONTINUOUS
 62
     4
 10
15.0
 20
32.499999999999112
 30
0.0
 11
23.014223346157031
 21
41.431529777025645
 31
0.0
  0
LINE
  8
NOTE
  6
CONTINUOUS
 62
     4
 10
23.014223346157031
 20
41.431529777025638
 30
0.0
 11
102.9079132539182
 21
130.46983574710609
 31
0.0
  0
LINE
  8
NOTE
  6
CONTINUOUS
 62
     4
 10
102.9079132539182
 20
130.46983574710609
 30
0.0
 11
532.68505611106093
 21
130.46983574710609
 31
0.0
  0
LINE
  8
DETAIL
  6
CONTINUOUS
 62
     4
 10
32.972281466064693
 20
-20.27985542385877
 30
0.0
 11
29.700000000000049
 21
-15.000000000000099
 31
0.0
  0
LINE
  8
DETAIL
  6
CONTINUOUS
 62
     4
 10
29.700000000000049
 20
-15.000000000000099
 30
0.0
 11
35.173811014779652
 21
-17.936339943616552
 31
0.0
  0
LINE
  8
DETAIL
  6
CONTINUOUS
 62
     4
 10
29.700000000000049
 20
-15.000000000000099
 30
0.0
 11
38.4460924808443
 21
-23.216195367475223
 31
0.0
  0
LINE
  8
NOTE
  6
CONTINUOUS
 62
     4
 10
38.4460924808443
 20
-23.216195367475219
 30
0.0
 11
177.9766245576084
 21
-154.2930292543019
 31
0.0
  0
LINE
  8
NOTE
  6
CONTINUOUS
 62
     4
 10
177.9766245576084
 20
-154.2930292543019
 30
0.0
 11
324.0166245576084
 21
-154.2930292543019
 31
0.0
  0
LINE
  8
DETAIL
  6
CONTINUOUS
 62
     4
 10
-32.464155542767834
 20
-20.562746032795964
 30
0.0
 11
-29.700000000000049
 21
-15.000000000000099
 31
0.0
  0
LINE
  8
DETAIL
  6
CONTINUOUS
 62
     4
 10
-29.700000000000049
 20
-15.000000000000099
 30
0.0
 11
-29.312446561267205
 21
-21.199556566572127
 31
0.0
  0
LINE
  8
DETAIL
  6
CONTINUOUS
 62
     4
 10
-29.700000000000049
 20
-15.000000000000099
 30
0.0
 11
-32.076602104034983
 21
-26.762302599367992
 31
0.0
  0
LINE
  8
NOTE
  6
CONTINUOUS
 62
     4
 10
-32.076602104034983
 20
-26.762302599367999
 30
0.0
 11
-62.726491679286028
 21
-178.45503871587789
 31
0.0
  0
LINE
  8
NOTE
  6
CONTINUOUS
 62
     4
 10
-62.726491679286028
 20
-178.45503871587789
 30
0.0
 11
-253.76649167928599
 21
-178.45503871587789
 31
0.0
  0
LINE
  8
DETAIL
  6
CONTINUOUS
 62
     4
 10
0.5188705511024709
 20
-13.088753670277342
 30
0.0
 11
1.133648547248965
 21
-6.9075929940407104
 31
0.0
  0
LINE
  8
DETAIL
  6
CONTINUOUS
 62
     4
 10
1.133648547248965
 20
-6.9075929940407104
 30
0.0
 11
3.6918240529651145
 21
-12.568020307588153
 31
0.0
  0
LINE
  8
DETAIL
  6
CONTINUOUS
 62
     4
 10
1.133648547248965
 20
-6.9075929940407104
 30
0.0
 11
3.0770460568186202
 21
-18.749180983824786
 31
0.0
  0
LINE
  8
NOTE
  6
CONTINUOUS
 62
     4
 10
1.9433975095696561
 20
-11.841587989784079
 30
0.0
 11
50.107053354491647
 21
-305.31431592572562
 31
0.0
  0
LINE
  8
NOTE
  6
CONTINUOUS
 62
     4
 10
50.107053354491647
 20
-305.31431592572562
 30
0.0
 11
191.335624783063
 21
-305.31431592572562
 31
0.0
  0
LINE
  8
SIZE
  6
CONTINUOUS
 62
    30
 10
-25.0
 20
62.499999999999091
 30
0.0
 11
-24.999999999999979
 21
367.13981617215768
 31
0.0
  0
LINE
  8
SIZE
  6
CONTINUOUS
 62
    30
 10
25.0
 20
62.499999999999091
 30
0.0
 11
25.000000000000021
 21
367.13981617215768
 31
0.0
  0
LINE
  8
SIZE
  6
CONTINUOUS
 62
    30
 10
37.000000000000007
 20
347.13981617215768
 30
0.0
 11
49.000000000000007
 21
347.13981617215768
 31
0.0
  0
LINE
  8
SIZE
  6
CONTINUOUS
 62
    30
 10
-36.999999999999993
 20
347.13981617215768
 30
0.0
 11
-192.25714285714281
 21
347.13981617215768
 31
0.0
  0
LINE
  8
SIZE
  6
CONTINUOUS
 62
    30
 10
25.000000000000021
 20
347.13981617215768
 30
0.0
 11
-24.999999999999979
 21
347.13981617215768
 31
0.0
  0
CIRCLE
  8
SIZE
  6
CONTINUOUS
 62
    30
 10
25.000000000000021
 20
347.13981617215768
 30
0.0
 40
6.0
  0
LINE
  8
SIZE
  6
CONTINUOUS
 62
    30
 10
25.000000000000021
 20
347.13981617215768
 30
0.0
 11
37.000000000000021
 21
347.13981617215768
 31
0.0
  0
CIRCLE
  8
SIZE
  6
CONTINUOUS
 62
    30
 10
-24.999999999999979
 20
347.13981617215768
 30
0.0
 40
6.0
  0
LINE
  8
SIZE
  6
CONTINUOUS
 62
    30
 10
-24.999999999999979
 20
347.13981617215768
 30
0.0
 11
-36.999999999999979
 21
347.13981617215768
 31
0.0
  0
TEXT
  8
SIZE
  6
CONTINUOUS
 62
    30
 10
-174.77257142857141
 20
372.13981617215768
 30
0.0
 40
64.0
  1
50
 50
0.0
 41
0.9
 51
0.0
  7
STANDARD
 71
     0
 72
     1
 11
-120.62857142857141
 21
372.13981617215768
 31
0.0
210
0.0
220
0.0
230
1.0
  0
POINT
  8
DEFPOINTS
  6
CONTINUOUS
 62
    30
 10
-25.0
 20
42.499999999999091
 30
0.0
  0
POINT
  8
DEFPOINTS
  6
CONTINUOUS
 62
    30
 10
25.0
 20
42.499999999999091
 30
0.0
  0
POINT
  8
DEFPOINTS
  6
CONTINUOUS
 62
    30
 10
25.000000000000021
 20
347.13981617215768
 30
0.0
  0
LINE
  8
SIZE
  6
CONTINUOUS
 62
    30
 10
-25.0
 20
62.499999999999091
 30
0.0
 11
-24.999999999999979
 21
477.22647463759222
 31
0.0
  0
LINE
  8
SIZE
  6
CONTINUOUS
 62
    30
 10
32.0
 20
29.0
 30
0.0
 11
32.000000000000028
 21
477.22647463759222
 31
0.0
  0
LINE
  8
SIZE
  6
CONTINUOUS
 62
    30
 10
-36.999999999999972
 20
457.22647463759222
 30
0.0
 11
-48.999999999999972
 21
457.22647463759222
 31
0.0
  0
LINE
  8
SIZE
  6
CONTINUOUS
 62
    30
 10
44.000000000000028
 20
457.22647463759222
 30
0.0
 11
56.000000000000028
 21
457.22647463759222
 31
0.0
  0
LINE
  8
SIZE
  6
CONTINUOUS
 62
    30
 10
-24.999999999999979
 20
457.22647463759222
 30
0.0
 11
32.000000000000028
 21
457.22647463759222
 31
0.0
  0
CIRCLE
  8
SIZE
  6
CONTINUOUS
 62
    30
 10
-24.999999999999979
 20
457.22647463759222
 30
0.0
 40
6.0
  0
LINE
  8
SIZE
  6
CONTINUOUS
 62
    30
 10
-24.999999999999979
 20
457.22647463759222
 30
0.0
 11
-36.999999999999979
 21
457.22647463759222
 31
0.0
  0
CIRCLE
  8
SIZE
  6
CONTINUOUS
 62
    30
 10
32.000000000000028
 20
457.22647463759222
 30
0.0
 40
6.0
  0
LINE
  8
SIZE
  6
CONTINUOUS
 62
    30
 10
32.000000000000028
 20
457.22647463759222
 30
0.0
 11
44.000000000000028
 21
457.22647463759222
 31
0.0
  0
TEXT
  8
SIZE
  6
CONTINUOUS
 62
    30
 10
-50.067999999999977
 20
482.22647463759222
 30
0.0
 40
64.0
  1
57
 50
0.0
 41
0.9
 51
0.0
  7
STANDARD
 71
     0
 72
     1
 11
3.5000000000000284
 21
482.22647463759222
 31
0.0
210
0.0
220
0.0
230
1.0
  0
POINT
  8
DEFPOINTS
  6
CONTINUOUS
 62
    30
 10
-25.0
 20
42.499999999999091
 30
0.0
  0
POINT
  8
DEFPOINTS
  6
CONTINUOUS
 62
    30
 10
32.0
 20
9.0
 30
0.0
  0
POINT
  8
DEFPOINTS
  6
CONTINUOUS
 62
    30
 10
32.000000000000028
 20
457.22647463759222
 30
0.0
  0
ENDSEC
  0
EOF
