  0
SECTION
  2
HEADER
  9
$ACADVER
  1
AC1009
  9
$DWGCODEPAGE
  3
dos932
  9
$INSBASE
 10
0.0
 20
0.0
 30
0.0
  9
$EXTMIN
 10
-948.57688100000007
 20
-939.99017500864466
 30
0.0
  9
$EXTMAX
 10
1206.2149999999999
 20
1200.2
 30
0.0
  9
$LIMMIN
 10
-2970.0
 20
-2100.0
  9
$LIMMAX
 10
2970.0
 20
2100.0
  9
$ORTHOMODE
 70
     1
  9
$REGENMODE
 70
     1
  9
$FILLMODE
 70
     1
  9
$QTEXTMODE
 70
     0
  9
$MIRRTEXT
 70
     0
  9
$LTSCALE
 40
20.0
  9
$ATTMODE
 70
     1
  9
$TEXTSIZE
 40
64.0
  9
$TRACEWID
 40
0.05
  9
$TEXTSTYLE
  7
STANDARD
  9
$CLAYER
  8
SIZE
  9
$CELTYPE
  6
CONTINUOUS
  9
$CECOLOR
 62
     7
  9
$DIMSCALE
 40
1.0
  9
$DIMASZ
 40
12.0
  9
$DIMEXO
 40
20.0
  9
$DIMDLI
 40
200.0
  9
$DIMRND
 40
0.0
  9
$DIMDLE
 40
0.0
  9
$DIMEXE
 40
20.0
  9
$DIMTP
 40
0.0
  9
$DIMTM
 40
0.0
  9
$DIMTXT
 40
64.0
  9
$DIMCEN
 40
0.09
  9
$DIMTSZ
 40
0.0
  9
$DIMTOL
 70
     0
  9
$DIMLIM
 70
     0
  9
$DIMTIH
 70
     0
  9
$DIMTOH
 70
     0
  9
$DIMSE1
 70
     0
  9
$DIMSE2
 70
     0
  9
$DIMTAD
 70
     1
  9
$DIMZIN
 70
     8
  9
$DIMBLK
  1

  9
$DIMASO
 70
     1
  9
$DIMSHO
 70
     0
  9
$DIMPOST
  1

  9
$DIMAPOST
  1

  9
$DIMALT
 70
     0
  9
$DIMALTD
 70
     2
  9
$DIMALTF
 40
25.399999999999999
  9
$DIMLFAC
 40
1.0
  9
$DIMTOFL
 70
     1
  9
$DIMTVP
 40
0.0
  9
$DIMTIX
 70
     1
  9
$DIMSOXD
 70
     0
  9
$DIMSAH
 70
     0
  9
$DIMBLK1
  1

  9
$DIMBLK2
  1

  9
$DIMSTYLE
  2
STANDARD
  9
$DIMCLRD
 70
     7
  9
$DIMCLRE
 70
     7
  9
$DIMCLRT
 70
     7
  9
$DIMTFAC
 40
1.0
  9
$DIMGAP
 40
25.0
  9
$LUNITS
 70
     2
  9
$LUPREC
 70
     4
  9
$SKETCHINC
 40
0.1
  9
$FILLETRAD
 40
3.0
  9
$AUNITS
 70
     1
  9
$AUPREC
 70
     3
  9
$MENU
  1
ACAD
  9
$ELEVATION
 40
0.0
  9
$PELEVATION
 40
0.0
  9
$THICKNESS
 40
50.0
  9
$LIMCHECK
 70
     0
  9
$CHAMFERA
 40
0.0
  9
$CHAMFERB
 40
0.0
  9
$SKPOLY
 70
     0
  9
$TDCREATE
 40
2453019.62301037
  9
$TDUPDATE
 40
2458509.624508217
  9
$TDINDWG
 40
1.7196456134
  9
$TDUSRTIMER
 40
1.7196456134
  9
$USRTIMER
 70
     1
  9
$ANGBASE
 50
0.0
  9
$ANGDIR
 70
     0
  9
$PDMODE
 70
     3
  9
$PDSIZE
 40
-2.0
  9
$PLINEWID
 40
0.0
  9
$SPLFRAME
 70
     0
  9
$SPLINETYPE
 70
     6
  9
$SPLINESEGS
 70
     8
  9
$SURFTAB1
 70
     6
  9
$SURFTAB2
 70
     6
  9
$SURFTYPE
 70
     6
  9
$SURFU
 70
     6
  9
$SURFV
 70
     6
  9
$UCSNAME
  2

  9
$UCSORG
 10
0.0
 20
0.0
 30
0.0
  9
$UCSXDIR
 10
1.0
 20
0.0
 30
0.0
  9
$UCSYDIR
 10
0.0
 20
1.0
 30
0.0
  9
$PUCSNAME
  2

  9
$PUCSORG
 10
0.0
 20
0.0
 30
0.0
  9
$PUCSXDIR
 10
1.0
 20
0.0
 30
0.0
  9
$PUCSYDIR
 10
0.0
 20
1.0
 30
0.0
  9
$USERI1
 70
     0
  9
$USERI2
 70
     0
  9
$USERI3
 70
     0
  9
$USERI4
 70
     0
  9
$USERI5
 70
     0
  9
$USERR1
 40
20.0
  9
$USERR2
 40
0.0
  9
$USERR3
 40
0.0
  9
$USERR4
 40
0.0
  9
$USERR5
 40
0.0
  9
$WORLDVIEW
 70
     1
  9
$SHADEDGE
 70
     3
  9
$SHADEDIF
 70
    70
  9
$TILEMODE
 70
     1
  9
$MAXACTVP
 70
    48
  9
$PINSBASE
 10
0.0
 20
0.0
 30
0.0
  9
$PLIMCHECK
 70
     0
  9
$PEXTMIN
 10
-100000000000000000000.0
 20
-100000000000000000000.0
 30
-100000000000000000000.0
  9
$PEXTMAX
 10
100000000000000000000.0
 20
100000000000000000000.0
 30
100000000000000000000.0
  9
$PLIMMIN
 10
0.0
 20
0.0
  9
$PLIMMAX
 10
12.0
 20
9.0
  9
$UNITMODE
 70
     0
  9
$VISRETAIN
 70
     0
  9
$PLINEGEN
 70
     0
  9
$PSLTSCALE
 70
     0
  9
$TREEDEPTH
 70
  3020
  9
$ATTDIA
 70
     0
  9
$ATTREQ
 70
     1
  9
$BLIPMODE
 70
     1
  9
$COORDS
 70
     1
  9
$DRAGMODE
 70
     2
  9
$OSMODE
 70
     0
  9
$HANDLING
 70
     0
  9
$HANDSEED
  5
F00A
  0
ENDSEC
  0
SECTION
  2
TABLES
  0
TABLE
  2
LTYPE
 70
     2
  0
LTYPE
  2
CONTINUOUS
 70
     0
  3
実線
 72
    65
 73
     0
 40
0.0
  0
LTYPE
  2
DASHDOT
 70
     0
  3
____ _ ____ _ ____ _ ____ _ ____ _ ____ _ ____
 72
    65
 73
     4
 40
5.5
 49
4.0
 49
-0.6
 49
0.3
 49
-0.6
  0
ENDTAB
  0
TABLE
  2
LAYER
 70
    12
  0
LAYER
  2
0
 70
     0
 62
     7
  6
CONTINUOUS
  0
LAYER
  2
BASIS
 70
     0
 62
     6
  6
DASHDOT
  0
LAYER
  2
OUTLINE
 70
     0
 62
     3
  6
CONTINUOUS
  0
LAYER
  2
DETAIL
 70
     0
 62
     5
  6
CONTINUOUS
  0
LAYER
  2
SIZE
 70
     0
 62
    30
  6
CONTINUOUS
  0
LAYER
  2
ARRANGE
 70
     0
 62
     1
  6
CONTINUOUS
  0
LAYER
  2
DEFPOINTS
 70
     0
 62
     7
  6
CONTINUOUS
  0
LAYER
  2
ETC
 70
     0
 62
    61
  6
CONTINUOUS
  0
LAYER
  2
FIX
 70
     0
 62
    11
  6
CONTINUOUS
  0
LAYER
  2
NOTE
 70
     0
 62
     4
  6
CONTINUOUS
  0
LAYER
  2
SERVICESPACE
 70
    64
 62
     2
  6
DASHDOT
  0
LAYER
  2
SYMBOLLINE
 70
    64
 62
    15
  6
CONTINUOUS
  0
ENDTAB
  0
TABLE
  2
STYLE
 70
     1
  0
STYLE
  2
STANDARD
 70
     0
 40
64.0
 41
0.9
 50
0.0
 71
     0
 42
64.0
  3
SIMPLEX.shx
  4
BIGFONT.shx
  0
ENDTAB
  0
TABLE
  2
APPID
 70
    18
  0
APPID
  2
ACAD
 70
     0
  0
APPID
  2
AUTOCAD_POSTSCRIPT_FIGURE
 70
     0
  0
APPID
  2
ACAD_EXEMPT_FROM_CAD_STANDARDS
 70
     0
  0
APPID
  2
ACAD_PSEXT
 70
     0
  0
APPID
  2
ACAUTHENVIRON
 70
     0
  0
APPID
  2
GENIUS_GENOENT_13
 70
     0
  0
APPID
  2
GENIUS_GENCFG_13
 70
     0
  0
APPID
  2
GENIUS_GENCFG0_13
 70
     0
  0
APPID
  2
GENIUS_GENCFG1_13
 70
     0
  0
APPID
  2
GENIUS_GENCFG2_13
 70
     0
  0
APPID
  2
GENIUS_GENCFG3_13
 70
     0
  0
APPID
  2
GENIUS_GENCFG4_13
 70
     0
  0
APPID
  2
GENIUS_GEVCFG0_13
 70
     0
  0
APPID
  2
CONTENTBLOCKICON
 70
     0
  0
APPID
  2
CONTENTBLOCKDESCRIPTION
 70
     0
  0
APPID
  2
ACAD_NAV_VCDISPLAY
 70
     0
  0
APPID
  2
ACAD_MLEADERVER
 70
     0
  0
APPID
  2
ACADANNOMONITORALERTICONDISABLE
 70
     0
  0
ENDTAB
  0
TABLE
  2
DIMSTYLE
 70
     1
  0
DIMSTYLE
  2
STANDARD
 70
     0
  3

  4

  5
_ORIGIN
  6

  7

 40
1.0
 41
12.0
 42
20.0
 43
200.0
 44
20.0
 45
0.0
 46
0.0
 47
0.0
 48
0.0
140
64.0
141
0.09
142
0.0
143
25.399999999999999
144
1.0
145
0.0
146
1.0
147
25.0
 71
     0
 72
     0
 73
     0
 74
     0
 75
     0
 76
     0
 77
     1
 78
     8
170
     0
171
     2
172
     1
173
     0
174
     1
175
     0
176
     7
177
     7
178
     7
  0
ENDTAB
  0
TABLE
  2
VIEW
 70
     1
  0
VIEW
  2
ALL
 70
     0
 40
4282.6198079999986
 10
0.0
 20
41.309904000000003
 41
5940.0
 11
0.0
 21
0.0
 31
1.0
 12
0.0
 22
0.0
 32
0.0
 42
50.0
 43
0.0
 44
0.0
 50
0.0
 71
     0
  0
ENDTAB
  0
TABLE
  2
UCS
 70
     0
  0
ENDTAB
  0
TABLE
  2
VPORT
 70
     1
  0
VPORT
  2
*ACTIVE
 70
     0
 10
0.0
 20
0.0
 11
1.0
 21
1.0
 12
478.45286826313583
 22
147.51443339564321
 13
0.0
 23
0.0
 14
1.0
 24
1.0
 15
0.0
 25
0.0
 16
0.0
 26
0.0
 36
1.0
 17
0.0
 27
0.0
 37
0.0
 40
2366.7963078775279
 41
2.421994884910486
 42
50.0
 43
0.0
 44
0.0
 50
0.0
 51
0.0
 71
     0
 72
  1000
 73
     1
 74
     3
 75
     0
 76
     0
 77
     0
 78
     0
  0
ENDTAB
  0
ENDSEC
  0
SECTION
  2
BLOCKS
  0
BLOCK
  8
0
  2
_ORIGIN
 70
     0
 10
0.0
 20
0.0
 30
0.0
  3
_ORIGIN
  1
_ORIGIN
  0
CIRCLE
  8
0
  6
CONTINUOUS
 62
     7
 10
0.0
 20
0.0
 30
0.0
 40
0.5
  0
LINE
  8
0
  6
CONTINUOUS
 62
     7
 10
0.0
 20
0.0
 30
0.0
 11
-1.0
 21
0.0
 31
0.0
  0
ENDBLK
  8
0
  0
ENDSEC
  0
SECTION
  2
ENTITIES
  0
POINT
  8
ARRANGE
  6
CONTINUOUS
 62
     1
 10
0.0
 20
0.0
 30
0.0
  0
CIRCLE
  8
ARRANGE
  6
CONTINUOUS
 62
     1
 10
0.0
 20
0.0
 30
0.0
 40
40.0
  0
TEXT
  8
ETC
  6
CONTINUOUS
 62
    61
 10
763.24712281148459
 20
1111.477650900219
 30
0.0
 40
40.0
  1
PS-105SHB3_3
 41
0.9
  0
TEXT
  8
ETC
  6
CONTINUOUS
 62
    61
 10
759.06112881148465
 20
1050.781371900219
 30
0.0
 40
40.0
  1
システム部材
 41
0.9
  0
TEXT
  8
ETC
  6
CONTINUOUS
 62
    61
 10
809.66863081148495
 20
968.9112609002193
 30
0.0
 40
40.0
  1
PS-105SHB3
 41
0.9
  0
LINE
  8
BASIS
  6
DASHDOT
 62
     6
 39
50.0
 10
0.0
 20
-744.27461900000003
 30
0.0
 11
0.0
 21
734.00041999999985
 31
0.0
  0
LINE
  8
BASIS
  6
DASHDOT
 62
     6
 39
50.0
 10
-777.91864600000008
 20
0.0
 30
0.0
 11
751.31297600000016
 21
0.0
 31
0.0
  0
LINE
  8
OUTLINE
  6
CONTINUOUS
 62
     3
 10
-605.0
 20
-620.0
 30
0.0
 11
605.0
 21
-620.0
 31
0.0
  0
LINE
  8
OUTLINE
  6
CONTINUOUS
 62
     3
 10
-605.0
 20
620.0
 30
0.0
 11
605.0
 21
620.0
 31
0.0
  0
LINE
  8
OUTLINE
  6
CONTINUOUS
 62
     3
 10
-605.0
 20
-620.0
 30
0.0
 11
605.0
 21
-620.0
 31
0.0
  0
LINE
  8
OUTLINE
  6
CONTINUOUS
 62
     3
 10
-605.0
 20
620.0
 30
0.0
 11
605.0
 21
620.0
 31
0.0
  0
LINE
  8
OUTLINE
  6
CONTINUOUS
 62
     3
 10
-620.0
 20
605.0
 30
0.0
 11
-620.0
 21
-605.0
 31
0.0
  0
LINE
  8
OUTLINE
  6
CONTINUOUS
 62
     3
 10
-620.0
 20
605.0
 30
0.0
 11
-620.0
 21
-605.0
 31
0.0
  0
TEXT
  8
NOTE
  6
CONTINUOUS
 62
     4
 10
-920.09080500000005
 20
-440.54419000000001
 30
0.0
 40
40.0
  1
8-φ15
 41
0.9
  0
LINE
  8
NOTE
  6
CONTINUOUS
 62
     4
 10
-723.31277599999999
 20
-463.14812300000011
 30
0.0
 11
-948.57688100000007
 21
-463.14812300000011
 31
0.0
  0
LINE
  8
NOTE
  6
CONTINUOUS
 62
     4
 10
-605.0
 20
-375.0
 30
0.0
 11
-723.31277599999999
 21
-463.14812300000011
 31
0.0
  0
ARC
  8
OUTLINE
  6
CONTINUOUS
 62
     3
 10
-605.0
 20
-605.0
 30
0.0
 40
15.0
 50
180.0
 51
270.0
  0
CIRCLE
  8
FIX
  6
CONTINUOUS
 62
    11
 10
-605.0
 20
-605.0
 30
0.0
 40
7.5
  0
CIRCLE
  8
FIX
  6
CONTINUOUS
 62
    11
 10
-605.0
 20
-605.0
 30
0.0
 40
7.5
  0
LINE
  8
NOTE
  6
CONTINUOUS
 62
     4
 10
-585.0
 20
-605.0
 30
0.0
 11
-625.0
 21
-605.0
 31
0.0
  0
LINE
  8
NOTE
  6
CONTINUOUS
 62
     4
 10
-605.0
 20
-585.0
 30
0.0
 11
-605.0
 21
-625.0
 31
0.0
  0
ARC
  8
OUTLINE
  6
CONTINUOUS
 62
     3
 10
-605.0
 20
-605.0
 30
0.0
 40
15.0
 50
180.0
 51
270.0
  0
LINE
  8
NOTE
  6
CONTINUOUS
 62
     4
 10
-642.04860999999983
 20
-390.07980400000002
 30
0.0
 11
-605.0
 21
-375.0
 31
0.0
  0
LINE
  8
NOTE
  6
CONTINUOUS
 62
     4
 10
-605.0
 20
-375.0
 30
0.0
 11
-629.54513499999985
 21
-406.583799
 31
0.0
  0
CIRCLE
  8
FIX
  6
CONTINUOUS
 62
    11
 10
-605.0
 20
-375.0
 30
0.0
 40
7.5
  0
CIRCLE
  8
FIX
  6
CONTINUOUS
 62
    11
 10
-605.0
 20
-375.0
 30
0.0
 40
7.5
  0
LINE
  8
NOTE
  6
CONTINUOUS
 62
     4
 10
-585.0
 20
-375.0
 30
0.0
 11
-625.0
 21
-375.0
 31
0.0
  0
LINE
  8
NOTE
  6
CONTINUOUS
 62
     4
 10
-605.0
 20
-355.0
 30
0.0
 11
-605.0
 21
-395.0
 31
0.0
  0
CIRCLE
  8
FIX
  6
CONTINUOUS
 62
    11
 10
-375.0
 20
-605.0
 30
0.0
 40
7.5
  0
CIRCLE
  8
FIX
  6
CONTINUOUS
 62
    11
 10
-375.0
 20
-605.0
 30
0.0
 40
7.5
  0
LINE
  8
NOTE
  6
CONTINUOUS
 62
     4
 10
-355.0
 20
-605.0
 30
0.0
 11
-395.0
 21
-605.0
 31
0.0
  0
LINE
  8
NOTE
  6
CONTINUOUS
 62
     4
 10
-375.0
 20
-585.0
 30
0.0
 11
-375.0
 21
-625.0
 31
0.0
  0
TEXT
  8
NOTE
  6
CONTINUOUS
 62
     4
 10
-909.07680500000004
 20
693.99983100000009
 30
0.0
 40
40.0
  1
4-φ15
 41
0.9
  0
LINE
  8
NOTE
  6
CONTINUOUS
 62
     4
 10
-715.31277599999999
 20
669.88896900000009
 30
0.0
 11
-928.49944200000004
 21
669.88896900000009
 31
0.0
  0
LINE
  8
NOTE
  6
CONTINUOUS
 62
     4
 10
-605.0
 20
605.0
 30
0.0
 11
-715.31277599999999
 21
669.88896900000009
 31
0.0
  0
CIRCLE
  8
FIX
  6
CONTINUOUS
 62
    11
 10
-605.0
 20
375.0
 30
0.0
 40
7.5
  0
CIRCLE
  8
FIX
  6
CONTINUOUS
 62
    11
 10
-605.0
 20
375.0
 30
0.0
 40
7.5
  0
LINE
  8
NOTE
  6
CONTINUOUS
 62
     4
 10
-585.0
 20
375.0
 30
0.0
 11
-625.0
 21
375.0
 31
0.0
  0
LINE
  8
NOTE
  6
CONTINUOUS
 62
     4
 10
-605.0
 20
355.0
 30
0.0
 11
-605.0
 21
395.0
 31
0.0
  0
LINE
  8
NOTE
  6
CONTINUOUS
 62
     4
 10
-605.0
 20
605.0
 30
0.0
 11
-643.29097200000001
 21
616.56725999999981
 31
0.0
  0
ARC
  8
OUTLINE
  6
CONTINUOUS
 62
     3
 10
-605.0
 20
605.0
 30
0.0
 40
15.0
 50
90.0
 51
180.0
  0
LINE
  8
NOTE
  6
CONTINUOUS
 62
     4
 10
-632.37732400000004
 20
634.16302700000006
 30
0.0
 11
-605.0
 21
605.0
 31
0.0
  0
CIRCLE
  8
FIX
  6
CONTINUOUS
 62
    11
 10
-605.0
 20
605.0
 30
0.0
 40
7.5
  0
CIRCLE
  8
FIX
  6
CONTINUOUS
 62
    11
 10
-605.0
 20
605.0
 30
0.0
 40
7.5
  0
LINE
  8
NOTE
  6
CONTINUOUS
 62
     4
 10
-585.0
 20
605.0
 30
0.0
 11
-625.0
 21
605.0
 31
0.0
  0
LINE
  8
NOTE
  6
CONTINUOUS
 62
     4
 10
-605.0
 20
585.0
 30
0.0
 11
-605.0
 21
625.0
 31
0.0
  0
ARC
  8
OUTLINE
  6
CONTINUOUS
 62
     3
 10
-605.0
 20
605.0
 30
0.0
 40
15.0
 50
90.0
 51
180.0
  0
LINE
  8
NOTE
  6
CONTINUOUS
 62
     4
 10
-355.0
 20
605.0
 30
0.0
 11
-395.0
 21
605.0
 31
0.0
  0
LINE
  8
NOTE
  6
CONTINUOUS
 62
     4
 10
-375.0
 20
585.0
 30
0.0
 11
-375.0
 21
625.0
 31
0.0
  0
CIRCLE
  8
FIX
  6
CONTINUOUS
 62
    11
 10
-375.0
 20
605.0
 30
0.0
 40
7.5
  0
CIRCLE
  8
FIX
  6
CONTINUOUS
 62
    11
 10
-375.0
 20
605.0
 30
0.0
 40
7.5
  0
LINE
  8
OUTLINE
  6
CONTINUOUS
 62
     3
 10
620.0
 20
605.0
 30
0.0
 11
620.0
 21
-605.0
 31
0.0
  0
LINE
  8
OUTLINE
  6
CONTINUOUS
 62
     3
 10
620.0
 20
605.0
 30
0.0
 11
620.0
 21
-605.0
 31
0.0
  0
LINE
  8
NOTE
  6
CONTINUOUS
 62
     4
 10
355.0
 20
-605.0
 30
0.0
 11
395.0
 21
-605.0
 31
0.0
  0
LINE
  8
NOTE
  6
CONTINUOUS
 62
     4
 10
375.0
 20
-585.0
 30
0.0
 11
375.0
 21
-625.0
 31
0.0
  0
CIRCLE
  8
FIX
  6
CONTINUOUS
 62
    11
 10
375.0
 20
-605.0
 30
0.0
 40
7.5
  0
CIRCLE
  8
FIX
  6
CONTINUOUS
 62
    11
 10
375.0
 20
-605.0
 30
0.0
 40
7.5
  0
ARC
  8
OUTLINE
  6
CONTINUOUS
 62
     3
 10
605.0
 20
-605.0
 30
0.0
 40
15.0
 50
270.0
 51
0.0
  0
CIRCLE
  8
FIX
  6
CONTINUOUS
 62
    11
 10
605.0
 20
-605.0
 30
0.0
 40
7.5
  0
CIRCLE
  8
FIX
  6
CONTINUOUS
 62
    11
 10
605.0
 20
-605.0
 30
0.0
 40
7.5
  0
LINE
  8
NOTE
  6
CONTINUOUS
 62
     4
 10
585.0
 20
-605.0
 30
0.0
 11
625.0
 21
-605.0
 31
0.0
  0
LINE
  8
NOTE
  6
CONTINUOUS
 62
     4
 10
605.0
 20
-585.0
 30
0.0
 11
605.0
 21
-625.0
 31
0.0
  0
ARC
  8
OUTLINE
  6
CONTINUOUS
 62
     3
 10
605.0
 20
-605.0
 30
0.0
 40
15.0
 50
270.0
 51
0.0
  0
CIRCLE
  8
FIX
  6
CONTINUOUS
 62
    11
 10
605.0
 20
-375.0
 30
0.0
 40
7.5
  0
CIRCLE
  8
FIX
  6
CONTINUOUS
 62
    11
 10
605.0
 20
-375.0
 30
0.0
 40
7.5
  0
LINE
  8
NOTE
  6
CONTINUOUS
 62
     4
 10
585.0
 20
-375.0
 30
0.0
 11
625.0
 21
-375.0
 31
0.0
  0
LINE
  8
NOTE
  6
CONTINUOUS
 62
     4
 10
605.0
 20
-355.0
 30
0.0
 11
605.0
 21
-395.0
 31
0.0
  0
CIRCLE
  8
FIX
  6
CONTINUOUS
 62
    11
 10
375.0
 20
605.0
 30
0.0
 40
7.5
  0
CIRCLE
  8
FIX
  6
CONTINUOUS
 62
    11
 10
375.0
 20
605.0
 30
0.0
 40
7.5
  0
LINE
  8
NOTE
  6
CONTINUOUS
 62
     4
 10
355.0
 20
605.0
 30
0.0
 11
395.0
 21
605.0
 31
0.0
  0
LINE
  8
NOTE
  6
CONTINUOUS
 62
     4
 10
375.0
 20
585.0
 30
0.0
 11
375.0
 21
625.0
 31
0.0
  0
LINE
  8
NOTE
  6
CONTINUOUS
 62
     4
 10
585.0
 20
375.0
 30
0.0
 11
625.0
 21
375.0
 31
0.0
  0
LINE
  8
NOTE
  6
CONTINUOUS
 62
     4
 10
605.0
 20
355.0
 30
0.0
 11
605.0
 21
395.0
 31
0.0
  0
CIRCLE
  8
FIX
  6
CONTINUOUS
 62
    11
 10
605.0
 20
375.0
 30
0.0
 40
7.5
  0
CIRCLE
  8
FIX
  6
CONTINUOUS
 62
    11
 10
605.0
 20
375.0
 30
0.0
 40
7.5
  0
ARC
  8
OUTLINE
  6
CONTINUOUS
 62
     3
 10
605.0
 20
605.0
 30
0.0
 40
15.0
 50
0.0
 51
90.0
  0
LINE
  8
NOTE
  6
CONTINUOUS
 62
     4
 10
585.0
 20
605.0
 30
0.0
 11
625.0
 21
605.0
 31
0.0
  0
LINE
  8
NOTE
  6
CONTINUOUS
 62
     4
 10
605.0
 20
585.0
 30
0.0
 11
605.0
 21
625.0
 31
0.0
  0
CIRCLE
  8
FIX
  6
CONTINUOUS
 62
    11
 10
605.0
 20
605.0
 30
0.0
 40
7.5
  0
CIRCLE
  8
FIX
  6
CONTINUOUS
 62
    11
 10
605.0
 20
605.0
 30
0.0
 40
7.5
  0
ARC
  8
OUTLINE
  6
CONTINUOUS
 62
     3
 10
605.0
 20
605.0
 30
0.0
 40
15.0
 50
0.0
 51
90.0
  0
LINE
  8
SIZE
  6
CONTINUOUS
 62
    30
 10
-375.0
 20
645.0
 30
0.0
 11
-375.0
 21
848.13093100000015
 31
0.0
  0
LINE
  8
SIZE
  6
CONTINUOUS
 62
    30
 10
375.0
 20
645.0
 30
0.0
 11
375.0
 21
848.13093100000015
 31
0.0
  0
LINE
  8
SIZE
  6
CONTINUOUS
 62
    30
 10
-363.0
 20
828.13093099999992
 30
0.0
 11
363.0
 21
828.13093099999992
 31
0.0
  0
CIRCLE
  8
SIZE
  6
CONTINUOUS
 62
    30
 10
-375.0
 20
828.13093099999992
 30
0.0
 40
6.0
  0
LINE
  8
SIZE
  6
CONTINUOUS
 62
    30
 10
-375.0
 20
828.13093099999992
 30
0.0
 11
-363.0
 21
828.13093099999992
 31
0.0
  0
CIRCLE
  8
SIZE
  6
CONTINUOUS
 62
    30
 10
375.0
 20
828.13093099999992
 30
0.0
 40
6.0
  0
LINE
  8
SIZE
  6
CONTINUOUS
 62
    30
 10
375.0
 20
828.13093099999992
 30
0.0
 11
363.0
 21
828.13093099999992
 31
0.0
  0
TEXT
  8
SIZE
  6
CONTINUOUS
 62
    30
 10
-74.057142857142864
 20
853.13093100000015
 30
0.0
 40
64.0
  1
750
 41
0.9
 72
     1
 11
0.0
 21
853.13093100000015
 31
0.0
  0
POINT
  8
DEFPOINTS
  6
CONTINUOUS
 62
    30
 10
-375.0
 20
625.0
 30
0.0
  0
POINT
  8
DEFPOINTS
  6
CONTINUOUS
 62
    30
 10
375.0
 20
625.0
 30
0.0
  0
POINT
  8
DEFPOINTS
  6
CONTINUOUS
 62
    30
 10
375.0
 20
828.13093099999992
 30
0.0
  0
LINE
  8
SIZE
  6
CONTINUOUS
 62
    30
 10
605.0
 20
645.0
 30
0.0
 11
605.0
 21
989.66533000000004
 31
0.0
  0
LINE
  8
SIZE
  6
CONTINUOUS
 62
    30
 10
-605.0
 20
645.0
 30
0.0
 11
-605.0
 21
989.66533000000004
 31
0.0
  0
LINE
  8
SIZE
  6
CONTINUOUS
 62
    30
 10
593.0
 20
969.66533000000004
 30
0.0
 11
-593.0
 21
969.66533000000004
 31
0.0
  0
CIRCLE
  8
SIZE
  6
CONTINUOUS
 62
    30
 10
605.0
 20
969.66533000000004
 30
0.0
 40
6.0
  0
LINE
  8
SIZE
  6
CONTINUOUS
 62
    30
 10
605.0
 20
969.66533000000004
 30
0.0
 11
593.0
 21
969.66533000000004
 31
0.0
  0
CIRCLE
  8
SIZE
  6
CONTINUOUS
 62
    30
 10
-605.0
 20
969.66533000000004
 30
0.0
 40
6.0
  0
LINE
  8
SIZE
  6
CONTINUOUS
 62
    30
 10
-605.0
 20
969.66533000000004
 30
0.0
 11
-593.0
 21
969.66533000000004
 31
0.0
  0
TEXT
  8
SIZE
  6
CONTINUOUS
 62
    30
 10
-90.514285714285705
 20
994.66533000000004
 30
0.0
 40
64.0
  1
1210
 41
0.9
 72
     1
 11
0.0
 21
994.66533000000004
 31
0.0
  0
POINT
  8
DEFPOINTS
  6
CONTINUOUS
 62
    30
 10
605.0
 20
625.0
 30
0.0
  0
POINT
  8
DEFPOINTS
  6
CONTINUOUS
 62
    30
 10
-605.0
 20
625.0
 30
0.0
  0
POINT
  8
DEFPOINTS
  6
CONTINUOUS
 62
    30
 10
-605.0
 20
969.66533000000004
 30
0.0
  0
LINE
  8
SIZE
  6
CONTINUOUS
 62
    30
 10
620.0
 20
625.0
 30
0.0
 11
620.0
 21
1131.2
 31
0.0
  0
LINE
  8
SIZE
  6
CONTINUOUS
 62
    30
 10
-620.0
 20
625.0
 30
0.0
 11
-620.0
 21
1131.2
 31
0.0
  0
LINE
  8
SIZE
  6
CONTINUOUS
 62
    30
 10
608.0
 20
1111.2
 30
0.0
 11
-608.0
 21
1111.2
 31
0.0
  0
CIRCLE
  8
SIZE
  6
CONTINUOUS
 62
    30
 10
620.0
 20
1111.2
 30
0.0
 40
6.0
  0
LINE
  8
SIZE
  6
CONTINUOUS
 62
    30
 10
620.0
 20
1111.2
 30
0.0
 11
608.0
 21
1111.2
 31
0.0
  0
CIRCLE
  8
SIZE
  6
CONTINUOUS
 62
    30
 10
-620.0
 20
1111.2
 30
0.0
 40
6.0
  0
LINE
  8
SIZE
  6
CONTINUOUS
 62
    30
 10
-620.0
 20
1111.2
 30
0.0
 11
-608.0
 21
1111.2
 31
0.0
  0
TEXT
  8
SIZE
  6
CONTINUOUS
 62
    30
 10
-96.0
 20
1136.2
 30
0.0
 40
64.0
  1
1240
 41
0.9
 72
     1
 11
0.0
 21
1136.2
 31
0.0
  0
POINT
  8
DEFPOINTS
  6
CONTINUOUS
 62
    30
 10
620.0
 20
605.0
 30
0.0
  0
POINT
  8
DEFPOINTS
  6
CONTINUOUS
 62
    30
 10
-620.0
 20
605.0
 30
0.0
  0
POINT
  8
DEFPOINTS
  6
CONTINUOUS
 62
    30
 10
-620.0
 20
1111.2
 30
0.0
  0
LINE
  8
SIZE
  6
CONTINUOUS
 62
    30
 10
645.0
 20
375.0
 30
0.0
 11
934.91241799999989
 21
375.0
 31
0.0
  0
LINE
  8
SIZE
  6
CONTINUOUS
 62
    30
 10
645.0
 20
-375.0
 30
0.0
 11
934.91241799999989
 21
-375.0
 31
0.0
  0
LINE
  8
SIZE
  6
CONTINUOUS
 62
    30
 10
914.91241799999989
 20
363.0
 30
0.0
 11
914.91241799999989
 21
-363.0
 31
0.0
  0
CIRCLE
  8
SIZE
  6
CONTINUOUS
 62
    30
 10
914.91241799999989
 20
375.0
 30
0.0
 40
6.0
  0
LINE
  8
SIZE
  6
CONTINUOUS
 62
    30
 10
914.91241799999989
 20
375.0
 30
0.0
 11
914.91241799999989
 21
363.0
 31
0.0
  0
CIRCLE
  8
SIZE
  6
CONTINUOUS
 62
    30
 10
914.91241799999989
 20
-375.0
 30
0.0
 40
6.0
  0
LINE
  8
SIZE
  6
CONTINUOUS
 62
    30
 10
914.91241799999989
 20
-375.0
 30
0.0
 11
914.91241799999989
 21
-363.0
 31
0.0
  0
TEXT
  8
SIZE
  6
CONTINUOUS
 62
    30
 10
889.91241799999989
 20
-74.057142857142864
 30
0.0
 40
64.0
  1
750
 50
90.0
 41
0.9
 72
     1
 11
889.91241799999989
 21
0.0
 31
0.0
  0
POINT
  8
DEFPOINTS
  6
CONTINUOUS
 62
    30
 10
625.0
 20
375.0
 30
0.0
  0
POINT
  8
DEFPOINTS
  6
CONTINUOUS
 62
    30
 10
625.0
 20
-375.0
 30
0.0
  0
POINT
  8
DEFPOINTS
  6
CONTINUOUS
 62
    30
 10
914.91241799999989
 20
-375.0
 30
0.0
  0
LINE
  8
SIZE
  6
CONTINUOUS
 62
    30
 10
645.0
 20
-605.0
 30
0.0
 11
1071.672
 21
-605.0
 31
0.0
  0
LINE
  8
SIZE
  6
CONTINUOUS
 62
    30
 10
645.0
 20
605.0
 30
0.0
 11
1071.672
 21
605.0
 31
0.0
  0
LINE
  8
SIZE
  6
CONTINUOUS
 62
    30
 10
1051.672
 20
-593.0
 30
0.0
 11
1051.672
 21
593.0
 31
0.0
  0
CIRCLE
  8
SIZE
  6
CONTINUOUS
 62
    30
 10
1051.672
 20
-605.0
 30
0.0
 40
6.0
  0
LINE
  8
SIZE
  6
CONTINUOUS
 62
    30
 10
1051.672
 20
-605.0
 30
0.0
 11
1051.672
 21
-593.0
 31
0.0
  0
CIRCLE
  8
SIZE
  6
CONTINUOUS
 62
    30
 10
1051.672
 20
605.0
 30
0.0
 40
6.0
  0
LINE
  8
SIZE
  6
CONTINUOUS
 62
    30
 10
1051.672
 20
605.0
 30
0.0
 11
1051.672
 21
593.0
 31
0.0
  0
TEXT
  8
SIZE
  6
CONTINUOUS
 62
    30
 10
1026.672
 20
-90.514285714285705
 30
0.0
 40
64.0
  1
1210
 50
90.0
 41
0.9
 72
     1
 11
1026.672
 21
0.0
 31
0.0
  0
POINT
  8
DEFPOINTS
  6
CONTINUOUS
 62
    30
 10
625.0
 20
-605.0
 30
0.0
  0
POINT
  8
DEFPOINTS
  6
CONTINUOUS
 62
    30
 10
625.0
 20
605.0
 30
0.0
  0
POINT
  8
DEFPOINTS
  6
CONTINUOUS
 62
    30
 10
1051.672
 20
605.0
 30
0.0
  0
LINE
  8
SIZE
  6
CONTINUOUS
 62
    30
 10
625.0
 20
620.0
 30
0.0
 11
1206.2149999999999
 21
620.0
 31
0.0
  0
LINE
  8
SIZE
  6
CONTINUOUS
 62
    30
 10
625.0
 20
-620.0
 30
0.0
 11
1206.2149999999999
 21
-620.0
 31
0.0
  0
LINE
  8
SIZE
  6
CONTINUOUS
 62
    30
 10
1186.2149999999999
 20
608.0
 30
0.0
 11
1186.2149999999999
 21
-608.0
 31
0.0
  0
CIRCLE
  8
SIZE
  6
CONTINUOUS
 62
    30
 10
1186.2149999999999
 20
620.0
 30
0.0
 40
6.0
  0
LINE
  8
SIZE
  6
CONTINUOUS
 62
    30
 10
1186.2149999999999
 20
620.0
 30
0.0
 11
1186.2149999999999
 21
608.0
 31
0.0
  0
CIRCLE
  8
SIZE
  6
CONTINUOUS
 62
    30
 10
1186.2149999999999
 20
-620.0
 30
0.0
 40
6.0
  0
LINE
  8
SIZE
  6
CONTINUOUS
 62
    30
 10
1186.2149999999999
 20
-620.0
 30
0.0
 11
1186.2149999999999
 21
-608.0
 31
0.0
  0
TEXT
  8
SIZE
  6
CONTINUOUS
 62
    30
 10
1161.2149999999999
 20
-96.0
 30
0.0
 40
64.0
  1
1240
 50
90.0
 41
0.9
 72
     1
 11
1161.2149999999999
 21
0.0
 31
0.0
  0
POINT
  8
DEFPOINTS
  6
CONTINUOUS
 62
    30
 10
605.0
 20
620.0
 30
0.0
  0
POINT
  8
DEFPOINTS
  6
CONTINUOUS
 62
    30
 10
605.0
 20
-620.0
 30
0.0
  0
POINT
  8
DEFPOINTS
  6
CONTINUOUS
 62
    30
 10
1186.2149999999999
 20
-620.0
 30
0.0
  0
POINT
  8
DEFPOINTS
  6
CONTINUOUS
 62
    30
 10
-574.0
 20
-572.0
 30
0.0
  0
POINT
  8
DEFPOINTS
  6
CONTINUOUS
 62
    30
 10
572.0
 20
-574.0
 30
0.0
  0
LINE
  8
DETAIL
  6
CONTINUOUS
 62
     5
 10
572.0
 20
546.104781
 30
0.0
 11
-572.00000000000023
 21
546.104781
 31
0.0
  0
LINE
  8
DETAIL
  6
CONTINUOUS
 62
     5
 10
-572.00000000000023
 20
550.0
 30
0.0
 11
572.0
 21
550.0
 31
0.0
  0
LINE
  8
DETAIL
  6
CONTINUOUS
 62
     5
 10
-3.1257030000001582
 20
544.71243200000004
 30
0.0
 11
11.87429699999984
 21
544.71243200000004
 31
0.0
  0
LINE
  8
DETAIL
  6
CONTINUOUS
 62
     5
 10
-567.5787150000001
 20
-550.0
 30
0.0
 11
567.5787150000001
 21
-550.0
 31
0.0
  0
LINE
  8
DETAIL
  6
CONTINUOUS
 62
     5
 10
-3.1257030000001582
 20
-540.0
 30
0.0
 11
11.87429699999984
 21
-540.0
 31
0.0
  0
LINE
  8
DETAIL
  6
CONTINUOUS
 62
     5
 10
-605.0
 20
-620.0
 30
0.0
 11
605.0
 21
-620.0
 31
0.0
  0
LINE
  8
DETAIL
  6
CONTINUOUS
 62
     5
 10
-605.0
 20
620.0
 30
0.0
 11
605.0
 21
620.0
 31
0.0
  0
LINE
  8
DETAIL
  6
CONTINUOUS
 62
     5
 10
-574.0
 20
-572.0
 30
0.0
 11
574.0
 21
-572.0
 31
0.0
  0
LINE
  8
DETAIL
  6
CONTINUOUS
 62
     5
 10
-574.0
 20
572.0
 30
0.0
 11
574.0
 21
572.0
 31
0.0
  0
LINE
  8
DETAIL
  6
CONTINUOUS
 62
     5
 10
-605.0
 20
-620.0
 30
0.0
 11
605.0
 21
-620.0
 31
0.0
  0
LINE
  8
DETAIL
  6
CONTINUOUS
 62
     5
 10
-605.0
 20
620.0
 30
0.0
 11
605.0
 21
620.0
 31
0.0
  0
LINE
  8
DETAIL
  6
CONTINUOUS
 62
     5
 10
-544.0
 20
544.71243200000004
 30
0.0
 11
-544.0
 21
-540.0
 31
0.0
  0
LINE
  8
DETAIL
  6
CONTINUOUS
 62
     5
 10
-569.08975400000008
 20
42.194395999999983
 30
0.0
 11
-569.08975400000008
 21
-8.5154659999999467
 31
0.0
  0
LINE
  8
DETAIL
  6
CONTINUOUS
 62
     5
 10
-567.88975400000004
 20
42.194395999999983
 30
0.0
 11
-567.88975400000004
 21
-8.5154659999999467
 31
0.0
  0
LINE
  8
DETAIL
  6
CONTINUOUS
 62
     5
 10
-559.0
 20
544.71243200000004
 30
0.0
 11
-559.0
 21
-540.0
 31
0.0
  0
LINE
  8
DETAIL
  6
CONTINUOUS
 62
     5
 10
-3.1257030000001582
 20
544.71243200000004
 30
0.0
 11
-3.1257030000001582
 21
-540.0
 31
0.0
  0
LINE
  8
DETAIL
  6
CONTINUOUS
 62
     5
 10
-620.0
 20
605.0
 30
0.0
 11
-620.0
 21
-605.0
 31
0.0
  0
LINE
  8
DETAIL
  6
CONTINUOUS
 62
     5
 10
-572.0
 20
574.0
 30
0.0
 11
-572.0
 21
-574.0
 31
0.0
  0
LINE
  8
DETAIL
  6
CONTINUOUS
 62
     5
 10
-620.0
 20
605.0
 30
0.0
 11
-620.0
 21
-605.0
 31
0.0
  0
LINE
  8
DETAIL
  6
CONTINUOUS
 62
     5
 10
-544.0
 20
-483.515466
 30
0.0
 11
-3.1257030000001582
 21
-483.515466
 31
0.0
  0
LINE
  8
DETAIL
  6
CONTINUOUS
 62
     5
 10
-544.0
 20
-450.0
 30
0.0
 11
-3.1257030000001582
 21
-450.0
 31
0.0
  0
LINE
  8
DETAIL
  6
CONTINUOUS
 62
     5
 10
-544.0
 20
-383.51546600000012
 30
0.0
 11
-3.1257030000001582
 21
-383.51546600000012
 31
0.0
  0
LINE
  8
DETAIL
  6
CONTINUOUS
 62
     5
 10
-544.0
 20
-350.0
 30
0.0
 11
-3.1257030000001582
 21
-350.0
 31
0.0
  0
LINE
  8
DETAIL
  6
CONTINUOUS
 62
     5
 10
-544.0
 20
-283.51546600000012
 30
0.0
 11
-3.1257030000001582
 21
-283.51546600000012
 31
0.0
  0
LINE
  8
DETAIL
  6
CONTINUOUS
 62
     5
 10
-544.0
 20
-250.0
 30
0.0
 11
-3.1257030000001582
 21
-250.0
 31
0.0
  0
LINE
  8
DETAIL
  6
CONTINUOUS
 62
     5
 10
-544.0
 20
-183.51546600000009
 30
0.0
 11
-3.1257030000001582
 21
-183.51546600000009
 31
0.0
  0
LINE
  8
DETAIL
  6
CONTINUOUS
 62
     5
 10
-544.0
 20
-150.0
 30
0.0
 11
-3.1257030000001582
 21
-150.0
 31
0.0
  0
LINE
  8
DETAIL
  6
CONTINUOUS
 62
     5
 10
-544.0
 20
-83.51546600000006
 30
0.0
 11
-3.1257030000001582
 21
-83.51546600000006
 31
0.0
  0
LINE
  8
DETAIL
  6
CONTINUOUS
 62
     5
 10
-544.0
 20
-50.0
 30
0.0
 11
-3.1257030000001582
 21
-50.0
 31
0.0
  0
LINE
  8
DETAIL
  6
CONTINUOUS
 62
     5
 10
-3.1257030000001582
 20
-453.89521900000011
 30
0.0
 11
-544.0
 21
-453.89521900000011
 31
0.0
  0
LINE
  8
DETAIL
  6
CONTINUOUS
 62
     5
 10
-3.1257030000001582
 20
-353.895219
 30
0.0
 11
-544.0
 21
-353.895219
 31
0.0
  0
LINE
  8
DETAIL
  6
CONTINUOUS
 62
     5
 10
-3.1257030000001582
 20
-253.895219
 30
0.0
 11
-544.0
 21
-253.895219
 31
0.0
  0
LINE
  8
DETAIL
  6
CONTINUOUS
 62
     5
 10
-3.1257030000001582
 20
-153.895219
 30
0.0
 11
-544.0
 21
-153.895219
 31
0.0
  0
LINE
  8
DETAIL
  6
CONTINUOUS
 62
     5
 10
-3.1257030000001582
 20
-53.895218999999997
 30
0.0
 11
-544.0
 21
-53.895218999999997
 31
0.0
  0
LINE
  8
DETAIL
  6
CONTINUOUS
 62
     5
 10
-567.88975400000004
 20
-457.62946799999997
 30
0.0
 11
-567.88975400000004
 21
-508.51546600000012
 31
0.0
  0
LINE
  8
DETAIL
  6
CONTINUOUS
 62
     5
 10
-569.08975400000008
 20
-457.62946799999997
 30
0.0
 11
-569.08975400000008
 21
-508.51546600000012
 31
0.0
  0
LINE
  8
DETAIL
  6
CONTINUOUS
 62
     5
 10
-572.0
 20
-574.0
 30
0.0
 11
-620.0
 21
-574.0
 31
0.0
  0
LINE
  8
DETAIL
  6
CONTINUOUS
 62
     5
 10
-574.0
 20
-572.0
 30
0.0
 11
-620.0
 21
-572.0
 31
0.0
  0
ARC
  8
DETAIL
  6
CONTINUOUS
 62
     5
 10
-605.0
 20
-605.0
 30
0.0
 40
15.0
 50
180.0
 51
270.0
  0
CIRCLE
  8
DETAIL
  6
CONTINUOUS
 62
     5
 10
-605.0
 20
-605.0
 30
0.0
 40
7.5
  0
CIRCLE
  8
DETAIL
  6
CONTINUOUS
 62
     5
 10
-605.0
 20
-605.0
 30
0.0
 40
7.5
  0
ARC
  8
DETAIL
  6
CONTINUOUS
 62
     5
 10
-605.0
 20
-605.0
 30
0.0
 40
15.0
 50
180.0
 51
270.0
  0
LINE
  8
DETAIL
  6
CONTINUOUS
 62
     5
 10
-559.0
 20
-540.0
 30
0.0
 11
-544.0
 21
-540.0
 31
0.0
  0
LINE
  8
DETAIL
  6
CONTINUOUS
 62
     5
 10
-569.08975400000008
 20
-508.51546600000012
 30
0.0
 11
-566.68975399999999
 21
-508.51546600000012
 31
0.0
  0
LINE
  8
DETAIL
  6
CONTINUOUS
 62
     5
 10
-566.68975399999999
 20
-508.51546600000012
 30
0.0
 11
-566.68975399999999
 21
-523.51546600000006
 31
0.0
  0
LINE
  8
DETAIL
  6
CONTINUOUS
 62
     5
 10
-566.68975399999999
 20
-523.51546600000006
 30
0.0
 11
-559.0
 21
-523.51546600000006
 31
0.0
  0
LINE
  8
DETAIL
  6
CONTINUOUS
 62
     5
 10
-567.5787150000001
 20
-550.0
 30
0.0
 11
-571.5747150000002
 21
-553.99599999999998
 31
0.0
  0
LINE
  8
DETAIL
  6
CONTINUOUS
 62
     5
 10
-571.5747150000002
 20
-553.99599999999998
 30
0.0
 11
-571.5747150000002
 21
-572.0
 31
0.0
  0
CIRCLE
  8
DETAIL
  6
CONTINUOUS
 62
     5
 10
-605.0
 20
-375.0
 30
0.0
 40
7.5
  0
CIRCLE
  8
DETAIL
  6
CONTINUOUS
 62
     5
 10
-605.0
 20
-375.0
 30
0.0
 40
7.5
  0
LINE
  8
DETAIL
  6
CONTINUOUS
 62
     5
 10
-566.68975399999999
 20
-408.51546600000012
 30
0.0
 11
-566.68975399999999
 21
-423.51546600000012
 31
0.0
  0
LINE
  8
DETAIL
  6
CONTINUOUS
 62
     5
 10
-559.0
 20
-453.89521900000011
 30
0.0
 11
-572.0
 21
-453.89521900000011
 31
0.0
  0
LINE
  8
DETAIL
  6
CONTINUOUS
 62
     5
 10
-566.68975399999999
 20
-423.51546600000012
 30
0.0
 11
-564.46718199999987
 21
-423.51546600000012
 31
0.0
  0
LINE
  8
DETAIL
  6
CONTINUOUS
 62
     5
 10
-564.46718199999987
 20
-423.51546600000012
 30
0.0
 11
-559.0
 21
-423.51546600000012
 31
0.0
  0
LINE
  8
DETAIL
  6
CONTINUOUS
 62
     5
 10
-569.08975400000008
 20
-457.62946799999997
 30
0.0
 11
-559.0
 21
-457.62946799999997
 31
0.0
  0
LINE
  8
DETAIL
  6
CONTINUOUS
 62
     5
 10
-572.0
 20
-483.51546599999989
 30
0.0
 11
-569.08975400000008
 21
-483.515466
 31
0.0
  0
LINE
  8
DETAIL
  6
CONTINUOUS
 62
     5
 10
-572.0
 20
-450.0
 30
0.0
 11
-559.0
 21
-450.0
 31
0.0
  0
LINE
  8
DETAIL
  6
CONTINUOUS
 62
     5
 10
-559.0
 20
-353.895219
 30
0.0
 11
-572.0
 21
-353.895219
 31
0.0
  0
LINE
  8
DETAIL
  6
CONTINUOUS
 62
     5
 10
-569.08975400000008
 20
-357.80560400000002
 30
0.0
 11
-564.46718199999987
 21
-357.80560400000002
 31
0.0
  0
LINE
  8
DETAIL
  6
CONTINUOUS
 62
     5
 10
-569.08975400000008
 20
-357.80560400000002
 30
0.0
 11
-564.46718199999987
 21
-357.80560400000002
 31
0.0
  0
LINE
  8
DETAIL
  6
CONTINUOUS
 62
     5
 10
-564.46718199999987
 20
-357.80560400000002
 30
0.0
 11
-559.0
 21
-357.80560400000002
 31
0.0
  0
LINE
  8
DETAIL
  6
CONTINUOUS
 62
     5
 10
-569.08975400000008
 20
-408.51546600000012
 30
0.0
 11
-566.68975399999999
 21
-408.51546600000012
 31
0.0
  0
LINE
  8
DETAIL
  6
CONTINUOUS
 62
     5
 10
-569.08975400000008
 20
-357.80560400000002
 30
0.0
 11
-569.08975400000008
 21
-408.51546600000012
 31
0.0
  0
LINE
  8
DETAIL
  6
CONTINUOUS
 62
     5
 10
-567.88975400000004
 20
-357.80560400000002
 30
0.0
 11
-567.88975400000004
 21
-408.51546600000012
 31
0.0
  0
LINE
  8
DETAIL
  6
CONTINUOUS
 62
     5
 10
-572.0
 20
-350.0
 30
0.0
 11
-559.0
 21
-350.0
 31
0.0
  0
LINE
  8
DETAIL
  6
CONTINUOUS
 62
     5
 10
-572.0
 20
-383.51546600000012
 30
0.0
 11
-569.08975400000008
 21
-383.51546600000012
 31
0.0
  0
LINE
  8
DETAIL
  6
CONTINUOUS
 62
     5
 10
-567.88975400000004
 20
-157.80560399999999
 30
0.0
 11
-567.88975400000004
 21
-208.51546600000009
 31
0.0
  0
LINE
  8
DETAIL
  6
CONTINUOUS
 62
     5
 10
-569.08975400000008
 20
-157.80560399999999
 30
0.0
 11
-569.08975400000008
 21
-208.51546600000009
 31
0.0
  0
LINE
  8
DETAIL
  6
CONTINUOUS
 62
     5
 10
-559.0
 20
-253.895219
 30
0.0
 11
-572.0
 21
-253.895219
 31
0.0
  0
LINE
  8
DETAIL
  6
CONTINUOUS
 62
     5
 10
-564.46718199999987
 20
-257.80560400000002
 30
0.0
 11
-559.0
 21
-257.80560400000002
 31
0.0
  0
LINE
  8
DETAIL
  6
CONTINUOUS
 62
     5
 10
-569.08975400000008
 20
-257.80560400000002
 30
0.0
 11
-564.46718199999987
 21
-257.80560400000002
 31
0.0
  0
LINE
  8
DETAIL
  6
CONTINUOUS
 62
     5
 10
-569.08975400000008
 20
-257.80560400000002
 30
0.0
 11
-564.46718199999987
 21
-257.80560400000002
 31
0.0
  0
LINE
  8
DETAIL
  6
CONTINUOUS
 62
     5
 10
-566.68975399999999
 20
-308.51546600000012
 30
0.0
 11
-566.68975399999999
 21
-323.51546600000012
 31
0.0
  0
LINE
  8
DETAIL
  6
CONTINUOUS
 62
     5
 10
-564.46718199999987
 20
-323.51546600000012
 30
0.0
 11
-559.0
 21
-323.51546600000012
 31
0.0
  0
LINE
  8
DETAIL
  6
CONTINUOUS
 62
     5
 10
-566.68975399999999
 20
-323.51546600000012
 30
0.0
 11
-564.46718199999987
 21
-323.51546600000012
 31
0.0
  0
LINE
  8
DETAIL
  6
CONTINUOUS
 62
     5
 10
-569.08975400000008
 20
-308.51546600000012
 30
0.0
 11
-566.68975399999999
 21
-308.51546600000012
 31
0.0
  0
LINE
  8
DETAIL
  6
CONTINUOUS
 62
     5
 10
-567.88975400000004
 20
-257.80560400000002
 30
0.0
 11
-567.88975400000004
 21
-308.51546600000012
 31
0.0
  0
LINE
  8
DETAIL
  6
CONTINUOUS
 62
     5
 10
-569.08975400000008
 20
-257.80560400000002
 30
0.0
 11
-569.08975400000008
 21
-308.51546600000012
 31
0.0
  0
LINE
  8
DETAIL
  6
CONTINUOUS
 62
     5
 10
-572.0
 20
-250.0
 30
0.0
 11
-559.0
 21
-250.0
 31
0.0
  0
LINE
  8
DETAIL
  6
CONTINUOUS
 62
     5
 10
-572.0
 20
-283.51546600000012
 30
0.0
 11
-569.08975400000008
 21
-283.51546600000012
 31
0.0
  0
LINE
  8
DETAIL
  6
CONTINUOUS
 62
     5
 10
-569.08975400000008
 20
-208.51546600000009
 30
0.0
 11
-566.68975399999999
 21
-208.51546600000009
 31
0.0
  0
LINE
  8
DETAIL
  6
CONTINUOUS
 62
     5
 10
-564.46718199999987
 20
-223.51546600000009
 30
0.0
 11
-559.0
 21
-223.51546600000009
 31
0.0
  0
LINE
  8
DETAIL
  6
CONTINUOUS
 62
     5
 10
-566.68975399999999
 20
-223.51546600000009
 30
0.0
 11
-564.46718199999987
 21
-223.51546600000009
 31
0.0
  0
LINE
  8
DETAIL
  6
CONTINUOUS
 62
     5
 10
-566.68975399999999
 20
-208.51546600000009
 30
0.0
 11
-566.68975399999999
 21
-223.51546600000009
 31
0.0
  0
LINE
  8
DETAIL
  6
CONTINUOUS
 62
     5
 10
-572.0
 20
-183.51546600000009
 30
0.0
 11
-559.0
 21
-183.51546600000009
 31
0.0
  0
LINE
  8
DETAIL
  6
CONTINUOUS
 62
     5
 10
-569.08975400000008
 20
-57.805604000000017
 30
0.0
 11
-569.08975400000008
 21
-108.5154659999999
 31
0.0
  0
LINE
  8
DETAIL
  6
CONTINUOUS
 62
     5
 10
-567.88975400000004
 20
-57.805604000000017
 30
0.0
 11
-567.88975400000004
 21
-108.5154659999999
 31
0.0
  0
LINE
  8
DETAIL
  6
CONTINUOUS
 62
     5
 10
-559.0
 20
-153.895219
 30
0.0
 11
-572.0
 21
-153.895219
 31
0.0
  0
LINE
  8
DETAIL
  6
CONTINUOUS
 62
     5
 10
-569.08975400000008
 20
-108.5154659999999
 30
0.0
 11
-566.68975399999999
 21
-108.5154659999999
 31
0.0
  0
LINE
  8
DETAIL
  6
CONTINUOUS
 62
     5
 10
-566.68975399999999
 20
-123.5154659999999
 30
0.0
 11
-564.46718199999987
 21
-123.5154659999999
 31
0.0
  0
LINE
  8
DETAIL
  6
CONTINUOUS
 62
     5
 10
-564.46718199999987
 20
-123.5154659999999
 30
0.0
 11
-559.0
 21
-123.5154659999999
 31
0.0
  0
LINE
  8
DETAIL
  6
CONTINUOUS
 62
     5
 10
-566.68975399999999
 20
-108.5154659999999
 30
0.0
 11
-566.68975399999999
 21
-123.5154659999999
 31
0.0
  0
LINE
  8
DETAIL
  6
CONTINUOUS
 62
     5
 10
-564.46718199999987
 20
-157.80560399999999
 30
0.0
 11
-559.0
 21
-157.80560399999999
 31
0.0
  0
LINE
  8
DETAIL
  6
CONTINUOUS
 62
     5
 10
-569.08975400000008
 20
-157.80560399999999
 30
0.0
 11
-564.46718199999987
 21
-157.80560399999999
 31
0.0
  0
LINE
  8
DETAIL
  6
CONTINUOUS
 62
     5
 10
-569.08975400000008
 20
-157.80560399999999
 30
0.0
 11
-564.46718199999987
 21
-157.80560399999999
 31
0.0
  0
LINE
  8
DETAIL
  6
CONTINUOUS
 62
     5
 10
-572.0
 20
-150.0
 30
0.0
 11
-559.0
 21
-150.0
 31
0.0
  0
LINE
  8
DETAIL
  6
CONTINUOUS
 62
     5
 10
-572.0
 20
-83.51546600000006
 30
0.0
 11
-559.0
 21
-83.51546600000006
 31
0.0
  0
LINE
  8
DETAIL
  6
CONTINUOUS
 62
     5
 10
-559.0
 20
-53.895218999999997
 30
0.0
 11
-572.0
 21
-53.895218999999997
 31
0.0
  0
LINE
  8
DETAIL
  6
CONTINUOUS
 62
     5
 10
-569.08975400000008
 20
-8.5154659999999467
 30
0.0
 11
-566.68975399999999
 21
-8.5154659999999467
 31
0.0
  0
LINE
  8
DETAIL
  6
CONTINUOUS
 62
     5
 10
-566.68975399999999
 20
-23.51546599999995
 30
0.0
 11
-564.46718199999987
 21
-23.51546599999995
 31
0.0
  0
LINE
  8
DETAIL
  6
CONTINUOUS
 62
     5
 10
-564.46718199999987
 20
-23.51546599999995
 30
0.0
 11
-559.0
 21
-23.51546599999995
 31
0.0
  0
LINE
  8
DETAIL
  6
CONTINUOUS
 62
     5
 10
-566.68975399999999
 20
-8.5154659999999467
 30
0.0
 11
-566.68975399999999
 21
-23.51546599999995
 31
0.0
  0
LINE
  8
DETAIL
  6
CONTINUOUS
 62
     5
 10
-569.08975400000008
 20
-57.805604000000017
 30
0.0
 11
-564.46718199999987
 21
-57.805604000000017
 31
0.0
  0
LINE
  8
DETAIL
  6
CONTINUOUS
 62
     5
 10
-569.08975400000008
 20
-57.805604000000017
 30
0.0
 11
-564.46718199999987
 21
-57.805604000000017
 31
0.0
  0
LINE
  8
DETAIL
  6
CONTINUOUS
 62
     5
 10
-564.46718199999987
 20
-57.805604000000017
 30
0.0
 11
-559.0
 21
-57.805604000000017
 31
0.0
  0
LINE
  8
DETAIL
  6
CONTINUOUS
 62
     5
 10
-572.0
 20
-50.0
 30
0.0
 11
-559.0
 21
-50.0
 31
0.0
  0
CIRCLE
  8
DETAIL
  6
CONTINUOUS
 62
     5
 10
-375.0
 20
-605.0
 30
0.0
 40
7.5
  0
CIRCLE
  8
DETAIL
  6
CONTINUOUS
 62
     5
 10
-375.0
 20
-605.0
 30
0.0
 40
7.5
  0
LINE
  8
DETAIL
  6
CONTINUOUS
 62
     5
 10
-544.0
 20
16.48453400000005
 30
0.0
 11
-3.1257030000001582
 21
16.48453400000005
 31
0.0
  0
LINE
  8
DETAIL
  6
CONTINUOUS
 62
     5
 10
-544.0
 20
50.0
 30
0.0
 11
-3.1257030000001582
 21
50.0
 31
0.0
  0
LINE
  8
DETAIL
  6
CONTINUOUS
 62
     5
 10
-544.0
 20
116.4845339999999
 30
0.0
 11
-3.1257030000001582
 21
116.4845339999999
 31
0.0
  0
LINE
  8
DETAIL
  6
CONTINUOUS
 62
     5
 10
-544.0
 20
150.0
 30
0.0
 11
-3.1257030000001582
 21
150.0
 31
0.0
  0
LINE
  8
DETAIL
  6
CONTINUOUS
 62
     5
 10
-544.0
 20
216.48453399999991
 30
0.0
 11
-3.1257030000001582
 21
216.48453399999991
 31
0.0
  0
LINE
  8
DETAIL
  6
CONTINUOUS
 62
     5
 10
-544.0
 20
250.0
 30
0.0
 11
-3.1257030000001582
 21
250.0
 31
0.0
  0
LINE
  8
DETAIL
  6
CONTINUOUS
 62
     5
 10
-544.0
 20
316.48453399999988
 30
0.0
 11
-3.1257030000001582
 21
316.48453399999988
 31
0.0
  0
LINE
  8
DETAIL
  6
CONTINUOUS
 62
     5
 10
-544.0
 20
350.0
 30
0.0
 11
-3.1257030000001582
 21
350.0
 31
0.0
  0
LINE
  8
DETAIL
  6
CONTINUOUS
 62
     5
 10
-544.0
 20
416.48453399999988
 30
0.0
 11
-3.1257030000001582
 21
416.48453399999988
 31
0.0
  0
LINE
  8
DETAIL
  6
CONTINUOUS
 62
     5
 10
-544.0
 20
450.0
 30
0.0
 11
-3.1257030000001582
 21
450.0
 31
0.0
  0
LINE
  8
DETAIL
  6
CONTINUOUS
 62
     5
 10
-544.0
 20
516.48453399999994
 30
0.0
 11
-3.1257030000001582
 21
516.48453399999994
 31
0.0
  0
LINE
  8
DETAIL
  6
CONTINUOUS
 62
     5
 10
-3.1257030000001582
 20
46.104781000000003
 30
0.0
 11
-544.0
 21
46.104781000000003
 31
0.0
  0
LINE
  8
DETAIL
  6
CONTINUOUS
 62
     5
 10
-3.1257030000001582
 20
146.104781
 30
0.0
 11
-544.0
 21
146.104781
 31
0.0
  0
LINE
  8
DETAIL
  6
CONTINUOUS
 62
     5
 10
-3.1257030000001582
 20
246.104781
 30
0.0
 11
-544.0
 21
246.104781
 31
0.0
  0
LINE
  8
DETAIL
  6
CONTINUOUS
 62
     5
 10
-3.1257030000001582
 20
346.104781
 30
0.0
 11
-544.0
 21
346.104781
 31
0.0
  0
LINE
  8
DETAIL
  6
CONTINUOUS
 62
     5
 10
-3.1257030000001582
 20
446.104781
 30
0.0
 11
-544.0
 21
446.104781
 31
0.0
  0
LINE
  8
DETAIL
  6
CONTINUOUS
 62
     5
 10
-567.88975400000004
 20
342.19439599999993
 30
0.0
 11
-567.88975400000004
 21
291.48453399999988
 31
0.0
  0
LINE
  8
DETAIL
  6
CONTINUOUS
 62
     5
 10
-569.08975400000008
 20
342.19439599999993
 30
0.0
 11
-569.08975400000008
 21
291.48453399999988
 31
0.0
  0
LINE
  8
DETAIL
  6
CONTINUOUS
 62
     5
 10
-566.68975399999999
 20
168.74364999999989
 30
0.0
 11
-566.68975399999999
 21
153.74364999999989
 31
0.0
  0
LINE
  8
DETAIL
  6
CONTINUOUS
 62
     5
 10
-566.68975399999999
 20
91.48453399999994
 30
0.0
 11
-566.68975399999999
 21
76.48453399999994
 31
0.0
  0
LINE
  8
DETAIL
  6
CONTINUOUS
 62
     5
 10
-559.0
 20
46.104781000000003
 30
0.0
 11
-572.0
 21
46.104781000000003
 31
0.0
  0
LINE
  8
DETAIL
  6
CONTINUOUS
 62
     5
 10
-564.46718199999987
 20
76.48453399999994
 30
0.0
 11
-559.0
 21
76.48453399999994
 31
0.0
  0
LINE
  8
DETAIL
  6
CONTINUOUS
 62
     5
 10
-566.68975399999999
 20
76.48453399999994
 30
0.0
 11
-564.46718199999987
 21
76.48453399999994
 31
0.0
  0
LINE
  8
DETAIL
  6
CONTINUOUS
 62
     5
 10
-569.08975400000008
 20
42.194395999999983
 30
0.0
 11
-564.46718199999987
 21
42.194395999999983
 31
0.0
  0
LINE
  8
DETAIL
  6
CONTINUOUS
 62
     5
 10
-569.08975400000008
 20
42.194395999999983
 30
0.0
 11
-564.46718199999987
 21
42.194395999999983
 31
0.0
  0
LINE
  8
DETAIL
  6
CONTINUOUS
 62
     5
 10
-564.46718199999987
 20
42.194395999999983
 30
0.0
 11
-559.0
 21
42.194395999999983
 31
0.0
  0
LINE
  8
DETAIL
  6
CONTINUOUS
 62
     5
 10
-572.0
 20
16.48453400000005
 30
0.0
 11
-569.08975400000008
 21
16.48453400000005
 31
0.0
  0
LINE
  8
DETAIL
  6
CONTINUOUS
 62
     5
 10
-572.0
 20
50.0
 30
0.0
 11
-559.0
 21
50.0
 31
0.0
  0
LINE
  8
DETAIL
  6
CONTINUOUS
 62
     5
 10
-559.0
 20
146.104781
 30
0.0
 11
-572.0
 21
146.104781
 31
0.0
  0
LINE
  8
DETAIL
  6
CONTINUOUS
 62
     5
 10
-564.46718199999987
 20
142.1943959999999
 30
0.0
 11
-559.0
 21
142.1943959999999
 31
0.0
  0
LINE
  8
DETAIL
  6
CONTINUOUS
 62
     5
 10
-569.08975400000008
 20
142.1943959999999
 30
0.0
 11
-564.46718199999987
 21
142.1943959999999
 31
0.0
  0
LINE
  8
DETAIL
  6
CONTINUOUS
 62
     5
 10
-569.08975400000008
 20
142.1943959999999
 30
0.0
 11
-564.46718199999987
 21
142.1943959999999
 31
0.0
  0
LINE
  8
DETAIL
  6
CONTINUOUS
 62
     5
 10
-569.08975400000008
 20
91.48453399999994
 30
0.0
 11
-566.68975399999999
 21
91.48453399999994
 31
0.0
  0
LINE
  8
DETAIL
  6
CONTINUOUS
 62
     5
 10
-567.88975400000004
 20
142.1943959999999
 30
0.0
 11
-567.88975400000004
 21
91.48453399999994
 31
0.0
  0
LINE
  8
DETAIL
  6
CONTINUOUS
 62
     5
 10
-569.08975400000008
 20
142.1943959999999
 30
0.0
 11
-569.08975400000008
 21
91.48453399999994
 31
0.0
  0
LINE
  8
DETAIL
  6
CONTINUOUS
 62
     5
 10
-566.68975399999999
 20
153.74364999999989
 30
0.0
 11
-564.46718199999987
 21
153.74364999999989
 31
0.0
  0
LINE
  8
DETAIL
  6
CONTINUOUS
 62
     5
 10
-564.46718199999987
 20
153.74364999999989
 30
0.0
 11
-559.0
 21
153.74364999999989
 31
0.0
  0
LINE
  8
DETAIL
  6
CONTINUOUS
 62
     5
 10
-572.0
 20
116.484534
 30
0.0
 11
-569.08975400000008
 21
116.4845339999999
 31
0.0
  0
LINE
  8
DETAIL
  6
CONTINUOUS
 62
     5
 10
-572.0
 20
150.0
 30
0.0
 11
-559.0
 21
150.0
 31
0.0
  0
LINE
  8
DETAIL
  6
CONTINUOUS
 62
     5
 10
-569.08975400000008
 20
242.1943959999999
 30
0.0
 11
-564.46718199999987
 21
242.1943959999999
 31
0.0
  0
LINE
  8
DETAIL
  6
CONTINUOUS
 62
     5
 10
-569.08975400000008
 20
242.1943959999999
 30
0.0
 11
-564.46718199999987
 21
242.1943959999999
 31
0.0
  0
LINE
  8
DETAIL
  6
CONTINUOUS
 62
     5
 10
-564.46718199999987
 20
242.1943959999999
 30
0.0
 11
-559.0
 21
242.1943959999999
 31
0.0
  0
LINE
  8
DETAIL
  6
CONTINUOUS
 62
     5
 10
-569.08975400000008
 20
168.74364999999989
 30
0.0
 11
-566.68975399999999
 21
168.74364999999989
 31
0.0
  0
LINE
  8
DETAIL
  6
CONTINUOUS
 62
     5
 10
-569.08975400000008
 20
242.1943959999999
 30
0.0
 11
-569.08975400000008
 21
168.74364999999989
 31
0.0
  0
LINE
  8
DETAIL
  6
CONTINUOUS
 62
     5
 10
-567.88975400000004
 20
242.1943959999999
 30
0.0
 11
-567.88975400000004
 21
168.74364999999989
 31
0.0
  0
LINE
  8
DETAIL
  6
CONTINUOUS
 62
     5
 10
-572.0
 20
216.48453399999991
 30
0.0
 11
-569.08975400000008
 21
216.48453399999991
 31
0.0
  0
LINE
  8
DETAIL
  6
CONTINUOUS
 62
     5
 10
-559.0
 20
246.104781
 30
0.0
 11
-572.0
 21
246.104781
 31
0.0
  0
LINE
  8
DETAIL
  6
CONTINUOUS
 62
     5
 10
-566.68975399999999
 20
291.48453399999988
 30
0.0
 11
-566.68975399999999
 21
276.48453399999988
 31
0.0
  0
LINE
  8
DETAIL
  6
CONTINUOUS
 62
     5
 10
-564.46718199999987
 20
276.48453399999988
 30
0.0
 11
-559.0
 21
276.48453399999988
 31
0.0
  0
LINE
  8
DETAIL
  6
CONTINUOUS
 62
     5
 10
-566.68975399999999
 20
276.48453399999988
 30
0.0
 11
-564.46718199999987
 21
276.48453399999988
 31
0.0
  0
LINE
  8
DETAIL
  6
CONTINUOUS
 62
     5
 10
-569.08975400000008
 20
291.48453399999988
 30
0.0
 11
-566.68975399999999
 21
291.48453399999988
 31
0.0
  0
LINE
  8
DETAIL
  6
CONTINUOUS
 62
     5
 10
-572.0
 20
316.48453399999988
 30
0.0
 11
-569.08975400000008
 21
316.48453399999988
 31
0.0
  0
LINE
  8
DETAIL
  6
CONTINUOUS
 62
     5
 10
-572.0
 20
250.0
 30
0.0
 11
-559.0
 21
250.0
 31
0.0
  0
LINE
  8
DETAIL
  6
CONTINUOUS
 62
     5
 10
-567.88975400000004
 20
542.19439599999987
 30
0.0
 11
-567.88975400000004
 21
491.48453399999988
 31
0.0
  0
LINE
  8
DETAIL
  6
CONTINUOUS
 62
     5
 10
-569.08975400000008
 20
542.19439599999987
 30
0.0
 11
-569.08975400000008
 21
491.48453399999988
 31
0.0
  0
CIRCLE
  8
DETAIL
  6
CONTINUOUS
 62
     5
 10
-605.0
 20
375.0
 30
0.0
 40
7.5
  0
CIRCLE
  8
DETAIL
  6
CONTINUOUS
 62
     5
 10
-605.0
 20
375.0
 30
0.0
 40
7.5
  0
LINE
  8
DETAIL
  6
CONTINUOUS
 62
     5
 10
-567.88975400000004
 20
442.19439599999993
 30
0.0
 11
-567.88975400000004
 21
391.48453399999988
 31
0.0
  0
LINE
  8
DETAIL
  6
CONTINUOUS
 62
     5
 10
-569.08975400000008
 20
442.19439599999993
 30
0.0
 11
-569.08975400000008
 21
391.48453399999988
 31
0.0
  0
LINE
  8
DETAIL
  6
CONTINUOUS
 62
     5
 10
-559.0
 20
346.104781
 30
0.0
 11
-572.0
 21
346.104781
 31
0.0
  0
LINE
  8
DETAIL
  6
CONTINUOUS
 62
     5
 10
-564.46718199999987
 20
342.19439599999993
 30
0.0
 11
-559.0
 21
342.19439599999993
 31
0.0
  0
LINE
  8
DETAIL
  6
CONTINUOUS
 62
     5
 10
-569.08975400000008
 20
342.19439599999993
 30
0.0
 11
-564.46718199999987
 21
342.19439599999993
 31
0.0
  0
LINE
  8
DETAIL
  6
CONTINUOUS
 62
     5
 10
-569.08975400000008
 20
342.19439599999993
 30
0.0
 11
-564.46718199999987
 21
342.19439599999993
 31
0.0
  0
LINE
  8
DETAIL
  6
CONTINUOUS
 62
     5
 10
-566.68975399999999
 20
391.48453399999988
 30
0.0
 11
-566.68975399999999
 21
376.48453399999988
 31
0.0
  0
LINE
  8
DETAIL
  6
CONTINUOUS
 62
     5
 10
-564.46718199999987
 20
376.48453399999988
 30
0.0
 11
-559.0
 21
376.48453399999988
 31
0.0
  0
LINE
  8
DETAIL
  6
CONTINUOUS
 62
     5
 10
-566.68975399999999
 20
376.48453399999988
 30
0.0
 11
-564.46718199999987
 21
376.48453399999988
 31
0.0
  0
LINE
  8
DETAIL
  6
CONTINUOUS
 62
     5
 10
-569.08975400000008
 20
391.48453399999988
 30
0.0
 11
-566.68975399999999
 21
391.48453399999988
 31
0.0
  0
LINE
  8
DETAIL
  6
CONTINUOUS
 62
     5
 10
-572.0
 20
350.0
 30
0.0
 11
-559.0
 21
350.0
 31
0.0
  0
LINE
  8
DETAIL
  6
CONTINUOUS
 62
     5
 10
-559.0
 20
446.104781
 30
0.0
 11
-572.0
 21
446.104781
 31
0.0
  0
LINE
  8
DETAIL
  6
CONTINUOUS
 62
     5
 10
-564.46718199999987
 20
442.19439599999993
 30
0.0
 11
-559.0
 21
442.19439599999993
 31
0.0
  0
LINE
  8
DETAIL
  6
CONTINUOUS
 62
     5
 10
-569.08975400000008
 20
442.19439599999993
 30
0.0
 11
-564.46718199999987
 21
442.19439599999993
 31
0.0
  0
LINE
  8
DETAIL
  6
CONTINUOUS
 62
     5
 10
-569.08975400000008
 20
442.19439599999993
 30
0.0
 11
-564.46718199999987
 21
442.19439599999993
 31
0.0
  0
LINE
  8
DETAIL
  6
CONTINUOUS
 62
     5
 10
-566.68975399999999
 20
491.48453399999988
 30
0.0
 11
-566.68975399999999
 21
476.48453399999988
 31
0.0
  0
LINE
  8
DETAIL
  6
CONTINUOUS
 62
     5
 10
-564.46718199999987
 20
476.48453399999988
 30
0.0
 11
-559.0
 21
476.48453399999988
 31
0.0
  0
LINE
  8
DETAIL
  6
CONTINUOUS
 62
     5
 10
-566.68975399999999
 20
476.48453399999988
 30
0.0
 11
-564.46718199999987
 21
476.48453399999988
 31
0.0
  0
LINE
  8
DETAIL
  6
CONTINUOUS
 62
     5
 10
-569.08975400000008
 20
491.48453399999988
 30
0.0
 11
-566.68975399999999
 21
491.48453399999988
 31
0.0
  0
LINE
  8
DETAIL
  6
CONTINUOUS
 62
     5
 10
-572.0
 20
450.0
 30
0.0
 11
-559.0
 21
450.0
 31
0.0
  0
LINE
  8
DETAIL
  6
CONTINUOUS
 62
     5
 10
-572.0
 20
416.48453399999988
 30
0.0
 11
-569.08975400000008
 21
416.48453399999988
 31
0.0
  0
ARC
  8
DETAIL
  6
CONTINUOUS
 62
     5
 10
-605.0
 20
605.0
 30
0.0
 40
15.0
 50
90.0
 51
180.0
  0
CIRCLE
  8
DETAIL
  6
CONTINUOUS
 62
     5
 10
-605.0
 20
605.0
 30
0.0
 40
7.5
  0
CIRCLE
  8
DETAIL
  6
CONTINUOUS
 62
     5
 10
-605.0
 20
605.0
 30
0.0
 40
7.5
  0
ARC
  8
DETAIL
  6
CONTINUOUS
 62
     5
 10
-605.0
 20
605.0
 30
0.0
 40
15.0
 50
90.0
 51
180.0
  0
LINE
  8
DETAIL
  6
CONTINUOUS
 62
     5
 10
-574.0
 20
572.0
 30
0.0
 11
-574.0
 21
620.0
 31
0.0
  0
LINE
  8
DETAIL
  6
CONTINUOUS
 62
     5
 10
-572.0
 20
574.0
 30
0.0
 11
-572.0
 21
620.0
 31
0.0
  0
LINE
  8
DETAIL
  6
CONTINUOUS
 62
     5
 10
-559.0
 20
544.71243200000004
 30
0.0
 11
-544.0
 21
544.71243200000004
 31
0.0
  0
LINE
  8
DETAIL
  6
CONTINUOUS
 62
     5
 10
-564.46718199999987
 20
542.19439599999987
 30
0.0
 11
-559.0
 21
542.19439599999987
 31
0.0
  0
LINE
  8
DETAIL
  6
CONTINUOUS
 62
     5
 10
-569.08975400000008
 20
542.19439599999987
 30
0.0
 11
-564.46718199999987
 21
542.19439599999987
 31
0.0
  0
LINE
  8
DETAIL
  6
CONTINUOUS
 62
     5
 10
-569.08975400000008
 20
542.19439599999987
 30
0.0
 11
-564.46718199999987
 21
542.19439599999987
 31
0.0
  0
LINE
  8
DETAIL
  6
CONTINUOUS
 62
     5
 10
-572.0
 20
516.48453399999994
 30
0.0
 11
-569.08975400000008
 21
516.48453399999994
 31
0.0
  0
CIRCLE
  8
DETAIL
  6
CONTINUOUS
 62
     5
 10
-375.0
 20
605.0
 30
0.0
 40
7.5
  0
CIRCLE
  8
DETAIL
  6
CONTINUOUS
 62
     5
 10
-375.0
 20
605.0
 30
0.0
 40
7.5
  0
LINE
  8
DETAIL
  6
CONTINUOUS
 62
     5
 10
567.88975399999981
 20
42.194395999999983
 30
0.0
 11
567.88975399999981
 21
-8.5154659999999467
 31
0.0
  0
LINE
  8
DETAIL
  6
CONTINUOUS
 62
     5
 10
569.08975400000008
 20
42.194395999999983
 30
0.0
 11
569.08975400000008
 21
-8.5154659999999467
 31
0.0
  0
LINE
  8
DETAIL
  6
CONTINUOUS
 62
     5
 10
544.0
 20
544.71243200000004
 30
0.0
 11
544.0
 21
-540.0
 31
0.0
  0
LINE
  8
DETAIL
  6
CONTINUOUS
 62
     5
 10
559.0
 20
544.71243200000004
 30
0.0
 11
559.0
 21
-540.0
 31
0.0
  0
LINE
  8
DETAIL
  6
CONTINUOUS
 62
     5
 10
11.87429699999984
 20
544.71243200000004
 30
0.0
 11
11.87429699999984
 21
-540.0
 31
0.0
  0
LINE
  8
DETAIL
  6
CONTINUOUS
 62
     5
 10
620.0
 20
605.0
 30
0.0
 11
620.0
 21
-605.0
 31
0.0
  0
LINE
  8
DETAIL
  6
CONTINUOUS
 62
     5
 10
572.0
 20
574.0
 30
0.0
 11
572.0
 21
-574.0
 31
0.0
  0
LINE
  8
DETAIL
  6
CONTINUOUS
 62
     5
 10
620.0
 20
605.0
 30
0.0
 11
620.0
 21
-605.0
 31
0.0
  0
LINE
  8
DETAIL
  6
CONTINUOUS
 62
     5
 10
544.0
 20
-453.89521900000011
 30
0.0
 11
11.87429699999984
 21
-453.89521900000011
 31
0.0
  0
LINE
  8
DETAIL
  6
CONTINUOUS
 62
     5
 10
544.0
 20
-353.895219
 30
0.0
 11
11.87429699999984
 21
-353.895219
 31
0.0
  0
LINE
  8
DETAIL
  6
CONTINUOUS
 62
     5
 10
544.0
 20
-253.895219
 30
0.0
 11
11.87429699999984
 21
-253.895219
 31
0.0
  0
LINE
  8
DETAIL
  6
CONTINUOUS
 62
     5
 10
544.0
 20
-153.895219
 30
0.0
 11
11.87429699999984
 21
-153.895219
 31
0.0
  0
LINE
  8
DETAIL
  6
CONTINUOUS
 62
     5
 10
544.0
 20
-53.895218999999997
 30
0.0
 11
11.87429699999984
 21
-53.895218999999997
 31
0.0
  0
LINE
  8
DETAIL
  6
CONTINUOUS
 62
     5
 10
11.87429699999984
 20
-483.515466
 30
0.0
 11
544.0
 21
-483.515466
 31
0.0
  0
LINE
  8
DETAIL
  6
CONTINUOUS
 62
     5
 10
11.87429699999984
 20
-450.0
 30
0.0
 11
544.0
 21
-450.0
 31
0.0
  0
LINE
  8
DETAIL
  6
CONTINUOUS
 62
     5
 10
11.87429699999984
 20
-383.51546600000012
 30
0.0
 11
544.0
 21
-383.51546600000012
 31
0.0
  0
LINE
  8
DETAIL
  6
CONTINUOUS
 62
     5
 10
11.87429699999984
 20
-350.0
 30
0.0
 11
544.0
 21
-350.0
 31
0.0
  0
LINE
  8
DETAIL
  6
CONTINUOUS
 62
     5
 10
11.87429699999984
 20
-283.51546600000012
 30
0.0
 11
544.0
 21
-283.51546600000012
 31
0.0
  0
LINE
  8
DETAIL
  6
CONTINUOUS
 62
     5
 10
11.87429699999984
 20
-250.0
 30
0.0
 11
544.0
 21
-250.0
 31
0.0
  0
LINE
  8
DETAIL
  6
CONTINUOUS
 62
     5
 10
11.87429699999984
 20
-183.51546600000009
 30
0.0
 11
544.0
 21
-183.51546600000009
 31
0.0
  0
LINE
  8
DETAIL
  6
CONTINUOUS
 62
     5
 10
11.87429699999984
 20
-150.0
 30
0.0
 11
544.0
 21
-150.0
 31
0.0
  0
LINE
  8
DETAIL
  6
CONTINUOUS
 62
     5
 10
11.87429699999984
 20
-83.51546600000006
 30
0.0
 11
544.0
 21
-83.51546600000006
 31
0.0
  0
LINE
  8
DETAIL
  6
CONTINUOUS
 62
     5
 10
11.87429699999984
 20
-50.0
 30
0.0
 11
544.0
 21
-50.0
 31
0.0
  0
CIRCLE
  8
DETAIL
  6
CONTINUOUS
 62
     5
 10
375.0
 20
-605.0
 30
0.0
 40
7.5
  0
CIRCLE
  8
DETAIL
  6
CONTINUOUS
 62
     5
 10
375.0
 20
-605.0
 30
0.0
 40
7.5
  0
LINE
  8
DETAIL
  6
CONTINUOUS
 62
     5
 10
567.88975399999981
 20
-457.62946799999997
 30
0.0
 11
567.88975399999981
 21
-508.51546600000012
 31
0.0
  0
LINE
  8
DETAIL
  6
CONTINUOUS
 62
     5
 10
569.08975400000008
 20
-457.62946799999997
 30
0.0
 11
569.08975400000008
 21
-508.51546600000012
 31
0.0
  0
LINE
  8
DETAIL
  6
CONTINUOUS
 62
     5
 10
574.0
 20
-572.0
 30
0.0
 11
574.0
 21
-620.0
 31
0.0
  0
LINE
  8
DETAIL
  6
CONTINUOUS
 62
     5
 10
572.0
 20
-574.0
 30
0.0
 11
572.0
 21
-620.0
 31
0.0
  0
LINE
  8
DETAIL
  6
CONTINUOUS
 62
     5
 10
569.08975400000008
 20
-508.51546600000012
 30
0.0
 11
566.68975399999999
 21
-508.51546600000012
 31
0.0
  0
LINE
  8
DETAIL
  6
CONTINUOUS
 62
     5
 10
566.68975399999999
 20
-508.51546600000012
 30
0.0
 11
566.68975399999999
 21
-523.51546600000006
 31
0.0
  0
LINE
  8
DETAIL
  6
CONTINUOUS
 62
     5
 10
559.0
 20
-540.0
 30
0.0
 11
544.0
 21
-540.0
 31
0.0
  0
LINE
  8
DETAIL
  6
CONTINUOUS
 62
     5
 10
566.68975399999999
 20
-523.51546600000006
 30
0.0
 11
559.0
 21
-523.51546600000006
 31
0.0
  0
LINE
  8
DETAIL
  6
CONTINUOUS
 62
     5
 10
571.5747150000002
 20
-553.99599999999998
 30
0.0
 11
571.5747150000002
 21
-572.0
 31
0.0
  0
LINE
  8
DETAIL
  6
CONTINUOUS
 62
     5
 10
567.5787150000001
 20
-550.0
 30
0.0
 11
571.5747150000002
 21
-553.99599999999998
 31
0.0
  0
ARC
  8
DETAIL
  6
CONTINUOUS
 62
     5
 10
605.0
 20
-605.0
 30
0.0
 40
15.0
 50
270.0
 51
0.0
  0
CIRCLE
  8
DETAIL
  6
CONTINUOUS
 62
     5
 10
605.0
 20
-605.0
 30
0.0
 40
7.5
  0
CIRCLE
  8
DETAIL
  6
CONTINUOUS
 62
     5
 10
605.0
 20
-605.0
 30
0.0
 40
7.5
  0
ARC
  8
DETAIL
  6
CONTINUOUS
 62
     5
 10
605.0
 20
-605.0
 30
0.0
 40
15.0
 50
270.0
 51
0.0
  0
LINE
  8
DETAIL
  6
CONTINUOUS
 62
     5
 10
566.68975399999999
 20
-408.51546600000012
 30
0.0
 11
566.68975399999999
 21
-423.51546600000012
 31
0.0
  0
LINE
  8
DETAIL
  6
CONTINUOUS
 62
     5
 10
572.0
 20
-450.0
 30
0.0
 11
559.0
 21
-450.0
 31
0.0
  0
LINE
  8
DETAIL
  6
CONTINUOUS
 62
     5
 10
572.0
 20
-483.515466
 30
0.0
 11
569.08975400000008
 21
-483.515466
 31
0.0
  0
LINE
  8
DETAIL
  6
CONTINUOUS
 62
     5
 10
569.08975400000008
 20
-457.62946799999997
 30
0.0
 11
559.0
 21
-457.62946799999997
 31
0.0
  0
LINE
  8
DETAIL
  6
CONTINUOUS
 62
     5
 10
559.0
 20
-453.89521900000011
 30
0.0
 11
572.0
 21
-453.89521900000011
 31
0.0
  0
LINE
  8
DETAIL
  6
CONTINUOUS
 62
     5
 10
566.68975399999999
 20
-423.51546600000012
 30
0.0
 11
564.46718199999987
 21
-423.51546600000012
 31
0.0
  0
LINE
  8
DETAIL
  6
CONTINUOUS
 62
     5
 10
564.46718199999987
 20
-423.51546600000012
 30
0.0
 11
559.0
 21
-423.51546600000012
 31
0.0
  0
LINE
  8
DETAIL
  6
CONTINUOUS
 62
     5
 10
572.0
 20
-383.51546600000012
 30
0.0
 11
569.08975400000008
 21
-383.51546600000012
 31
0.0
  0
LINE
  8
DETAIL
  6
CONTINUOUS
 62
     5
 10
572.0
 20
-350.0
 30
0.0
 11
559.0
 21
-350.0
 31
0.0
  0
LINE
  8
DETAIL
  6
CONTINUOUS
 62
     5
 10
564.46718199999987
 20
-357.80560400000002
 30
0.0
 11
559.0
 21
-357.80560400000002
 31
0.0
  0
LINE
  8
DETAIL
  6
CONTINUOUS
 62
     5
 10
569.08975400000008
 20
-357.80560400000002
 30
0.0
 11
564.46718199999987
 21
-357.80560400000002
 31
0.0
  0
LINE
  8
DETAIL
  6
CONTINUOUS
 62
     5
 10
569.08975400000008
 20
-357.80560400000002
 30
0.0
 11
564.46718199999987
 21
-357.80560400000002
 31
0.0
  0
LINE
  8
DETAIL
  6
CONTINUOUS
 62
     5
 10
559.0
 20
-353.895219
 30
0.0
 11
572.0
 21
-353.895219
 31
0.0
  0
LINE
  8
DETAIL
  6
CONTINUOUS
 62
     5
 10
569.08975400000008
 20
-408.51546600000012
 30
0.0
 11
566.68975399999999
 21
-408.51546600000012
 31
0.0
  0
LINE
  8
DETAIL
  6
CONTINUOUS
 62
     5
 10
567.88975399999981
 20
-357.80560400000002
 30
0.0
 11
567.88975399999981
 21
-408.51546600000012
 31
0.0
  0
LINE
  8
DETAIL
  6
CONTINUOUS
 62
     5
 10
569.08975400000008
 20
-357.80560400000002
 30
0.0
 11
569.08975400000008
 21
-408.51546600000012
 31
0.0
  0
CIRCLE
  8
DETAIL
  6
CONTINUOUS
 62
     5
 10
605.0
 20
-375.0
 30
0.0
 40
7.5
  0
CIRCLE
  8
DETAIL
  6
CONTINUOUS
 62
     5
 10
605.0
 20
-375.0
 30
0.0
 40
7.5
  0
LINE
  8
DETAIL
  6
CONTINUOUS
 62
     5
 10
567.88975399999981
 20
-157.80560399999999
 30
0.0
 11
567.88975399999981
 21
-208.51546600000009
 31
0.0
  0
LINE
  8
DETAIL
  6
CONTINUOUS
 62
     5
 10
569.08975400000008
 20
-157.80560399999999
 30
0.0
 11
569.08975400000008
 21
-208.51546600000009
 31
0.0
  0
LINE
  8
DETAIL
  6
CONTINUOUS
 62
     5
 10
572.0
 20
-283.51546600000012
 30
0.0
 11
569.08975400000008
 21
-283.51546600000012
 31
0.0
  0
LINE
  8
DETAIL
  6
CONTINUOUS
 62
     5
 10
572.0
 20
-250.0
 30
0.0
 11
559.0
 21
-250.0
 31
0.0
  0
LINE
  8
DETAIL
  6
CONTINUOUS
 62
     5
 10
569.08975400000008
 20
-257.80560400000002
 30
0.0
 11
564.46718199999987
 21
-257.80560400000002
 31
0.0
  0
LINE
  8
DETAIL
  6
CONTINUOUS
 62
     5
 10
569.08975400000008
 20
-257.80560400000002
 30
0.0
 11
564.46718199999987
 21
-257.80560400000002
 31
0.0
  0
LINE
  8
DETAIL
  6
CONTINUOUS
 62
     5
 10
564.46718199999987
 20
-257.80560400000002
 30
0.0
 11
559.0
 21
-257.80560400000002
 31
0.0
  0
LINE
  8
DETAIL
  6
CONTINUOUS
 62
     5
 10
559.0
 20
-253.895219
 30
0.0
 11
572.0
 21
-253.895219
 31
0.0
  0
LINE
  8
DETAIL
  6
CONTINUOUS
 62
     5
 10
566.68975399999999
 20
-308.51546600000012
 30
0.0
 11
566.68975399999999
 21
-323.51546600000012
 31
0.0
  0
LINE
  8
DETAIL
  6
CONTINUOUS
 62
     5
 10
564.46718199999987
 20
-323.51546600000012
 30
0.0
 11
559.0
 21
-323.51546600000012
 31
0.0
  0
LINE
  8
DETAIL
  6
CONTINUOUS
 62
     5
 10
566.68975399999999
 20
-323.51546600000012
 30
0.0
 11
564.46718199999987
 21
-323.51546600000012
 31
0.0
  0
LINE
  8
DETAIL
  6
CONTINUOUS
 62
     5
 10
569.08975400000008
 20
-308.51546600000012
 30
0.0
 11
566.68975399999999
 21
-308.51546600000012
 31
0.0
  0
LINE
  8
DETAIL
  6
CONTINUOUS
 62
     5
 10
567.88975399999981
 20
-257.80560400000002
 30
0.0
 11
567.88975399999981
 21
-308.51546600000012
 31
0.0
  0
LINE
  8
DETAIL
  6
CONTINUOUS
 62
     5
 10
569.08975400000008
 20
-257.80560400000002
 30
0.0
 11
569.08975400000008
 21
-308.51546600000012
 31
0.0
  0
LINE
  8
DETAIL
  6
CONTINUOUS
 62
     5
 10
572.0
 20
-183.51546600000009
 30
0.0
 11
559.0
 21
-183.51546600000009
 31
0.0
  0
LINE
  8
DETAIL
  6
CONTINUOUS
 62
     5
 10
566.68975399999999
 20
-208.51546600000009
 30
0.0
 11
566.68975399999999
 21
-223.51546600000009
 31
0.0
  0
LINE
  8
DETAIL
  6
CONTINUOUS
 62
     5
 10
564.46718199999987
 20
-223.51546600000009
 30
0.0
 11
559.0
 21
-223.51546600000009
 31
0.0
  0
LINE
  8
DETAIL
  6
CONTINUOUS
 62
     5
 10
566.68975399999999
 20
-223.51546600000009
 30
0.0
 11
564.46718199999987
 21
-223.51546600000009
 31
0.0
  0
LINE
  8
DETAIL
  6
CONTINUOUS
 62
     5
 10
569.08975400000008
 20
-208.51546600000009
 30
0.0
 11
566.68975399999999
 21
-208.51546600000009
 31
0.0
  0
LINE
  8
DETAIL
  6
CONTINUOUS
 62
     5
 10
567.88975399999981
 20
-57.805604000000017
 30
0.0
 11
567.88975399999981
 21
-108.5154659999999
 31
0.0
  0
LINE
  8
DETAIL
  6
CONTINUOUS
 62
     5
 10
569.08975400000008
 20
-57.805604000000017
 30
0.0
 11
569.08975400000008
 21
-108.5154659999999
 31
0.0
  0
LINE
  8
DETAIL
  6
CONTINUOUS
 62
     5
 10
572.0
 20
-83.51546600000006
 30
0.0
 11
559.0
 21
-83.51546600000006
 31
0.0
  0
LINE
  8
DETAIL
  6
CONTINUOUS
 62
     5
 10
572.0
 20
-150.0
 30
0.0
 11
559.0
 21
-150.0
 31
0.0
  0
LINE
  8
DETAIL
  6
CONTINUOUS
 62
     5
 10
569.08975400000008
 20
-157.80560399999999
 30
0.0
 11
564.46718199999987
 21
-157.80560399999999
 31
0.0
  0
LINE
  8
DETAIL
  6
CONTINUOUS
 62
     5
 10
569.08975400000008
 20
-157.80560399999999
 30
0.0
 11
564.46718199999987
 21
-157.80560399999999
 31
0.0
  0
LINE
  8
DETAIL
  6
CONTINUOUS
 62
     5
 10
564.46718199999987
 20
-157.80560399999999
 30
0.0
 11
559.0
 21
-157.80560399999999
 31
0.0
  0
LINE
  8
DETAIL
  6
CONTINUOUS
 62
     5
 10
559.0
 20
-153.895219
 30
0.0
 11
572.0
 21
-153.895219
 31
0.0
  0
LINE
  8
DETAIL
  6
CONTINUOUS
 62
     5
 10
569.08975400000008
 20
-108.5154659999999
 30
0.0
 11
566.68975399999999
 21
-108.5154659999999
 31
0.0
  0
LINE
  8
DETAIL
  6
CONTINUOUS
 62
     5
 10
566.68975399999999
 20
-123.5154659999999
 30
0.0
 11
564.46718199999987
 21
-123.5154659999999
 31
0.0
  0
LINE
  8
DETAIL
  6
CONTINUOUS
 62
     5
 10
564.46718199999987
 20
-123.5154659999999
 30
0.0
 11
559.0
 21
-123.5154659999999
 31
0.0
  0
LINE
  8
DETAIL
  6
CONTINUOUS
 62
     5
 10
566.68975399999999
 20
-108.5154659999999
 30
0.0
 11
566.68975399999999
 21
-123.5154659999999
 31
0.0
  0
LINE
  8
DETAIL
  6
CONTINUOUS
 62
     5
 10
572.0
 20
-50.0
 30
0.0
 11
559.0
 21
-50.0
 31
0.0
  0
LINE
  8
DETAIL
  6
CONTINUOUS
 62
     5
 10
564.46718199999987
 20
-57.805604000000017
 30
0.0
 11
559.0
 21
-57.805604000000017
 31
0.0
  0
LINE
  8
DETAIL
  6
CONTINUOUS
 62
     5
 10
569.08975400000008
 20
-57.805604000000017
 30
0.0
 11
564.46718199999987
 21
-57.805604000000017
 31
0.0
  0
LINE
  8
DETAIL
  6
CONTINUOUS
 62
     5
 10
569.08975400000008
 20
-57.805604000000017
 30
0.0
 11
564.46718199999987
 21
-57.805604000000017
 31
0.0
  0
LINE
  8
DETAIL
  6
CONTINUOUS
 62
     5
 10
559.0
 20
-53.895218999999997
 30
0.0
 11
572.0
 21
-53.895218999999997
 31
0.0
  0
LINE
  8
DETAIL
  6
CONTINUOUS
 62
     5
 10
569.08975400000008
 20
-8.5154659999999467
 30
0.0
 11
566.68975399999999
 21
-8.5154659999999467
 31
0.0
  0
LINE
  8
DETAIL
  6
CONTINUOUS
 62
     5
 10
566.68975399999999
 20
-23.51546599999995
 30
0.0
 11
564.46718199999987
 21
-23.51546599999995
 31
0.0
  0
LINE
  8
DETAIL
  6
CONTINUOUS
 62
     5
 10
564.46718199999987
 20
-23.51546599999995
 30
0.0
 11
559.0
 21
-23.51546599999995
 31
0.0
  0
LINE
  8
DETAIL
  6
CONTINUOUS
 62
     5
 10
566.68975399999999
 20
-8.5154659999999467
 30
0.0
 11
566.68975399999999
 21
-23.51546599999995
 31
0.0
  0
LINE
  8
DETAIL
  6
CONTINUOUS
 62
     5
 10
544.0
 20
46.104781000000003
 30
0.0
 11
11.87429699999984
 21
46.104781000000003
 31
0.0
  0
LINE
  8
DETAIL
  6
CONTINUOUS
 62
     5
 10
544.0
 20
146.104781
 30
0.0
 11
11.87429699999984
 21
146.104781
 31
0.0
  0
LINE
  8
DETAIL
  6
CONTINUOUS
 62
     5
 10
544.0
 20
246.104781
 30
0.0
 11
11.87429699999984
 21
246.104781
 31
0.0
  0
LINE
  8
DETAIL
  6
CONTINUOUS
 62
     5
 10
544.0
 20
346.104781
 30
0.0
 11
11.87429699999984
 21
346.104781
 31
0.0
  0
LINE
  8
DETAIL
  6
CONTINUOUS
 62
     5
 10
544.0
 20
446.104781
 30
0.0
 11
11.87429699999984
 21
446.104781
 31
0.0
  0
LINE
  8
DETAIL
  6
CONTINUOUS
 62
     5
 10
11.87429699999984
 20
16.48453400000005
 30
0.0
 11
544.0
 21
16.48453400000005
 31
0.0
  0
LINE
  8
DETAIL
  6
CONTINUOUS
 62
     5
 10
11.87429699999984
 20
50.0
 30
0.0
 11
544.0
 21
50.0
 31
0.0
  0
LINE
  8
DETAIL
  6
CONTINUOUS
 62
     5
 10
11.87429699999984
 20
116.4845339999999
 30
0.0
 11
544.0
 21
116.4845339999999
 31
0.0
  0
LINE
  8
DETAIL
  6
CONTINUOUS
 62
     5
 10
11.87429699999984
 20
150.0
 30
0.0
 11
544.0
 21
150.0
 31
0.0
  0
LINE
  8
DETAIL
  6
CONTINUOUS
 62
     5
 10
11.87429699999984
 20
216.48453399999991
 30
0.0
 11
544.0
 21
216.48453399999991
 31
0.0
  0
LINE
  8
DETAIL
  6
CONTINUOUS
 62
     5
 10
11.87429699999984
 20
250.0
 30
0.0
 11
544.0
 21
250.0
 31
0.0
  0
LINE
  8
DETAIL
  6
CONTINUOUS
 62
     5
 10
11.87429699999984
 20
316.48453399999988
 30
0.0
 11
544.0
 21
316.48453399999988
 31
0.0
  0
LINE
  8
DETAIL
  6
CONTINUOUS
 62
     5
 10
11.87429699999984
 20
350.0
 30
0.0
 11
544.0
 21
350.0
 31
0.0
  0
LINE
  8
DETAIL
  6
CONTINUOUS
 62
     5
 10
11.87429699999984
 20
416.48453399999988
 30
0.0
 11
544.0
 21
416.48453399999988
 31
0.0
  0
LINE
  8
DETAIL
  6
CONTINUOUS
 62
     5
 10
11.87429699999984
 20
450.0
 30
0.0
 11
544.0
 21
450.0
 31
0.0
  0
LINE
  8
DETAIL
  6
CONTINUOUS
 62
     5
 10
11.87429699999984
 20
516.48453399999994
 30
0.0
 11
544.0
 21
516.48453399999994
 31
0.0
  0
CIRCLE
  8
DETAIL
  6
CONTINUOUS
 62
     5
 10
375.0
 20
605.0
 30
0.0
 40
7.5
  0
CIRCLE
  8
DETAIL
  6
CONTINUOUS
 62
     5
 10
375.0
 20
605.0
 30
0.0
 40
7.5
  0
LINE
  8
DETAIL
  6
CONTINUOUS
 62
     5
 10
567.88975399999981
 20
342.19439599999993
 30
0.0
 11
567.88975399999981
 21
291.48453399999988
 31
0.0
  0
LINE
  8
DETAIL
  6
CONTINUOUS
 62
     5
 10
569.08975400000008
 20
342.19439599999993
 30
0.0
 11
569.08975400000008
 21
291.48453399999988
 31
0.0
  0
LINE
  8
DETAIL
  6
CONTINUOUS
 62
     5
 10
566.68975399999999
 20
168.74364999999989
 30
0.0
 11
566.68975399999999
 21
153.74364999999989
 31
0.0
  0
LINE
  8
DETAIL
  6
CONTINUOUS
 62
     5
 10
566.68975399999999
 20
91.48453399999994
 30
0.0
 11
566.68975399999999
 21
76.48453399999994
 31
0.0
  0
LINE
  8
DETAIL
  6
CONTINUOUS
 62
     5
 10
572.0
 20
50.0
 30
0.0
 11
559.0
 21
50.0
 31
0.0
  0
LINE
  8
DETAIL
  6
CONTINUOUS
 62
     5
 10
572.0
 20
16.48453400000005
 30
0.0
 11
569.08975400000008
 21
16.48453400000005
 31
0.0
  0
LINE
  8
DETAIL
  6
CONTINUOUS
 62
     5
 10
564.46718199999987
 20
42.194395999999983
 30
0.0
 11
559.0
 21
42.194395999999983
 31
0.0
  0
LINE
  8
DETAIL
  6
CONTINUOUS
 62
     5
 10
569.08975400000008
 20
42.194395999999983
 30
0.0
 11
564.46718199999987
 21
42.194395999999983
 31
0.0
  0
LINE
  8
DETAIL
  6
CONTINUOUS
 62
     5
 10
569.08975400000008
 20
42.194395999999983
 30
0.0
 11
564.46718199999987
 21
42.194395999999983
 31
0.0
  0
LINE
  8
DETAIL
  6
CONTINUOUS
 62
     5
 10
559.0
 20
46.104781000000003
 30
0.0
 11
572.0
 21
46.104781000000003
 31
0.0
  0
LINE
  8
DETAIL
  6
CONTINUOUS
 62
     5
 10
564.46718199999987
 20
76.48453399999994
 30
0.0
 11
559.0
 21
76.48453399999994
 31
0.0
  0
LINE
  8
DETAIL
  6
CONTINUOUS
 62
     5
 10
566.68975399999999
 20
76.48453399999994
 30
0.0
 11
564.46718199999987
 21
76.48453399999994
 31
0.0
  0
LINE
  8
DETAIL
  6
CONTINUOUS
 62
     5
 10
572.0
 20
150.0
 30
0.0
 11
559.0
 21
150.0
 31
0.0
  0
LINE
  8
DETAIL
  6
CONTINUOUS
 62
     5
 10
572.0
 20
116.4845339999999
 30
0.0
 11
569.08975400000008
 21
116.4845339999999
 31
0.0
  0
LINE
  8
DETAIL
  6
CONTINUOUS
 62
     5
 10
564.46718199999987
 20
153.74364999999989
 30
0.0
 11
559.0
 21
153.74364999999989
 31
0.0
  0
LINE
  8
DETAIL
  6
CONTINUOUS
 62
     5
 10
566.68975399999999
 20
153.74364999999989
 30
0.0
 11
564.46718199999987
 21
153.74364999999989
 31
0.0
  0
LINE
  8
DETAIL
  6
CONTINUOUS
 62
     5
 10
569.08975400000008
 20
142.1943959999999
 30
0.0
 11
564.46718199999987
 21
142.1943959999999
 31
0.0
  0
LINE
  8
DETAIL
  6
CONTINUOUS
 62
     5
 10
569.08975400000008
 20
142.1943959999999
 30
0.0
 11
564.46718199999987
 21
142.1943959999999
 31
0.0
  0
LINE
  8
DETAIL
  6
CONTINUOUS
 62
     5
 10
564.46718199999987
 20
142.1943959999999
 30
0.0
 11
559.0
 21
142.1943959999999
 31
0.0
  0
LINE
  8
DETAIL
  6
CONTINUOUS
 62
     5
 10
559.0
 20
146.104781
 30
0.0
 11
572.0
 21
146.104781
 31
0.0
  0
LINE
  8
DETAIL
  6
CONTINUOUS
 62
     5
 10
569.08975400000008
 20
91.48453399999994
 30
0.0
 11
566.68975399999999
 21
91.48453399999994
 31
0.0
  0
LINE
  8
DETAIL
  6
CONTINUOUS
 62
     5
 10
567.88975399999981
 20
142.1943959999999
 30
0.0
 11
567.88975399999981
 21
91.48453399999994
 31
0.0
  0
LINE
  8
DETAIL
  6
CONTINUOUS
 62
     5
 10
569.08975400000008
 20
142.1943959999999
 30
0.0
 11
569.08975400000008
 21
91.48453399999994
 31
0.0
  0
LINE
  8
DETAIL
  6
CONTINUOUS
 62
     5
 10
567.88975399999981
 20
242.1943959999999
 30
0.0
 11
567.88975399999981
 21
168.74364999999989
 31
0.0
  0
LINE
  8
DETAIL
  6
CONTINUOUS
 62
     5
 10
569.08975400000008
 20
242.1943959999999
 30
0.0
 11
569.08975400000008
 21
168.74364999999989
 31
0.0
  0
LINE
  8
DETAIL
  6
CONTINUOUS
 62
     5
 10
569.08975400000008
 20
168.74364999999989
 30
0.0
 11
566.68975399999999
 21
168.74364999999989
 31
0.0
  0
LINE
  8
DETAIL
  6
CONTINUOUS
 62
     5
 10
564.46718199999987
 20
242.1943959999999
 30
0.0
 11
559.0
 21
242.1943959999999
 31
0.0
  0
LINE
  8
DETAIL
  6
CONTINUOUS
 62
     5
 10
569.08975400000008
 20
242.1943959999999
 30
0.0
 11
564.46718199999987
 21
242.1943959999999
 31
0.0
  0
LINE
  8
DETAIL
  6
CONTINUOUS
 62
     5
 10
569.08975400000008
 20
242.1943959999999
 30
0.0
 11
564.46718199999987
 21
242.1943959999999
 31
0.0
  0
LINE
  8
DETAIL
  6
CONTINUOUS
 62
     5
 10
572.0
 20
216.48453399999991
 30
0.0
 11
569.08975400000008
 21
216.48453399999991
 31
0.0
  0
LINE
  8
DETAIL
  6
CONTINUOUS
 62
     5
 10
572.0
 20
250.0
 30
0.0
 11
559.0
 21
250.0
 31
0.0
  0
LINE
  8
DETAIL
  6
CONTINUOUS
 62
     5
 10
572.0
 20
316.48453399999988
 30
0.0
 11
569.08975400000008
 21
316.48453399999988
 31
0.0
  0
LINE
  8
DETAIL
  6
CONTINUOUS
 62
     5
 10
559.0
 20
246.104781
 30
0.0
 11
572.0
 21
246.104781
 31
0.0
  0
LINE
  8
DETAIL
  6
CONTINUOUS
 62
     5
 10
566.68975399999999
 20
291.48453399999988
 30
0.0
 11
566.68975399999999
 21
276.48453399999988
 31
0.0
  0
LINE
  8
DETAIL
  6
CONTINUOUS
 62
     5
 10
564.46718199999987
 20
276.48453399999988
 30
0.0
 11
559.0
 21
276.48453399999988
 31
0.0
  0
LINE
  8
DETAIL
  6
CONTINUOUS
 62
     5
 10
566.68975399999999
 20
276.48453399999988
 30
0.0
 11
564.46718199999987
 21
276.48453399999988
 31
0.0
  0
LINE
  8
DETAIL
  6
CONTINUOUS
 62
     5
 10
569.08975400000008
 20
291.48453399999988
 30
0.0
 11
566.68975399999999
 21
291.48453399999988
 31
0.0
  0
LINE
  8
DETAIL
  6
CONTINUOUS
 62
     5
 10
567.88975399999981
 20
542.19439599999987
 30
0.0
 11
567.88975399999981
 21
491.48453399999988
 31
0.0
  0
LINE
  8
DETAIL
  6
CONTINUOUS
 62
     5
 10
569.08975400000008
 20
542.19439599999987
 30
0.0
 11
569.08975400000008
 21
491.48453399999988
 31
0.0
  0
LINE
  8
DETAIL
  6
CONTINUOUS
 62
     5
 10
567.88975399999981
 20
442.19439599999993
 30
0.0
 11
567.88975399999981
 21
391.48453399999988
 31
0.0
  0
LINE
  8
DETAIL
  6
CONTINUOUS
 62
     5
 10
569.08975400000008
 20
442.19439599999993
 30
0.0
 11
569.08975400000008
 21
391.48453399999988
 31
0.0
  0
LINE
  8
DETAIL
  6
CONTINUOUS
 62
     5
 10
572.0
 20
350.0
 30
0.0
 11
559.0
 21
350.0
 31
0.0
  0
LINE
  8
DETAIL
  6
CONTINUOUS
 62
     5
 10
569.08975400000008
 20
342.19439599999993
 30
0.0
 11
564.46718199999987
 21
342.19439599999993
 31
0.0
  0
LINE
  8
DETAIL
  6
CONTINUOUS
 62
     5
 10
569.08975400000008
 20
342.19439599999993
 30
0.0
 11
564.46718199999987
 21
342.19439599999993
 31
0.0
  0
LINE
  8
DETAIL
  6
CONTINUOUS
 62
     5
 10
564.46718199999987
 20
342.19439599999993
 30
0.0
 11
559.0
 21
342.19439599999993
 31
0.0
  0
LINE
  8
DETAIL
  6
CONTINUOUS
 62
     5
 10
559.0
 20
346.104781
 30
0.0
 11
572.0
 21
346.104781
 31
0.0
  0
LINE
  8
DETAIL
  6
CONTINUOUS
 62
     5
 10
566.68975399999999
 20
391.48453399999988
 30
0.0
 11
566.68975399999999
 21
376.48453399999988
 31
0.0
  0
LINE
  8
DETAIL
  6
CONTINUOUS
 62
     5
 10
564.46718199999987
 20
376.48453399999988
 30
0.0
 11
559.0
 21
376.48453399999988
 31
0.0
  0
LINE
  8
DETAIL
  6
CONTINUOUS
 62
     5
 10
566.68975399999999
 20
376.48453399999988
 30
0.0
 11
564.46718199999987
 21
376.48453399999988
 31
0.0
  0
LINE
  8
DETAIL
  6
CONTINUOUS
 62
     5
 10
569.08975400000008
 20
391.48453399999988
 30
0.0
 11
566.68975399999999
 21
391.48453399999988
 31
0.0
  0
LINE
  8
DETAIL
  6
CONTINUOUS
 62
     5
 10
572.0
 20
416.48453399999988
 30
0.0
 11
569.08975400000008
 21
416.48453399999988
 31
0.0
  0
LINE
  8
DETAIL
  6
CONTINUOUS
 62
     5
 10
572.00000000000045
 20
450.0
 30
0.0
 11
559.0
 21
450.0
 31
0.0
  0
LINE
  8
DETAIL
  6
CONTINUOUS
 62
     5
 10
569.08975400000008
 20
442.19439599999993
 30
0.0
 11
564.46718199999987
 21
442.19439599999993
 31
0.0
  0
LINE
  8
DETAIL
  6
CONTINUOUS
 62
     5
 10
569.08975400000008
 20
442.19439599999993
 30
0.0
 11
564.46718199999987
 21
442.19439599999993
 31
0.0
  0
LINE
  8
DETAIL
  6
CONTINUOUS
 62
     5
 10
564.46718199999987
 20
442.19439599999993
 30
0.0
 11
559.0
 21
442.19439599999993
 31
0.0
  0
LINE
  8
DETAIL
  6
CONTINUOUS
 62
     5
 10
559.0
 20
446.104781
 30
0.0
 11
572.00000000000045
 21
446.104781
 31
0.0
  0
LINE
  8
DETAIL
  6
CONTINUOUS
 62
     5
 10
566.68975399999999
 20
491.48453399999988
 30
0.0
 11
566.68975399999999
 21
476.48453399999988
 31
0.0
  0
LINE
  8
DETAIL
  6
CONTINUOUS
 62
     5
 10
564.46718199999987
 20
476.48453399999988
 30
0.0
 11
559.0
 21
476.48453399999988
 31
0.0
  0
LINE
  8
DETAIL
  6
CONTINUOUS
 62
     5
 10
566.68975399999999
 20
476.48453399999988
 30
0.0
 11
564.46718199999987
 21
476.48453399999988
 31
0.0
  0
LINE
  8
DETAIL
  6
CONTINUOUS
 62
     5
 10
569.08975400000008
 20
491.48453399999988
 30
0.0
 11
566.68975399999999
 21
491.48453399999988
 31
0.0
  0
CIRCLE
  8
DETAIL
  6
CONTINUOUS
 62
     5
 10
605.0
 20
375.0
 30
0.0
 40
7.5
  0
CIRCLE
  8
DETAIL
  6
CONTINUOUS
 62
     5
 10
605.0
 20
375.0
 30
0.0
 40
7.5
  0
LINE
  8
DETAIL
  6
CONTINUOUS
 62
     5
 10
572.0
 20
574.0
 30
0.0
 11
620.0
 21
574.0
 31
0.0
  0
LINE
  8
DETAIL
  6
CONTINUOUS
 62
     5
 10
574.0
 20
572.0
 30
0.0
 11
620.0
 21
572.0
 31
0.0
  0
LINE
  8
DETAIL
  6
CONTINUOUS
 62
     5
 10
572.0
 20
516.48453399999994
 30
0.0
 11
569.08975400000008
 21
516.48453399999994
 31
0.0
  0
LINE
  8
DETAIL
  6
CONTINUOUS
 62
     5
 10
569.08975400000008
 20
542.19439599999987
 30
0.0
 11
564.46718199999987
 21
542.19439599999987
 31
0.0
  0
LINE
  8
DETAIL
  6
CONTINUOUS
 62
     5
 10
569.08975400000008
 20
542.19439599999987
 30
0.0
 11
564.46718199999987
 21
542.19439599999987
 31
0.0
  0
LINE
  8
DETAIL
  6
CONTINUOUS
 62
     5
 10
564.46718199999987
 20
542.19439599999987
 30
0.0
 11
559.0
 21
542.19439599999987
 31
0.0
  0
LINE
  8
DETAIL
  6
CONTINUOUS
 62
     5
 10
559.0
 20
544.71243200000004
 30
0.0
 11
544.0
 21
544.71243200000004
 31
0.0
  0
ARC
  8
DETAIL
  6
CONTINUOUS
 62
     5
 10
605.0
 20
605.0
 30
0.0
 40
15.0
 50
0.0
 51
90.0
  0
CIRCLE
  8
DETAIL
  6
CONTINUOUS
 62
     5
 10
605.0
 20
605.0
 30
0.0
 40
7.5
  0
CIRCLE
  8
DETAIL
  6
CONTINUOUS
 62
     5
 10
605.0
 20
605.0
 30
0.0
 40
7.5
  0
ARC
  8
DETAIL
  6
CONTINUOUS
 62
     5
 10
605.0
 20
605.0
 30
0.0
 40
15.0
 50
0.0
 51
90.0
  0
ENDSEC
  0
EOF
