  0
SECTION
  2
HEADER
  9
$ACADVER
  1
AC1009
  9
$DWGCODEPAGE
  3
dos932
  9
$INSBASE
 10
0.0
 20
0.0
 30
0.0
  9
$EXTMIN
 10
-430.073531
 20
-513.33617
 30
-0.003052
  9
$EXTMAX
 10
1054.563915
 20
743.728646
 30
50.003052
  9
$LIMMIN
 10
-2970.0
 20
-2100.0
  9
$LIMMAX
 10
2970.0
 20
2100.0
  9
$ORTHOMODE
 70
     1
  9
$REGENMODE
 70
     1
  9
$FILLMODE
 70
     1
  9
$QTEXTMODE
 70
     0
  9
$MIRRTEXT
 70
     0
  9
$DRAGMODE
 70
     2
  9
$LTSCALE
 40
20.0
  9
$OSMODE
 70
  3071
  9
$ATTMODE
 70
     1
  9
$TEXTSIZE
 40
64.0
  9
$TRACEWID
 40
0.05
  9
$TEXTSTYLE
  7
STANDARD
  9
$CLAYER
  8
ETC
  9
$CELTYPE
  6
CONTINUOUS
  9
$CECOLOR
 62
     7
  9
$DIMSCALE
 40
1.0
  9
$DIMASZ
 40
12.0
  9
$DIMEXO
 40
20.0
  9
$DIMDLI
 40
200.0
  9
$DIMRND
 40
0.0
  9
$DIMDLE
 40
0.0
  9
$DIMEXE
 40
20.0
  9
$DIMTP
 40
0.0
  9
$DIMTM
 40
0.0
  9
$DIMTXT
 40
64.0
  9
$DIMCEN
 40
0.09
  9
$DIMTSZ
 40
0.0
  9
$DIMTOL
 70
     0
  9
$DIMLIM
 70
     0
  9
$DIMTIH
 70
     0
  9
$DIMTOH
 70
     0
  9
$DIMSE1
 70
     0
  9
$DIMSE2
 70
     0
  9
$DIMTAD
 70
     1
  9
$DIMZIN
 70
     8
  9
$DIMBLK
  1
DOT1
  9
$DIMASO
 70
     1
  9
$DIMSHO
 70
     0
  9
$DIMPOST
  1

  9
$DIMAPOST
  1

  9
$DIMALT
 70
     0
  9
$DIMALTD
 70
     2
  9
$DIMALTF
 40
25.4
  9
$DIMLFAC
 40
1.0
  9
$DIMTOFL
 70
     1
  9
$DIMTVP
 40
0.0
  9
$DIMTIX
 70
     1
  9
$DIMSOXD
 70
     0
  9
$DIMSAH
 70
     1
  9
$DIMBLK1
  1
_ORIGIN
  9
$DIMBLK2
  1
_ORIGIN
  9
$DIMSTYLE
  2
STANDARD
  9
$DIMCLRD
 70
     7
  9
$DIMCLRE
 70
     7
  9
$DIMCLRT
 70
     7
  9
$DIMTFAC
 40
1.0
  9
$DIMGAP
 40
25.0
  9
$LUNITS
 70
     2
  9
$LUPREC
 70
     4
  9
$SKETCHINC
 40
0.1
  9
$FILLETRAD
 40
3.0
  9
$AUNITS
 70
     1
  9
$AUPREC
 70
     3
  9
$MENU
  1
ACAD
  9
$ELEVATION
 40
0.0
  9
$PELEVATION
 40
0.0
  9
$THICKNESS
 40
50.0
  9
$LIMCHECK
 70
     0
  9
$BLIPMODE
 70
     0
  9
$CHAMFERA
 40
0.0
  9
$CHAMFERB
 40
0.0
  9
$SKPOLY
 70
     0
  9
$TDCREATE
 40
2453019.62301037
  9
$TDUPDATE
 40
2454204.634463749
  9
$TDINDWG
 40
1.0819105093
  9
$TDUSRTIMER
 40
1.0819105093
  9
$USRTIMER
 70
     1
  9
$ANGBASE
 50
0.0
  9
$ANGDIR
 70
     0
  9
$PDMODE
 70
     3
  9
$PDSIZE
 40
-2.0
  9
$PLINEWID
 40
0.0
  9
$COORDS
 70
     1
  9
$SPLFRAME
 70
     0
  9
$SPLINETYPE
 70
     6
  9
$SPLINESEGS
 70
     8
  9
$ATTDIA
 70
     0
  9
$ATTREQ
 70
     1
  9
$HANDLING
 70
     0
  9
$HANDSEED
  5
A85D
  9
$SURFTAB1
 70
     6
  9
$SURFTAB2
 70
     6
  9
$SURFTYPE
 70
     6
  9
$SURFU
 70
     6
  9
$SURFV
 70
     6
  9
$UCSNAME
  2

  9
$UCSORG
 10
0.0
 20
0.0
 30
0.0
  9
$UCSXDIR
 10
1.0
 20
0.0
 30
0.0
  9
$UCSYDIR
 10
0.0
 20
1.0
 30
0.0
  9
$PUCSNAME
  2

  9
$PUCSORG
 10
0.0
 20
0.0
 30
0.0
  9
$PUCSXDIR
 10
1.0
 20
0.0
 30
0.0
  9
$PUCSYDIR
 10
0.0
 20
1.0
 30
0.0
  9
$USERI1
 70
     0
  9
$USERI2
 70
     0
  9
$USERI3
 70
     0
  9
$USERI4
 70
     0
  9
$USERI5
 70
     0
  9
$USERR1
 40
20.0
  9
$USERR2
 40
0.0
  9
$USERR3
 40
0.0
  9
$USERR4
 40
0.0
  9
$USERR5
 40
0.0
  9
$WORLDVIEW
 70
     1
  9
$SHADEDGE
 70
     3
  9
$SHADEDIF
 70
    70
  9
$TILEMODE
 70
     1
  9
$MAXACTVP
 70
    48
  9
$PINSBASE
 10
0.0
 20
0.0
 30
0.0
  9
$PLIMCHECK
 70
     0
  9
$PEXTMIN
 10
-100000000000000000000.0
 20
-100000000000000000000.0
 30
-100000000000000000000.0
  9
$PEXTMAX
 10
100000000000000000000.0
 20
100000000000000000000.0
 30
100000000000000000000.0
  9
$PLIMMIN
 10
0.0
 20
0.0
  9
$PLIMMAX
 10
12.0
 20
9.0
  9
$UNITMODE
 70
     0
  9
$VISRETAIN
 70
     0
  9
$PLINEGEN
 70
     0
  9
$PSLTSCALE
 70
     0
  9
$TREEDEPTH
 70
  3020
  0
ENDSEC
  0
SECTION
  2
TABLES
  0
TABLE
  2
LTYPE
 70
     3
  0
LTYPE
  2
CONTINUOUS
 70
     0
  3
実線
 72
    65
 73
     0
 40
0.0
  0
LTYPE
  2
DASHDOT
 70
     0
  3
____ _ ____ _ ____ _ ____ _ ____ _ ____ _ ____
 72
    65
 73
     4
 40
5.5
 49
4.0
 49
-0.6
 49
0.3
 49
-0.6
  0
LTYPE
  2
DASHED
 70
     0
  3
-- -- -- -- -- -- -- -- -- -- -- -- -- -- --
 72
    65
 73
     2
 40
0.75
 49
0.5
 49
-0.25
  0
ENDTAB
  0
TABLE
  2
LAYER
 70
    12
  0
LAYER
  2
0
 70
     0
 62
     7
  6
CONTINUOUS
  0
LAYER
  2
BASIS
 70
     0
 62
     6
  6
DASHDOT
  0
LAYER
  2
OUTLINE
 70
     0
 62
     3
  6
CONTINUOUS
  0
LAYER
  2
DETAIL
 70
     0
 62
     5
  6
CONTINUOUS
  0
LAYER
  2
SIZE
 70
     0
 62
    30
  6
CONTINUOUS
  0
LAYER
  2
ARRANGE
 70
     0
 62
     1
  6
CONTINUOUS
  0
LAYER
  2
DEFPOINTS
 70
     0
 62
     7
  6
CONTINUOUS
  0
LAYER
  2
ETC
 70
     0
 62
    61
  6
CONTINUOUS
  0
LAYER
  2
NOTE
 70
     0
 62
     4
  6
CONTINUOUS
  0
LAYER
  2
FIX
 70
    64
 62
    11
  6
CONTINUOUS
  0
LAYER
  2
SERVICESPACE
 70
    64
 62
     2
  6
DASHDOT
  0
LAYER
  2
SYMBOLLINE
 70
    64
 62
    15
  6
CONTINUOUS
  0
ENDTAB
  0
TABLE
  2
STYLE
 70
     1
  0
STYLE
  2
STANDARD
 70
     0
 40
64.0
 41
0.9
 50
0.0
 71
     0
 42
64.0
  3
SIMPLEX.shx
  4
BIGFONT.shx
  0
ENDTAB
  0
TABLE
  2
APPID
 70
     5
  0
APPID
  2
ACAD
 70
     0
  0
APPID
  2
AUTOCAD_POSTSCRIPT_FIGURE
 70
     0
  0
APPID
  2
ACAD_EXEMPT_FROM_CAD_STANDARDS
 70
     0
  0
APPID
  2
ACAD_PSEXT
 70
     0
  0
APPID
  2
ACAUTHENVIRON
 70
     0
  0
ENDTAB
  0
TABLE
  2
DIMSTYLE
 70
     1
  0
DIMSTYLE
  2
STANDARD
 70
     0
  3

  4

  5

  6

  7

 40
1.0
 41
0.18
 42
0.0625
 43
0.38
 44
0.18
 45
0.0
 46
0.0
 47
0.0
 48
0.0
140
0.18
141
0.09
142
0.0
143
25.4
144
1.0
145
0.0
146
1.0
147
0.09
 71
     0
 72
     0
 73
     1
 74
     1
 75
     0
 76
     0
 77
     0
 78
     0
170
     0
171
     2
172
     0
173
     0
174
     0
175
     0
176
     7
177
     7
178
     7
  0
ENDTAB
  0
TABLE
  2
VIEW
 70
     1
  0
VIEW
  2
ALL
 70
     0
 40
4282.619808
 10
0.0
 20
41.309904
 41
5940.0
 11
0.0
 21
0.0
 31
1.0
 12
0.0
 22
0.0
 32
0.0
 42
50.0
 43
0.0
 44
0.0
 50
0.0
 71
     0
  0
ENDTAB
  0
TABLE
  2
UCS
 70
     0
  0
ENDTAB
  0
TABLE
  2
VPORT
 70
     1
  0
VPORT
  2
*ACTIVE
 70
     0
 10
0.0
 20
0.0
 11
1.0
 21
1.0
 12
312.245192
 22
115.196238
 13
0.0
 23
0.0
 14
1.0
 24
1.0
 15
0.0
 25
0.0
 16
0.0
 26
0.0
 36
1.0
 17
0.0
 27
0.0
 37
0.0
 40
1268.813085
 41
1.822153
 42
50.0
 43
0.0
 44
0.0
 50
0.0
 51
0.0
 71
     0
 72
  1000
 73
     1
 74
     0
 75
     0
 76
     0
 77
     0
 78
     0
  0
ENDTAB
  0
ENDSEC
  0
SECTION
  2
BLOCKS
  0
BLOCK
  8
0
  2
DOT1
 70
     0
 10
0.0
 20
0.0
 30
0.0
  3
DOT1
  1

  0
CIRCLE
  8
SIZE
  6
CONTINUOUS
 62
     7
 10
0.0
 20
0.0
 30
0.0
 40
3.0
  0
ENDBLK
  8
0
  0
BLOCK
  8
0
  2
_ORIGIN
 70
     0
 10
0.0
 20
0.0
 30
0.0
  3
_ORIGIN
  1

  0
CIRCLE
  8
0
  6
CONTINUOUS
 62
     7
 10
0.0
 20
0.0
 30
0.0
 40
0.5
  0
LINE
  8
0
  6
CONTINUOUS
 62
     7
 10
0.0
 20
0.0
 30
0.0
 11
-1.0
 21
0.0
 31
0.0
  0
ENDBLK
  8
0
  0
ENDSEC
  0
SECTION
  2
ENTITIES
  0
TEXT
  8
ETC
  6
CONTINUOUS
 62
    61
 10
695.98203
 20
703.505389
 30
0.0
 40
40.0
  1
PS-20CTW3_4
 41
0.9
  0
TEXT
  8
ETC
  6
CONTINUOUS
 62
    61
 10
691.796036
 20
642.80911
 30
0.0
 40
40.0
  1
システム部材
 41
0.9
  0
TEXT
  8
ETC
  6
CONTINUOUS
 62
    61
 10
742.403538
 20
560.939
 30
0.0
 40
40.0
  1
PS-20CTW3
 41
0.9
  0
CIRCLE
  8
ARRANGE
  6
CONTINUOUS
 62
     1
 10
0.0
 20
0.0
 30
0.0
 40
40.0
  0
LINE
  8
BASIS
  6
DASHDOT
 62
     6
 10
-49.454797
 20
0.0
 30
0.0
 11
191.218374
 21
0.0
 31
0.0
  0
LINE
  8
BASIS
  6
DASHDOT
 62
     6
 10
191.218374
 20
0.0
 30
0.0
 11
-49.454797
 21
0.0
 31
0.0
  0
LINE
  8
BASIS
  6
DASHDOT
 62
     6
 10
191.218374
 20
0.0
 30
0.0
 11
-49.454797
 21
0.0
 31
0.0
  0
ARC
  8
DETAIL
  6
CONTINUOUS
 62
     5
 10
-1.62963
 20
167.648148
 30
0.0
 40
0.814815
 50
271.81229
 51
293.132753
  0
ARC
  8
DETAIL
  6
CONTINUOUS
 62
     5
 10
-1.62963
 20
167.648148
 30
0.0
 40
1.62963
 50
340.639093
 51
0.0
  0
ARC
  8
DETAIL
  6
CONTINUOUS
 62
     5
 10
-1.62963
 20
167.648148
 30
0.0
 40
0.814815
 50
270.0
 51
271.81229
  0
LINE
  8
DETAIL
  6
CONTINUOUS
 62
     5
 10
0.0
 20
168.055556
 30
0.0
 11
-0.814815
 21
168.055556
 31
0.0
  0
ARC
  8
DETAIL
  6
CONTINUOUS
 62
     5
 10
-9.37037
 20
165.203704
 30
0.0
 40
1.62963
 50
90.0
 51
180.0
  0
LINE
  8
DETAIL
  6
CONTINUOUS
 62
     5
 10
-1.62963
 20
166.833333
 30
0.0
 11
-9.37037
 21
166.833333
 31
0.0
  0
LINE
  8
DETAIL
  6
CONTINUOUS
 62
     5
 10
-11.0
 20
151.759259
 30
0.0
 11
-11.0
 21
165.203704
 31
0.0
  0
LINE
  8
DETAIL
  6
CONTINUOUS
 62
     5
 10
-0.814815
 20
167.648148
 30
0.0
 11
-0.814815
 21
195.0
 31
0.0
  0
LINE
  8
DETAIL
  6
CONTINUOUS
 62
     5
 10
0.0
 20
167.648148
 30
0.0
 11
0.0
 21
195.0
 31
0.0
  0
LINE
  8
DETAIL
  6
CONTINUOUS
 62
     5
 10
-1.62963
 20
168.055556
 30
0.0
 11
-1.62963
 21
195.0
 31
0.0
  0
ARC
  8
DETAIL
  6
CONTINUOUS
 62
     5
 10
-0.814815
 20
166.731481
 30
0.0
 40
0.814815
 50
0.0
 51
90.0
  0
ARC
  8
DETAIL
  6
CONTINUOUS
 62
     5
 10
-0.814815
 20
167.546296
 30
0.0
 40
0.814815
 50
180.0
 51
270.0
  0
LINE
  8
DETAIL
  6
CONTINUOUS
 62
     5
 10
-0.814815
 20
166.731481
 30
0.0
 11
-0.814815
 21
0.0
 31
0.0
  0
LINE
  8
DETAIL
  6
CONTINUOUS
 62
     5
 10
-0.814815
 20
195.0
 30
0.0
 11
-0.814815
 21
167.546296
 31
0.0
  0
LINE
  8
DETAIL
  6
CONTINUOUS
 62
     5
 10
0.0
 20
166.731481
 30
0.0
 11
0.0
 21
0.0
 31
0.0
  0
LINE
  8
DETAIL
  6
CONTINUOUS
 62
     5
 10
-1.62963
 20
195.0
 30
0.0
 11
-1.62963
 21
167.546296
 31
0.0
  0
LINE
  8
DETAIL
  6
CONTINUOUS
 62
     5
 10
-0.814815
 20
-166.018519
 30
0.0
 11
-11.0
 21
-166.018519
 31
0.0
  0
LINE
  8
DETAIL
  6
CONTINUOUS
 62
     5
 10
-11.0
 20
151.759259
 30
0.0
 11
-11.0
 21
0.0
 31
0.0
  0
LINE
  8
DETAIL
  6
CONTINUOUS
 62
     5
 10
0.0
 20
-195.0
 30
0.0
 11
-1.62963
 21
-195.0
 31
0.0
  0
LINE
  8
DETAIL
  6
CONTINUOUS
 62
     5
 10
-1.62963
 20
-168.055556
 30
0.0
 11
-1.62963
 21
-195.0
 31
0.0
  0
LINE
  8
DETAIL
  6
CONTINUOUS
 62
     5
 10
-0.814815
 20
-167.648148
 30
0.0
 11
-0.814815
 21
-195.0
 31
0.0
  0
LINE
  8
DETAIL
  6
CONTINUOUS
 62
     5
 10
-11.0
 20
-151.759259
 30
0.0
 11
-11.0
 21
-165.203704
 31
0.0
  0
LINE
  8
DETAIL
  6
CONTINUOUS
 62
     5
 10
-1.62963
 20
-166.833333
 30
0.0
 11
-9.37037
 21
-166.833333
 31
0.0
  0
LINE
  8
DETAIL
  6
CONTINUOUS
 62
     5
 10
-1.62963
 20
-166.018519
 30
0.0
 11
-9.37037
 21
-166.018519
 31
0.0
  0
LINE
  8
DETAIL
  6
CONTINUOUS
 62
     5
 10
0.0
 20
-168.055556
 30
0.0
 11
-0.814815
 21
-168.055556
 31
0.0
  0
ARC
  8
DETAIL
  6
CONTINUOUS
 62
     5
 10
-1.62963
 20
-167.648148
 30
0.0
 40
0.814815
 50
88.18771
 51
90.0
  0
ARC
  8
DETAIL
  6
CONTINUOUS
 62
     5
 10
-1.62963
 20
-167.648148
 30
0.0
 40
1.62963
 50
60.0
 51
90.0
  0
ARC
  8
DETAIL
  6
CONTINUOUS
 62
     5
 10
-1.62963
 20
-167.648148
 30
0.0
 40
0.814815
 50
0.0
 51
88.18771
  0
LINE
  8
DETAIL
  6
CONTINUOUS
 62
     5
 10
-0.814815
 20
-168.055556
 30
0.0
 11
-1.62963
 21
-168.055556
 31
0.0
  0
ARC
  8
DETAIL
  6
CONTINUOUS
 62
     5
 10
-9.37037
 20
-165.203704
 30
0.0
 40
1.62963
 50
210.0
 51
270.0
  0
LINE
  8
DETAIL
  6
CONTINUOUS
 62
     5
 10
0.0
 20
-155.0
 30
0.0
 11
87.555556
 21
-155.0
 31
0.0
  0
LINE
  8
DETAIL
  6
CONTINUOUS
 62
     5
 10
82.576693
 20
101.498656
 30
0.0
 11
83.634259
 21
100.750845
 31
0.0
  0
LINE
  8
DETAIL
  6
CONTINUOUS
 62
     5
 10
83.634259
 20
100.750845
 30
0.0
 11
87.555556
 21
100.750845
 31
0.0
  0
LINE
  8
DETAIL
  6
CONTINUOUS
 62
     5
 10
87.555556
 20
100.750845
 30
0.0
 11
88.098976
 21
100.794097
 31
0.0
  0
LINE
  8
DETAIL
  6
CONTINUOUS
 62
     5
 10
90.0
 20
102.479328
 30
0.0
 11
90.0
 21
152.555556
 31
0.0
  0
ARC
  8
DETAIL
  6
CONTINUOUS
 62
     5
 10
87.555556
 20
152.555556
 30
0.0
 40
2.444444
 50
0.0
 51
90.0
  0
ARC
  8
DETAIL
  6
CONTINUOUS
 62
     5
 10
112.490741
 20
136.509259
 30
0.0
 40
0.509259
 50
270.0
 51
0.0
  0
ARC
  8
DETAIL
  6
CONTINUOUS
 62
     5
 10
112.490741
 20
143.490741
 30
0.0
 40
0.509259
 50
0.0
 51
90.0
  0
LINE
  8
DETAIL
  6
CONTINUOUS
 62
     5
 10
90.0
 20
144.0
 30
0.0
 11
112.490741
 21
144.0
 31
0.0
  0
LINE
  8
DETAIL
  6
CONTINUOUS
 62
     5
 10
90.0
 20
136.0
 30
0.0
 11
112.490741
 21
136.0
 31
0.0
  0
LINE
  8
DETAIL
  6
CONTINUOUS
 62
     5
 10
89.467525
 20
101.402369
 30
0.0
 11
89.757377
 21
101.728564
 31
0.0
  0
LINE
  8
DETAIL
  6
CONTINUOUS
 62
     5
 10
89.078605
 20
101.127361
 30
0.0
 11
89.467525
 21
101.402369
 31
0.0
  0
LINE
  8
DETAIL
  6
CONTINUOUS
 62
     5
 10
88.617296
 20
100.922404
 30
0.0
 11
89.078605
 21
101.127361
 31
0.0
  0
LINE
  8
DETAIL
  6
CONTINUOUS
 62
     5
 10
88.098976
 20
100.794097
 30
0.0
 11
88.617296
 21
100.922404
 31
0.0
  0
LINE
  8
DETAIL
  6
CONTINUOUS
 62
     5
 10
89.938832
 20
102.095071
 30
0.0
 11
89.757377
 21
101.728564
 31
0.0
  0
LINE
  8
DETAIL
  6
CONTINUOUS
 62
     5
 10
90.0
 20
102.479328
 30
0.0
 11
89.938832
 21
102.095071
 31
0.0
  0
LINE
  8
DETAIL
  6
CONTINUOUS
 62
     5
 10
113.0
 20
136.509259
 30
0.0
 11
113.0
 21
143.490741
 31
0.0
  0
LINE
  8
DETAIL
  6
CONTINUOUS
 62
     5
 10
90.0
 20
-104.351852
 30
0.0
 11
90.0
 21
-152.759259
 31
0.0
  0
ARC
  8
DETAIL
  6
CONTINUOUS
 62
     5
 10
87.555556
 20
-152.555556
 30
0.0
 40
2.444444
 50
270.0
 51
0.0
  0
ARC
  8
DETAIL
  6
CONTINUOUS
 62
     5
 10
112.490741
 20
-136.509259
 30
0.0
 40
0.509259
 50
0.0
 51
90.0
  0
ARC
  8
DETAIL
  6
CONTINUOUS
 62
     5
 10
112.490741
 20
-143.490741
 30
0.0
 40
0.509259
 50
270.0
 51
0.0
  0
LINE
  8
DETAIL
  6
CONTINUOUS
 62
     5
 10
90.0
 20
-144.0
 30
0.0
 11
112.490741
 21
-144.0
 31
0.0
  0
LINE
  8
DETAIL
  6
CONTINUOUS
 62
     5
 10
90.0
 20
-136.0
 30
0.0
 11
112.490741
 21
-136.0
 31
0.0
  0
LINE
  8
DETAIL
  6
CONTINUOUS
 62
     5
 10
113.0
 20
-136.509259
 30
0.0
 11
113.0
 21
-143.490741
 31
0.0
  0
LINE
  8
DETAIL
  6
CONTINUOUS
 62
     5
 10
-34.0
 20
-136.509259
 30
0.0
 11
-34.0
 21
-143.490741
 31
0.0
  0
ARC
  8
DETAIL
  6
CONTINUOUS
 62
     5
 10
-33.490741
 20
-143.490741
 30
0.0
 40
0.509259
 50
180.0
 51
270.0
  0
ARC
  8
DETAIL
  6
CONTINUOUS
 62
     5
 10
-33.490741
 20
-136.509259
 30
0.0
 40
0.509259
 50
90.0
 51
180.0
  0
LINE
  8
DETAIL
  6
CONTINUOUS
 62
     5
 10
-11.0
 20
136.0
 30
0.0
 11
-33.490741
 21
136.0
 31
0.0
  0
LINE
  8
DETAIL
  6
CONTINUOUS
 62
     5
 10
-11.0
 20
144.0
 30
0.0
 11
-33.490741
 21
144.0
 31
0.0
  0
LINE
  8
DETAIL
  6
CONTINUOUS
 62
     5
 10
-11.0
 20
-136.0
 30
0.0
 11
-33.490741
 21
-136.0
 31
0.0
  0
LINE
  8
DETAIL
  6
CONTINUOUS
 62
     5
 10
-11.0
 20
-144.0
 30
0.0
 11
-33.490741
 21
-144.0
 31
0.0
  0
ARC
  8
DETAIL
  6
CONTINUOUS
 62
     5
 10
-33.490741
 20
136.509259
 30
0.0
 40
0.509259
 50
180.0
 51
270.0
  0
ARC
  8
DETAIL
  6
CONTINUOUS
 62
     5
 10
-33.490741
 20
143.490741
 30
0.0
 40
0.509259
 50
90.0
 51
180.0
  0
LINE
  8
DETAIL
  6
CONTINUOUS
 62
     5
 10
-34.0
 20
136.509259
 30
0.0
 11
-34.0
 21
143.490741
 31
0.0
  0
LINE
  8
DETAIL
  6
CONTINUOUS
 62
     5
 10
0.0
 20
155.0
 30
0.0
 11
87.555556
 21
155.0
 31
0.0
  0
LINE
  8
DETAIL
  6
CONTINUOUS
 62
     5
 10
85.925926
 20
96.712963
 30
0.0
 11
90.0
 21
96.712963
 31
0.0
  0
LINE
  8
DETAIL
  6
CONTINUOUS
 62
     5
 10
90.0
 20
-104.351852
 30
0.0
 11
90.0
 21
0.0
 31
0.0
  0
ARC
  8
DETAIL
  6
CONTINUOUS
 62
     5
 10
85.925926
 20
100.277778
 30
0.0
 40
3.564815
 50
159.971945
 51
180.0
  0
ARC
  8
DETAIL
  6
CONTINUOUS
 62
     5
 10
85.925926
 20
100.277778
 30
0.0
 40
3.564815
 50
180.0
 51
270.0
  0
LINE
  8
DETAIL
  6
CONTINUOUS
 62
     5
 10
0.0
 20
195.0
 30
0.0
 11
-1.62963
 21
195.0
 31
0.0
  0
LINE
  8
DETAIL
  6
CONTINUOUS
 62
     5
 10
90.0
 20
0.0
 30
0.0
 11
90.0
 21
96.712963
 31
0.0
  0
LINE
  8
DETAIL
  6
CONTINUOUS
 62
     5
 10
-11.0
 20
0.0
 30
0.0
 11
-11.0
 21
-166.018519
 31
0.0
  0
LINE
  8
DETAIL
  6
CONTINUOUS
 62
     5
 10
0.0
 20
0.0
 30
0.0
 11
0.0
 21
-195.0
 31
0.0
  0
LINE
  8
DETAIL
  6
CONTINUOUS
 62
     5
 10
-0.814815
 20
0.0
 30
0.0
 11
-0.814815
 21
-195.0
 31
0.0
  0
LINE
  8
NOTE
  6
CONTINUOUS
 62
     4
 10
-0.814815
 20
-200.0
 30
0.0
 11
-0.814815
 21
-160.0
 31
0.0
  0
LINE
  8
NOTE
  6
CONTINUOUS
 62
     4
 10
-20.814815
 20
-180.0
 30
0.0
 11
19.185185
 21
-180.0
 31
0.0
  0
LINE
  8
NOTE
  6
CONTINUOUS
 62
     4
 10
-0.814815
 20
160.0
 30
0.0
 11
-0.814815
 21
200.0
 31
0.0
  0
LINE
  8
NOTE
  6
CONTINUOUS
 62
     4
 10
-20.814815
 20
180.0
 30
0.0
 11
19.185185
 21
180.0
 31
0.0
  0
POINT
  8
ARRANGE
  6
CONTINUOUS
 62
     1
 10
0.0
 20
0.0
 30
0.0
 39
50.0
  0
LINE
  8
NOTE
  6
CONTINUOUS
 62
     4
 10
-34.0
 20
120.0
 30
0.0
 11
-34.0
 21
160.0
 31
0.0
  0
LINE
  8
NOTE
  6
CONTINUOUS
 62
     4
 10
-54.0
 20
140.0
 30
0.0
 11
-14.0
 21
140.0
 31
0.0
  0
LINE
  8
NOTE
  6
CONTINUOUS
 62
     4
 10
-34.0
 20
-160.0
 30
0.0
 11
-34.0
 21
-120.0
 31
0.0
  0
LINE
  8
NOTE
  6
CONTINUOUS
 62
     4
 10
-54.0
 20
-140.0
 30
0.0
 11
-14.0
 21
-140.0
 31
0.0
  0
LINE
  8
NOTE
  6
CONTINUOUS
 62
     4
 10
113.0
 20
-160.0
 30
0.0
 11
113.0
 21
-120.0
 31
0.0
  0
LINE
  8
NOTE
  6
CONTINUOUS
 62
     4
 10
93.0
 20
-140.0
 30
0.0
 11
133.0
 21
-140.0
 31
0.0
  0
LINE
  8
NOTE
  6
CONTINUOUS
 62
     4
 10
-40.153844
 20
-179.523793
 30
0.0
 11
-34.0
 21
-140.0
 31
0.0
  0
LINE
  8
NOTE
  6
CONTINUOUS
 62
     4
 10
-34.0
 20
-140.0
 30
0.0
 11
-59.091282
 21
-171.151687
 31
0.0
  0
LINE
  8
NOTE
  6
CONTINUOUS
 62
     4
 10
113.0
 20
120.0
 30
0.0
 11
113.0
 21
160.0
 31
0.0
  0
LINE
  8
NOTE
  6
CONTINUOUS
 62
     4
 10
93.0
 20
140.0
 30
0.0
 11
133.0
 21
140.0
 31
0.0
  0
TEXT
  8
NOTE
  6
CONTINUOUS
 62
     4
 10
-377.369007
 20
-359.652218
 30
0.0
 40
64.0
  1
4-M8
 41
0.9
  0
LINE
  8
NOTE
  6
CONTINUOUS
 62
     4
 39
50.0
 10
-141.629336
 20
-383.454132
 30
0.0
 11
-390.160836
 21
-383.454132
 31
0.0
  0
LINE
  8
NOTE
  6
CONTINUOUS
 62
     4
 39
50.0
 10
-141.629336
 20
-383.454132
 30
0.0
 11
-34.0
 21
-140.0
 31
0.0
  0
LINE
  8
NOTE
  6
CONTINUOUS
 62
     4
 10
30.477663
 20
-204.915474
 30
0.0
 11
-0.814815
 21
-180.0
 31
0.0
  0
LINE
  8
NOTE
  6
CONTINUOUS
 62
     4
 10
-0.814815
 20
-180.0
 30
0.0
 11
13.827529
 21
-217.223672
 31
0.0
  0
TEXT
  8
NOTE
  6
CONTINUOUS
 62
     4
 10
229.856224
 20
-496.122985
 30
0.0
 40
64.0
  1
4-φ12
 41
0.9
  0
LINE
  8
NOTE
  6
CONTINUOUS
 62
     4
 39
50.0
 10
224.604749
 20
-513.18069
 30
0.0
 11
515.985948
 21
-513.18069
 31
0.0
  0
LINE
  8
NOTE
  6
CONTINUOUS
 62
     4
 39
50.0
 10
-0.814815
 20
-180.0
 30
0.0
 11
224.604749
 21
-513.18069
 31
0.0
  0
LINE
  8
SIZE
  6
CONTINUOUS
 62
    30
 10
-74.0
 20
140.0
 30
0.0
 11
-118.733249
 21
140.0
 31
0.0
  0
LINE
  8
SIZE
  6
CONTINUOUS
 62
    30
 10
-74.0
 20
-140.0
 30
0.0
 11
-118.733249
 21
-140.0
 31
0.0
  0
LINE
  8
SIZE
  6
CONTINUOUS
 62
    30
 10
-98.733249
 20
128.0
 30
0.0
 11
-98.733249
 21
-128.0
 31
0.0
  0
CIRCLE
  8
SIZE
  6
CONTINUOUS
 62
    30
 10
-98.733249
 20
140.0
 30
0.0
 40
6.0
  0
LINE
  8
SIZE
  6
CONTINUOUS
 62
    30
 10
-98.733249
 20
140.0
 30
0.0
 11
-98.733249
 21
128.0
 31
0.0
  0
CIRCLE
  8
SIZE
  6
CONTINUOUS
 62
    30
 10
-98.733249
 20
-140.0
 30
0.0
 40
6.0
  0
LINE
  8
SIZE
  6
CONTINUOUS
 62
    30
 10
-98.733249
 20
-140.0
 30
0.0
 11
-98.733249
 21
-128.0
 31
0.0
  0
TEXT
  8
SIZE
  6
CONTINUOUS
 62
    30
 10
-123.733249
 20
-80.928
 30
0.0
 40
64.0
  1
280
 50
90.0
 41
0.9
 51
0.0
  7
STANDARD
 71
     0
 72
     1
 11
-123.733249
 21
0.0
 31
0.0
210
0.0
220
0.0
230
1.0
  0
POINT
  8
DEFPOINTS
  6
CONTINUOUS
 62
    30
 10
-54.0
 20
140.0
 30
0.0
  0
POINT
  8
DEFPOINTS
  6
CONTINUOUS
 62
    30
 10
-54.0
 20
-140.0
 30
0.0
  0
POINT
  8
DEFPOINTS
  6
CONTINUOUS
 62
    30
 10
-98.733249
 20
-140.0
 30
0.0
  0
LINE
  8
SIZE
  6
CONTINUOUS
 62
    30
 10
-40.814815
 20
180.0
 30
0.0
 11
-237.734609
 21
180.0
 31
0.0
  0
LINE
  8
SIZE
  6
CONTINUOUS
 62
    30
 10
-40.814815
 20
-180.0
 30
0.0
 11
-237.734609
 21
-180.0
 31
0.0
  0
LINE
  8
SIZE
  6
CONTINUOUS
 62
    30
 10
-217.734609
 20
168.0
 30
0.0
 11
-217.734609
 21
-168.0
 31
0.0
  0
CIRCLE
  8
SIZE
  6
CONTINUOUS
 62
    30
 10
-217.734609
 20
180.0
 30
0.0
 40
6.0
  0
LINE
  8
SIZE
  6
CONTINUOUS
 62
    30
 10
-217.734609
 20
180.0
 30
0.0
 11
-217.734609
 21
168.0
 31
0.0
  0
CIRCLE
  8
SIZE
  6
CONTINUOUS
 62
    30
 10
-217.734609
 20
-180.0
 30
0.0
 40
6.0
  0
LINE
  8
SIZE
  6
CONTINUOUS
 62
    30
 10
-217.734609
 20
-180.0
 30
0.0
 11
-217.734609
 21
-168.0
 31
0.0
  0
TEXT
  8
SIZE
  6
CONTINUOUS
 62
    30
 10
-242.734609
 20
-80.928
 30
0.0
 40
64.0
  1
360
 50
90.0
 41
0.9
 51
0.0
  7
STANDARD
 71
     0
 72
     1
 11
-242.734609
 21
0.0
 31
0.0
210
0.0
220
0.0
230
1.0
  0
POINT
  8
DEFPOINTS
  6
CONTINUOUS
 62
    30
 10
-20.814815
 20
180.0
 30
0.0
  0
POINT
  8
DEFPOINTS
  6
CONTINUOUS
 62
    30
 10
-20.814815
 20
-180.0
 30
0.0
  0
POINT
  8
DEFPOINTS
  6
CONTINUOUS
 62
    30
 10
-217.734609
 20
-180.0
 30
0.0
  0
LINE
  8
SIZE
  6
CONTINUOUS
 62
    30
 10
-21.62963
 20
195.0
 30
0.0
 11
-361.016055
 21
195.0
 31
0.0
  0
LINE
  8
SIZE
  6
CONTINUOUS
 62
    30
 10
-21.62963
 20
-195.0
 30
0.0
 11
-361.016055
 21
-195.0
 31
0.0
  0
LINE
  8
SIZE
  6
CONTINUOUS
 62
    30
 10
-341.016055
 20
183.0
 30
0.0
 11
-341.016055
 21
-183.0
 31
0.0
  0
CIRCLE
  8
SIZE
  6
CONTINUOUS
 62
    30
 10
-341.016055
 20
195.0
 30
0.0
 40
6.0
  0
LINE
  8
SIZE
  6
CONTINUOUS
 62
    30
 10
-341.016055
 20
195.0
 30
0.0
 11
-341.016055
 21
183.0
 31
0.0
  0
CIRCLE
  8
SIZE
  6
CONTINUOUS
 62
    30
 10
-341.016055
 20
-195.0
 30
0.0
 40
6.0
  0
LINE
  8
SIZE
  6
CONTINUOUS
 62
    30
 10
-341.016055
 20
-195.0
 30
0.0
 11
-341.016055
 21
-183.0
 31
0.0
  0
TEXT
  8
SIZE
  6
CONTINUOUS
 62
    30
 10
-366.016055
 20
-80.928
 30
0.0
 40
64.0
  1
390
 50
90.0
 41
0.9
 51
0.0
  7
STANDARD
 71
     0
 72
     1
 11
-366.016055
 21
0.0
 31
0.0
210
0.0
220
0.0
230
1.0
  0
POINT
  8
DEFPOINTS
  6
CONTINUOUS
 62
    30
 10
-1.62963
 20
195.0
 30
0.0
  0
POINT
  8
DEFPOINTS
  6
CONTINUOUS
 62
    30
 10
-1.62963
 20
-195.0
 30
0.0
  0
POINT
  8
DEFPOINTS
  6
CONTINUOUS
 62
    30
 10
-341.016055
 20
-195.0
 30
0.0
  0
LINE
  8
SIZE
  6
CONTINUOUS
 62
    30
 10
153.0
 20
140.0
 30
0.0
 11
339.926495
 21
140.0
 31
0.0
  0
LINE
  8
SIZE
  6
CONTINUOUS
 62
    30
 10
153.0
 20
-140.0
 30
0.0
 11
339.926495
 21
-140.0
 31
0.0
  0
LINE
  8
SIZE
  6
CONTINUOUS
 62
    30
 10
319.926495
 20
128.0
 30
0.0
 11
319.926495
 21
-128.0
 31
0.0
  0
CIRCLE
  8
SIZE
  6
CONTINUOUS
 62
    30
 10
319.926495
 20
140.0
 30
0.0
 40
6.0
  0
LINE
  8
SIZE
  6
CONTINUOUS
 62
    30
 10
319.926495
 20
140.0
 30
0.0
 11
319.926495
 21
128.0
 31
0.0
  0
CIRCLE
  8
SIZE
  6
CONTINUOUS
 62
    30
 10
319.926495
 20
-140.0
 30
0.0
 40
6.0
  0
LINE
  8
SIZE
  6
CONTINUOUS
 62
    30
 10
319.926495
 20
-140.0
 30
0.0
 11
319.926495
 21
-128.0
 31
0.0
  0
TEXT
  8
SIZE
  6
CONTINUOUS
 62
    30
 10
294.926495
 20
-80.928
 30
0.0
 40
64.0
  1
280
 50
90.0
 41
0.9
 51
0.0
  7
STANDARD
 71
     0
 72
     1
 11
294.926495
 21
0.0
 31
0.0
210
0.0
220
0.0
230
1.0
  0
POINT
  8
DEFPOINTS
  6
CONTINUOUS
 62
    30
 10
133.0
 20
140.0
 30
0.0
  0
POINT
  8
DEFPOINTS
  6
CONTINUOUS
 62
    30
 10
133.0
 20
-140.0
 30
0.0
  0
POINT
  8
DEFPOINTS
  6
CONTINUOUS
 62
    30
 10
319.926495
 20
-140.0
 30
0.0
  0
LINE
  8
SIZE
  6
CONTINUOUS
 62
    30
 10
107.555556
 20
155.0
 30
0.0
 11
474.716789
 21
155.0
 31
0.0
  0
LINE
  8
SIZE
  6
CONTINUOUS
 62
    30
 10
107.555556
 20
-155.0
 30
0.0
 11
474.716789
 21
-155.0
 31
0.0
  0
LINE
  8
SIZE
  6
CONTINUOUS
 62
    30
 10
454.716789
 20
143.0
 30
0.0
 11
454.716789
 21
-143.0
 31
0.0
  0
CIRCLE
  8
SIZE
  6
CONTINUOUS
 62
    30
 10
454.716789
 20
155.0
 30
0.0
 40
6.0
  0
LINE
  8
SIZE
  6
CONTINUOUS
 62
    30
 10
454.716789
 20
155.0
 30
0.0
 11
454.716789
 21
143.0
 31
0.0
  0
CIRCLE
  8
SIZE
  6
CONTINUOUS
 62
    30
 10
454.716789
 20
-155.0
 30
0.0
 40
6.0
  0
LINE
  8
SIZE
  6
CONTINUOUS
 62
    30
 10
454.716789
 20
-155.0
 30
0.0
 11
454.716789
 21
-143.0
 31
0.0
  0
TEXT
  8
SIZE
  6
CONTINUOUS
 62
    30
 10
429.716789
 20
-109.728
 30
0.0
 40
64.0
  1
□310
 50
90.0
 41
0.9
 51
0.0
  7
STANDARD
 71
     0
 72
     1
 11
429.716789
 21
0.0
 31
0.0
210
0.0
220
0.0
230
1.0
  0
POINT
  8
DEFPOINTS
  6
CONTINUOUS
 62
    30
 10
87.555556
 20
155.0
 30
0.0
  0
POINT
  8
DEFPOINTS
  6
CONTINUOUS
 62
    30
 10
87.555556
 20
-155.0
 30
0.0
  0
POINT
  8
DEFPOINTS
  6
CONTINUOUS
 62
    30
 10
454.716789
 20
-155.0
 30
0.0
  0
TEXT
  8
NOTE
  6
CONTINUOUS
 62
     4
 10
259.947995
 20
-359.652218
 30
0.0
 40
64.0
  1
4-M8
 41
0.9
  0
LINE
  8
NOTE
  6
CONTINUOUS
 62
     4
 39
50.0
 10
495.687666
 20
-383.454132
 30
0.0
 11
247.156166
 21
-383.454132
 31
0.0
  0
LINE
  8
NOTE
  6
CONTINUOUS
 62
     4
 10
141.972867
 20
-167.578488
 30
0.0
 11
113.0
 21
-140.0
 31
0.0
  0
LINE
  8
NOTE
  6
CONTINUOUS
 62
     4
 10
113.0
 20
-140.0
 30
0.0
 11
124.301995
 21
-178.370104
 31
0.0
  0
LINE
  8
NOTE
  6
CONTINUOUS
 62
     4
 39
50.0
 10
113.0
 20
-140.0
 30
0.0
 11
247.156166
 21
-383.454132
 31
0.0
  0
LINE
  8
SIZE
  6
CONTINUOUS
 62
    30
 10
-34.0
 20
163.564815
 30
0.0
 11
-34.0
 21
271.958133
 31
0.0
  0
LINE
  8
SIZE
  6
CONTINUOUS
 62
    30
 10
-11.0
 20
185.203704
 30
0.0
 11
-11.0
 21
271.958133
 31
0.0
  0
LINE
  8
SIZE
  6
CONTINUOUS
 62
    30
 10
1.0
 20
251.958133
 30
0.0
 11
13.0
 21
251.958133
 31
0.0
  0
LINE
  8
SIZE
  6
CONTINUOUS
 62
    30
 10
-46.0
 20
251.958133
 30
0.0
 11
-201.257143
 21
251.958133
 31
0.0
  0
LINE
  8
SIZE
  6
CONTINUOUS
 62
    30
 10
-11.0
 20
251.958133
 30
0.0
 11
-34.0
 21
251.958133
 31
0.0
  0
CIRCLE
  8
SIZE
  6
CONTINUOUS
 62
    30
 10
-11.0
 20
251.958133
 30
0.0
 40
6.0
  0
LINE
  8
SIZE
  6
CONTINUOUS
 62
    30
 10
-11.0
 20
251.958133
 30
0.0
 11
1.0
 21
251.958133
 31
0.0
  0
CIRCLE
  8
SIZE
  6
CONTINUOUS
 62
    30
 10
-34.0
 20
251.958133
 30
0.0
 40
6.0
  0
LINE
  8
SIZE
  6
CONTINUOUS
 62
    30
 10
-34.0
 20
251.958133
 30
0.0
 11
-46.0
 21
251.958133
 31
0.0
  0
TEXT
  8
SIZE
  6
CONTINUOUS
 62
    30
 10
-183.196571
 20
276.958133
 30
0.0
 40
64.0
  1
23
 50
0.0
 41
0.9
 51
0.0
  7
STANDARD
 71
     0
 72
     1
 11
-129.628571
 21
276.958133
 31
0.0
210
0.0
220
0.0
230
1.0
  0
POINT
  8
DEFPOINTS
  6
CONTINUOUS
 62
    30
 10
-34.0
 20
143.564815
 30
0.0
  0
POINT
  8
DEFPOINTS
  6
CONTINUOUS
 62
    30
 10
-11.0
 20
165.203704
 30
0.0
  0
POINT
  8
DEFPOINTS
  6
CONTINUOUS
 62
    30
 10
-11.0
 20
251.958133
 30
0.0
  0
LINE
  8
SIZE
  6
CONTINUOUS
 62
    30
 10
-11.0
 20
185.203704
 30
0.0
 11
-11.0
 21
384.501631
 31
0.0
  0
LINE
  8
SIZE
  6
CONTINUOUS
 62
    30
 10
0.0
 20
215.0
 30
0.0
 11
0.0
 21
384.501631
 31
0.0
  0
LINE
  8
SIZE
  6
CONTINUOUS
 62
    30
 10
12.0
 20
364.501631
 30
0.0
 11
24.0
 21
364.501631
 31
0.0
  0
LINE
  8
SIZE
  6
CONTINUOUS
 62
    30
 10
-23.0
 20
364.501631
 30
0.0
 11
-162.184295
 21
364.501631
 31
0.0
  0
LINE
  8
SIZE
  6
CONTINUOUS
 62
    30
 10
0.0
 20
364.501631
 30
0.0
 11
-11.0
 21
364.501631
 31
0.0
  0
CIRCLE
  8
SIZE
  6
CONTINUOUS
 62
    30
 10
0.0
 20
364.501631
 30
0.0
 40
6.0
  0
LINE
  8
SIZE
  6
CONTINUOUS
 62
    30
 10
0.0
 20
364.501631
 30
0.0
 11
12.0
 21
364.501631
 31
0.0
  0
CIRCLE
  8
SIZE
  6
CONTINUOUS
 62
    30
 10
-11.0
 20
364.501631
 30
0.0
 40
6.0
  0
LINE
  8
SIZE
  6
CONTINUOUS
 62
    30
 10
-11.0
 20
364.501631
 30
0.0
 11
-23.0
 21
364.501631
 31
0.0
  0
TEXT
  8
SIZE
  6
CONTINUOUS
 62
    30
 10
-150.432295
 20
389.501631
 30
0.0
 40
64.0
  1
11
 50
0.0
 41
0.9
 51
0.0
  7
STANDARD
 71
     0
 72
     1
 11
-108.384295
 21
389.501631
 31
0.0
210
0.0
220
0.0
230
1.0
  0
POINT
  8
DEFPOINTS
  6
CONTINUOUS
 62
    30
 10
-11.0
 20
165.203704
 30
0.0
  0
POINT
  8
DEFPOINTS
  6
CONTINUOUS
 62
    30
 10
0.0
 20
195.0
 30
0.0
  0
POINT
  8
DEFPOINTS
  6
CONTINUOUS
 62
    30
 10
0.0
 20
364.501631
 30
0.0
  0
LINE
  8
SIZE
  6
CONTINUOUS
 62
    30
 10
0.0
 20
215.0
 30
0.0
 11
0.0
 21
384.501631
 31
0.0
  0
LINE
  8
SIZE
  6
CONTINUOUS
 62
    30
 10
90.0
 20
172.759259
 30
0.0
 11
90.0
 21
384.501631
 31
0.0
  0
LINE
  8
SIZE
  6
CONTINUOUS
 62
    30
 10
12.0
 20
364.501631
 30
0.0
 11
78.0
 21
364.501631
 31
0.0
  0
LINE
  8
SIZE
  6
CONTINUOUS
 62
    30
 10
90.0
 20
364.501631
 30
0.0
 11
556.902008
 21
364.501631
 31
0.0
  0
CIRCLE
  8
SIZE
  6
CONTINUOUS
 62
    30
 10
0.0
 20
364.501631
 30
0.0
 40
6.0
  0
LINE
  8
SIZE
  6
CONTINUOUS
 62
    30
 10
0.0
 20
364.501631
 30
0.0
 11
12.0
 21
364.501631
 31
0.0
  0
CIRCLE
  8
SIZE
  6
CONTINUOUS
 62
    30
 10
90.0
 20
364.501631
 30
0.0
 40
6.0
  0
LINE
  8
SIZE
  6
CONTINUOUS
 62
    30
 10
90.0
 20
364.501631
 30
0.0
 11
78.0
 21
364.501631
 31
0.0
  0
TEXT
  8
SIZE
  6
CONTINUOUS
 62
    30
 10
232.844866
 20
391.263536
 30
0.0
 40
64.0
  1
90(最小)
 50
0.0
 41
0.9
 51
0.0
  7
STANDARD
 71
     0
 72
     1
 11
394.124866
 21
391.263536
 31
0.0
210
0.0
220
0.0
230
1.0
  0
POINT
  8
DEFPOINTS
  6
CONTINUOUS
 62
    30
 10
0.0
 20
195.0
 30
0.0
  0
POINT
  8
DEFPOINTS
  6
CONTINUOUS
 62
    30
 10
90.0
 20
152.759259
 30
0.0
  0
POINT
  8
DEFPOINTS
  6
CONTINUOUS
 62
    30
 10
90.0
 20
364.501631
 30
0.0
  0
LINE
  8
SIZE
  6
CONTINUOUS
 62
    30
 10
90.0
 20
172.759259
 30
0.0
 11
90.0
 21
271.958133
 31
0.0
  0
LINE
  8
SIZE
  6
CONTINUOUS
 62
    30
 10
113.0
 20
163.564815
 30
0.0
 11
113.0
 21
271.958133
 31
0.0
  0
LINE
  8
SIZE
  6
CONTINUOUS
 62
    30
 10
78.0
 20
251.958133
 30
0.0
 11
66.0
 21
251.958133
 31
0.0
  0
LINE
  8
SIZE
  6
CONTINUOUS
 62
    30
 10
125.0
 20
251.958133
 30
0.0
 11
320.104013
 21
251.958133
 31
0.0
  0
LINE
  8
SIZE
  6
CONTINUOUS
 62
    30
 10
90.0
 20
251.958133
 30
0.0
 11
113.0
 21
251.958133
 31
0.0
  0
CIRCLE
  8
SIZE
  6
CONTINUOUS
 62
    30
 10
90.0
 20
251.958133
 30
0.0
 40
6.0
  0
LINE
  8
SIZE
  6
CONTINUOUS
 62
    30
 10
90.0
 20
251.958133
 30
0.0
 11
78.0
 21
251.958133
 31
0.0
  0
CIRCLE
  8
SIZE
  6
CONTINUOUS
 62
    30
 10
113.0
 20
251.958133
 30
0.0
 40
6.0
  0
LINE
  8
SIZE
  6
CONTINUOUS
 62
    30
 10
113.0
 20
251.958133
 30
0.0
 11
125.0
 21
251.958133
 31
0.0
  0
TEXT
  8
SIZE
  6
CONTINUOUS
 62
    30
 10
194.907442
 20
276.958133
 30
0.0
 40
64.0
  1
23
 50
0.0
 41
0.9
 51
0.0
  7
STANDARD
 71
     0
 72
     1
 11
248.475442
 21
276.958133
 31
0.0
210
0.0
220
0.0
230
1.0
  0
POINT
  8
DEFPOINTS
  6
CONTINUOUS
 62
    30
 10
90.0
 20
152.759259
 30
0.0
  0
POINT
  8
DEFPOINTS
  6
CONTINUOUS
 62
    30
 10
113.0
 20
143.564815
 30
0.0
  0
POINT
  8
DEFPOINTS
  6
CONTINUOUS
 62
    30
 10
113.0
 20
251.958133
 30
0.0
  0
ARC
  8
OUTLINE
  6
CONTINUOUS
 62
     3
 10
-1.62963
 20
167.648148
 30
0.0
 40
0.814815
 50
271.81229
 51
293.132753
  0
ARC
  8
OUTLINE
  6
CONTINUOUS
 62
     3
 10
-1.62963
 20
167.648148
 30
0.0
 40
1.62963
 50
340.639093
 51
0.0
  0
ARC
  8
OUTLINE
  6
CONTINUOUS
 62
     3
 10
-1.62963
 20
167.648148
 30
0.0
 40
0.814815
 50
270.0
 51
271.81229
  0
LINE
  8
OUTLINE
  6
CONTINUOUS
 62
     3
 10
0.0
 20
168.055556
 30
0.0
 11
-0.814815
 21
168.055556
 31
0.0
  0
ARC
  8
OUTLINE
  6
CONTINUOUS
 62
     3
 10
-9.37037
 20
165.203704
 30
0.0
 40
1.62963
 50
90.0
 51
180.0
  0
LINE
  8
OUTLINE
  6
CONTINUOUS
 62
     3
 10
-1.62963
 20
166.833333
 30
0.0
 11
-9.37037
 21
166.833333
 31
0.0
  0
LINE
  8
OUTLINE
  6
CONTINUOUS
 62
     3
 10
-11.0
 20
151.759259
 30
0.0
 11
-11.0
 21
165.203704
 31
0.0
  0
LINE
  8
OUTLINE
  6
CONTINUOUS
 62
     3
 10
-0.814815
 20
167.648148
 30
0.0
 11
-0.814815
 21
195.0
 31
0.0
  0
LINE
  8
OUTLINE
  6
CONTINUOUS
 62
     3
 10
0.0
 20
167.648148
 30
0.0
 11
0.0
 21
195.0
 31
0.0
  0
LINE
  8
OUTLINE
  6
CONTINUOUS
 62
     3
 10
-1.62963
 20
168.055556
 30
0.0
 11
-1.62963
 21
195.0
 31
0.0
  0
ARC
  8
OUTLINE
  6
CONTINUOUS
 62
     3
 10
-0.814815
 20
166.731481
 30
0.0
 40
0.814815
 50
0.0
 51
90.0
  0
ARC
  8
OUTLINE
  6
CONTINUOUS
 62
     3
 10
-0.814815
 20
167.546296
 30
0.0
 40
0.814815
 50
180.0
 51
270.0
  0
LINE
  8
OUTLINE
  6
CONTINUOUS
 62
     3
 10
-0.814815
 20
166.731481
 30
0.0
 11
-0.814815
 21
0.0
 31
0.0
  0
LINE
  8
OUTLINE
  6
CONTINUOUS
 62
     3
 10
-0.814815
 20
0.0
 30
0.0
 11
-0.814815
 21
-195.0
 31
0.0
  0
LINE
  8
OUTLINE
  6
CONTINUOUS
 62
     3
 10
-0.814815
 20
195.0
 30
0.0
 11
-0.814815
 21
167.546296
 31
0.0
  0
LINE
  8
OUTLINE
  6
CONTINUOUS
 62
     3
 10
0.0
 20
166.731481
 30
0.0
 11
0.0
 21
0.0
 31
0.0
  0
LINE
  8
OUTLINE
  6
CONTINUOUS
 62
     3
 10
0.0
 20
0.0
 30
0.0
 11
0.0
 21
-195.0
 31
0.0
  0
LINE
  8
OUTLINE
  6
CONTINUOUS
 62
     3
 10
-1.62963
 20
195.0
 30
0.0
 11
-1.62963
 21
167.546296
 31
0.0
  0
LINE
  8
OUTLINE
  6
CONTINUOUS
 62
     3
 10
-0.814815
 20
-166.018519
 30
0.0
 11
-11.0
 21
-166.018519
 31
0.0
  0
LINE
  8
OUTLINE
  6
CONTINUOUS
 62
     3
 10
-11.0
 20
151.759259
 30
0.0
 11
-11.0
 21
0.0
 31
0.0
  0
LINE
  8
OUTLINE
  6
CONTINUOUS
 62
     3
 10
-11.0
 20
0.0
 30
0.0
 11
-11.0
 21
-166.018519
 31
0.0
  0
LINE
  8
OUTLINE
  6
CONTINUOUS
 62
     3
 10
0.0
 20
-195.0
 30
0.0
 11
-1.62963
 21
-195.0
 31
0.0
  0
LINE
  8
OUTLINE
  6
CONTINUOUS
 62
     3
 10
-1.62963
 20
-168.055556
 30
0.0
 11
-1.62963
 21
-195.0
 31
0.0
  0
LINE
  8
OUTLINE
  6
CONTINUOUS
 62
     3
 10
-0.814815
 20
-167.648148
 30
0.0
 11
-0.814815
 21
-195.0
 31
0.0
  0
LINE
  8
OUTLINE
  6
CONTINUOUS
 62
     3
 10
-11.0
 20
-151.759259
 30
0.0
 11
-11.0
 21
-165.203704
 31
0.0
  0
LINE
  8
OUTLINE
  6
CONTINUOUS
 62
     3
 10
-1.62963
 20
-166.833333
 30
0.0
 11
-9.37037
 21
-166.833333
 31
0.0
  0
LINE
  8
OUTLINE
  6
CONTINUOUS
 62
     3
 10
-1.62963
 20
-166.018519
 30
0.0
 11
-9.37037
 21
-166.018519
 31
0.0
  0
LINE
  8
OUTLINE
  6
CONTINUOUS
 62
     3
 10
0.0
 20
-168.055556
 30
0.0
 11
-0.814815
 21
-168.055556
 31
0.0
  0
ARC
  8
OUTLINE
  6
CONTINUOUS
 62
     3
 10
-1.62963
 20
-167.648148
 30
0.0
 40
0.814815
 50
88.18771
 51
90.0
  0
ARC
  8
OUTLINE
  6
CONTINUOUS
 62
     3
 10
-1.62963
 20
-167.648148
 30
0.0
 40
1.62963
 50
60.0
 51
90.0
  0
ARC
  8
OUTLINE
  6
CONTINUOUS
 62
     3
 10
-1.62963
 20
-167.648148
 30
0.0
 40
0.814815
 50
0.0
 51
88.18771
  0
LINE
  8
OUTLINE
  6
CONTINUOUS
 62
     3
 10
-0.814815
 20
-168.055556
 30
0.0
 11
-1.62963
 21
-168.055556
 31
0.0
  0
ARC
  8
OUTLINE
  6
CONTINUOUS
 62
     3
 10
-9.37037
 20
-165.203704
 30
0.0
 40
1.62963
 50
210.0
 51
270.0
  0
LINE
  8
OUTLINE
  6
CONTINUOUS
 62
     3
 10
0.0
 20
-155.0
 30
0.0
 11
87.555556
 21
-155.0
 31
0.0
  0
LINE
  8
OUTLINE
  6
CONTINUOUS
 62
     3
 10
82.576693
 20
101.498656
 30
0.0
 11
83.634259
 21
100.750845
 31
0.0
  0
LINE
  8
OUTLINE
  6
CONTINUOUS
 62
     3
 10
83.634259
 20
100.750845
 30
0.0
 11
87.555556
 21
100.750845
 31
0.0
  0
LINE
  8
OUTLINE
  6
CONTINUOUS
 62
     3
 10
87.555556
 20
100.750845
 30
0.0
 11
88.098976
 21
100.794097
 31
0.0
  0
LINE
  8
OUTLINE
  6
CONTINUOUS
 62
     3
 10
90.0
 20
102.479328
 30
0.0
 11
90.0
 21
152.555556
 31
0.0
  0
ARC
  8
OUTLINE
  6
CONTINUOUS
 62
     3
 10
87.555556
 20
152.555556
 30
0.0
 40
2.444444
 50
0.0
 51
90.0
  0
LINE
  8
OUTLINE
  6
CONTINUOUS
 62
     3
 10
89.467525
 20
101.402369
 30
0.0
 11
89.757377
 21
101.728564
 31
0.0
  0
LINE
  8
OUTLINE
  6
CONTINUOUS
 62
     3
 10
89.078605
 20
101.127361
 30
0.0
 11
89.467525
 21
101.402369
 31
0.0
  0
LINE
  8
OUTLINE
  6
CONTINUOUS
 62
     3
 10
88.617296
 20
100.922404
 30
0.0
 11
89.078605
 21
101.127361
 31
0.0
  0
LINE
  8
OUTLINE
  6
CONTINUOUS
 62
     3
 10
88.098976
 20
100.794097
 30
0.0
 11
88.617296
 21
100.922404
 31
0.0
  0
LINE
  8
OUTLINE
  6
CONTINUOUS
 62
     3
 10
89.938832
 20
102.095071
 30
0.0
 11
89.757377
 21
101.728564
 31
0.0
  0
LINE
  8
OUTLINE
  6
CONTINUOUS
 62
     3
 10
90.0
 20
102.479328
 30
0.0
 11
89.938832
 21
102.095071
 31
0.0
  0
LINE
  8
OUTLINE
  6
CONTINUOUS
 62
     3
 10
90.0
 20
-104.351852
 30
0.0
 11
90.0
 21
-152.759259
 31
0.0
  0
ARC
  8
OUTLINE
  6
CONTINUOUS
 62
     3
 10
87.555556
 20
-152.555556
 30
0.0
 40
2.444444
 50
270.0
 51
0.0
  0
LINE
  8
OUTLINE
  6
CONTINUOUS
 62
     3
 10
0.0
 20
155.0
 30
0.0
 11
87.555556
 21
155.0
 31
0.0
  0
LINE
  8
OUTLINE
  6
CONTINUOUS
 62
     3
 10
85.925926
 20
96.712963
 30
0.0
 11
90.0
 21
96.712963
 31
0.0
  0
LINE
  8
OUTLINE
  6
CONTINUOUS
 62
     3
 10
90.0
 20
-104.351852
 30
0.0
 11
90.0
 21
0.0
 31
0.0
  0
LINE
  8
OUTLINE
  6
CONTINUOUS
 62
     3
 10
90.0
 20
0.0
 30
0.0
 11
90.0
 21
96.712963
 31
0.0
  0
ARC
  8
OUTLINE
  6
CONTINUOUS
 62
     3
 10
85.925926
 20
100.277778
 30
0.0
 40
3.564815
 50
159.971945
 51
180.0
  0
ARC
  8
OUTLINE
  6
CONTINUOUS
 62
     3
 10
85.925926
 20
100.277778
 30
0.0
 40
3.564815
 50
180.0
 51
270.0
  0
LINE
  8
OUTLINE
  6
CONTINUOUS
 62
     3
 10
0.0
 20
195.0
 30
0.0
 11
-1.62963
 21
195.0
 31
0.0
  0
LINE
  8
DETAIL
  6
DASHED
 62
     5
 10
70.0
 20
-155.0
 30
0.0
 11
157.555556
 21
-155.0
 31
0.0
  0
LINE
  8
DETAIL
  6
DASHED
 62
     5
 10
152.576693
 20
101.498656
 30
0.0
 11
153.634259
 21
100.750845
 31
0.0
  0
LINE
  8
DETAIL
  6
DASHED
 62
     5
 10
153.634259
 20
100.750845
 30
0.0
 11
157.555556
 21
100.750845
 31
0.0
  0
LINE
  8
DETAIL
  6
DASHED
 62
     5
 10
157.555556
 20
100.750845
 30
0.0
 11
158.098976
 21
100.794097
 31
0.0
  0
LINE
  8
DETAIL
  6
DASHED
 62
     5
 10
160.0
 20
102.479328
 30
0.0
 11
160.0
 21
152.555556
 31
0.0
  0
ARC
  8
DETAIL
  6
DASHED
 62
     5
 10
157.555556
 20
152.555556
 30
0.0
 40
2.444444
 50
0.0
 51
90.0
  0
ARC
  8
DETAIL
  6
DASHED
 62
     5
 10
182.490741
 20
136.509259
 30
0.0
 40
0.509259
 50
270.0
 51
0.0
  0
ARC
  8
DETAIL
  6
DASHED
 62
     5
 10
182.490741
 20
143.490741
 30
0.0
 40
0.509259
 50
0.0
 51
90.0
  0
LINE
  8
DETAIL
  6
DASHED
 62
     5
 10
160.0
 20
144.0
 30
0.0
 11
182.490741
 21
144.0
 31
0.0
  0
LINE
  8
DETAIL
  6
DASHED
 62
     5
 10
160.0
 20
136.0
 30
0.0
 11
182.490741
 21
136.0
 31
0.0
  0
LINE
  8
DETAIL
  6
DASHED
 62
     5
 10
159.467525
 20
101.402369
 30
0.0
 11
159.757377
 21
101.728564
 31
0.0
  0
LINE
  8
DETAIL
  6
DASHED
 62
     5
 10
159.078605
 20
101.127361
 30
0.0
 11
159.467525
 21
101.402369
 31
0.0
  0
LINE
  8
DETAIL
  6
DASHED
 62
     5
 10
158.617296
 20
100.922404
 30
0.0
 11
159.078605
 21
101.127361
 31
0.0
  0
LINE
  8
DETAIL
  6
DASHED
 62
     5
 10
158.098976
 20
100.794097
 30
0.0
 11
158.617296
 21
100.922404
 31
0.0
  0
LINE
  8
DETAIL
  6
DASHED
 62
     5
 10
159.938832
 20
102.095071
 30
0.0
 11
159.757377
 21
101.728564
 31
0.0
  0
LINE
  8
DETAIL
  6
DASHED
 62
     5
 10
160.0
 20
102.479328
 30
0.0
 11
159.938832
 21
102.095071
 31
0.0
  0
LINE
  8
DETAIL
  6
DASHED
 62
     5
 10
183.0
 20
136.509259
 30
0.0
 11
183.0
 21
143.490741
 31
0.0
  0
LINE
  8
DETAIL
  6
DASHED
 62
     5
 10
160.0
 20
-104.351852
 30
0.0
 11
160.0
 21
-152.759259
 31
0.0
  0
ARC
  8
DETAIL
  6
DASHED
 62
     5
 10
157.555556
 20
-152.555556
 30
0.0
 40
2.444444
 50
270.0
 51
0.0
  0
ARC
  8
DETAIL
  6
DASHED
 62
     5
 10
182.490741
 20
-136.509259
 30
0.0
 40
0.509259
 50
0.0
 51
90.0
  0
ARC
  8
DETAIL
  6
DASHED
 62
     5
 10
182.490741
 20
-143.490741
 30
0.0
 40
0.509259
 50
270.0
 51
0.0
  0
LINE
  8
DETAIL
  6
DASHED
 62
     5
 10
160.0
 20
-144.0
 30
0.0
 11
182.490741
 21
-144.0
 31
0.0
  0
LINE
  8
DETAIL
  6
DASHED
 62
     5
 10
160.0
 20
-136.0
 30
0.0
 11
182.490741
 21
-136.0
 31
0.0
  0
LINE
  8
DETAIL
  6
DASHED
 62
     5
 10
183.0
 20
-136.509259
 30
0.0
 11
183.0
 21
-143.490741
 31
0.0
  0
LINE
  8
DETAIL
  6
DASHED
 62
     5
 10
70.0
 20
155.0
 30
0.0
 11
157.555556
 21
155.0
 31
0.0
  0
LINE
  8
DETAIL
  6
DASHED
 62
     5
 10
155.925926
 20
96.712963
 30
0.0
 11
160.0
 21
96.712963
 31
0.0
  0
LINE
  8
DETAIL
  6
DASHED
 62
     5
 10
160.0
 20
-104.351852
 30
0.0
 11
160.0
 21
0.0
 31
0.0
  0
LINE
  8
DETAIL
  6
DASHED
 62
     5
 10
160.0
 20
0.0
 30
0.0
 11
160.0
 21
96.712963
 31
0.0
  0
ARC
  8
DETAIL
  6
DASHED
 62
     5
 10
155.925926
 20
100.277778
 30
0.0
 40
3.564815
 50
159.971945
 51
180.0
  0
ARC
  8
DETAIL
  6
DASHED
 62
     5
 10
155.925926
 20
100.277778
 30
0.0
 40
3.564815
 50
180.0
 51
270.0
  0
LINE
  8
SIZE
  6
CONTINUOUS
 62
    30
 10
0.0
 20
215.0
 30
0.0
 11
0.0
 21
545.281745
 31
0.0
  0
LINE
  8
SIZE
  6
CONTINUOUS
 62
    30
 10
160.0
 20
172.555556
 30
0.0
 11
160.0
 21
545.281745
 31
0.0
  0
LINE
  8
SIZE
  6
CONTINUOUS
 62
    30
 10
12.0
 20
525.281745
 30
0.0
 11
148.0
 21
525.281745
 31
0.0
  0
LINE
  8
SIZE
  6
CONTINUOUS
 62
    30
 10
160.0
 20
525.281745
 30
0.0
 11
571.44
 21
525.281745
 31
0.0
  0
CIRCLE
  8
SIZE
  6
CONTINUOUS
 62
    30
 10
0.0
 20
525.281745
 30
0.0
 40
6.0
  0
LINE
  8
SIZE
  6
CONTINUOUS
 62
    30
 10
0.0
 20
525.281745
 30
0.0
 11
12.0
 21
525.281745
 31
0.0
  0
CIRCLE
  8
SIZE
  6
CONTINUOUS
 62
    30
 10
160.0
 20
525.281745
 30
0.0
 40
6.0
  0
LINE
  8
SIZE
  6
CONTINUOUS
 62
    30
 10
160.0
 20
525.281745
 30
0.0
 11
148.0
 21
525.281745
 31
0.0
  0
TEXT
  8
SIZE
  6
CONTINUOUS
 62
    30
 10
189.416
 20
567.043649
 30
0.0
 40
64.0
  1
160(最大)
 50
0.0
 41
0.9
 51
0.0
  7
STANDARD
 71
     0
 72
     1
 11
371.72
 21
567.043649
 31
0.0
210
0.0
220
0.0
230
1.0
  0
POINT
  8
DEFPOINTS
  6
CONTINUOUS
 62
    30
 10
0.0
 20
195.0
 30
0.0
  0
POINT
  8
DEFPOINTS
  6
CONTINUOUS
 62
    30
 10
160.0
 20
152.555556
 30
0.0
  0
POINT
  8
DEFPOINTS
  6
CONTINUOUS
 62
    30
 10
160.0
 20
525.281745
 30
0.0
  0
ENDSEC
  0
EOF
