  0
SECTION
  2
HEADER
  9
$ACADVER
  1
AC1009
  9
$DWGCODEPAGE
  3
dos932
  9
$INSBASE
 10
0.0
 20
0.0
 30
0.0
  9
$EXTMIN
 10
-563.310225
 20
-419.128406
 30
-0.003052
  9
$EXTMAX
 10
1050.938427
 20
743.728646
 30
50.003052
  9
$LIMMIN
 10
-2970.0
 20
-2100.0
  9
$LIMMAX
 10
2970.0
 20
2100.0
  9
$ORTHOMODE
 70
     1
  9
$REGENMODE
 70
     1
  9
$FILLMODE
 70
     1
  9
$QTEXTMODE
 70
     0
  9
$MIRRTEXT
 70
     0
  9
$DRAGMODE
 70
     2
  9
$LTSCALE
 40
20.0
  9
$OSMODE
 70
  3071
  9
$ATTMODE
 70
     1
  9
$TEXTSIZE
 40
64.0
  9
$TRACEWID
 40
0.05
  9
$TEXTSTYLE
  7
STANDARD
  9
$CLAYER
  8
SIZE
  9
$CELTYPE
  6
CONTINUOUS
  9
$CECOLOR
 62
     7
  9
$DIMSCALE
 40
1.0
  9
$DIMASZ
 40
12.0
  9
$DIMEXO
 40
20.0
  9
$DIMDLI
 40
200.0
  9
$DIMRND
 40
0.0
  9
$DIMDLE
 40
0.0
  9
$DIMEXE
 40
20.0
  9
$DIMTP
 40
0.0
  9
$DIMTM
 40
0.0
  9
$DIMTXT
 40
64.0
  9
$DIMCEN
 40
0.09
  9
$DIMTSZ
 40
0.0
  9
$DIMTOL
 70
     0
  9
$DIMLIM
 70
     0
  9
$DIMTIH
 70
     0
  9
$DIMTOH
 70
     0
  9
$DIMSE1
 70
     0
  9
$DIMSE2
 70
     0
  9
$DIMTAD
 70
     1
  9
$DIMZIN
 70
     8
  9
$DIMBLK
  1
DOT1
  9
$DIMASO
 70
     1
  9
$DIMSHO
 70
     0
  9
$DIMPOST
  1

  9
$DIMAPOST
  1

  9
$DIMALT
 70
     0
  9
$DIMALTD
 70
     2
  9
$DIMALTF
 40
25.4
  9
$DIMLFAC
 40
1.0
  9
$DIMTOFL
 70
     1
  9
$DIMTVP
 40
0.0
  9
$DIMTIX
 70
     1
  9
$DIMSOXD
 70
     0
  9
$DIMSAH
 70
     1
  9
$DIMBLK1
  1
_ORIGIN
  9
$DIMBLK2
  1
_ORIGIN
  9
$DIMSTYLE
  2
STANDARD
  9
$DIMCLRD
 70
     7
  9
$DIMCLRE
 70
     7
  9
$DIMCLRT
 70
     7
  9
$DIMTFAC
 40
1.0
  9
$DIMGAP
 40
25.0
  9
$LUNITS
 70
     2
  9
$LUPREC
 70
     4
  9
$SKETCHINC
 40
0.1
  9
$FILLETRAD
 40
3.0
  9
$AUNITS
 70
     1
  9
$AUPREC
 70
     3
  9
$MENU
  1
ACAD
  9
$ELEVATION
 40
0.0
  9
$PELEVATION
 40
0.0
  9
$THICKNESS
 40
50.0
  9
$LIMCHECK
 70
     0
  9
$BLIPMODE
 70
     0
  9
$CHAMFERA
 40
0.0
  9
$CHAMFERB
 40
0.0
  9
$SKPOLY
 70
     0
  9
$TDCREATE
 40
2453019.62301037
  9
$TDUPDATE
 40
2454204.634394791
  9
$TDINDWG
 40
1.1121462963
  9
$TDUSRTIMER
 40
1.1121462963
  9
$USRTIMER
 70
     1
  9
$ANGBASE
 50
0.0
  9
$ANGDIR
 70
     0
  9
$PDMODE
 70
     3
  9
$PDSIZE
 40
-2.0
  9
$PLINEWID
 40
0.0
  9
$COORDS
 70
     1
  9
$SPLFRAME
 70
     0
  9
$SPLINETYPE
 70
     6
  9
$SPLINESEGS
 70
     8
  9
$ATTDIA
 70
     0
  9
$ATTREQ
 70
     1
  9
$HANDLING
 70
     0
  9
$HANDSEED
  5
B319
  9
$SURFTAB1
 70
     6
  9
$SURFTAB2
 70
     6
  9
$SURFTYPE
 70
     6
  9
$SURFU
 70
     6
  9
$SURFV
 70
     6
  9
$UCSNAME
  2

  9
$UCSORG
 10
0.0
 20
0.0
 30
0.0
  9
$UCSXDIR
 10
1.0
 20
0.0
 30
0.0
  9
$UCSYDIR
 10
0.0
 20
1.0
 30
0.0
  9
$PUCSNAME
  2

  9
$PUCSORG
 10
0.0
 20
0.0
 30
0.0
  9
$PUCSXDIR
 10
1.0
 20
0.0
 30
0.0
  9
$PUCSYDIR
 10
0.0
 20
1.0
 30
0.0
  9
$USERI1
 70
     0
  9
$USERI2
 70
     0
  9
$USERI3
 70
     0
  9
$USERI4
 70
     0
  9
$USERI5
 70
     0
  9
$USERR1
 40
20.0
  9
$USERR2
 40
0.0
  9
$USERR3
 40
0.0
  9
$USERR4
 40
0.0
  9
$USERR5
 40
0.0
  9
$WORLDVIEW
 70
     1
  9
$SHADEDGE
 70
     3
  9
$SHADEDIF
 70
    70
  9
$TILEMODE
 70
     1
  9
$MAXACTVP
 70
    48
  9
$PINSBASE
 10
0.0
 20
0.0
 30
0.0
  9
$PLIMCHECK
 70
     0
  9
$PEXTMIN
 10
-100000000000000000000.0
 20
-100000000000000000000.0
 30
-100000000000000000000.0
  9
$PEXTMAX
 10
100000000000000000000.0
 20
100000000000000000000.0
 30
100000000000000000000.0
  9
$PLIMMIN
 10
0.0
 20
0.0
  9
$PLIMMAX
 10
12.0
 20
9.0
  9
$UNITMODE
 70
     0
  9
$VISRETAIN
 70
     0
  9
$PLINEGEN
 70
     0
  9
$PSLTSCALE
 70
     0
  9
$TREEDEPTH
 70
  3020
  0
ENDSEC
  0
SECTION
  2
TABLES
  0
TABLE
  2
LTYPE
 70
     3
  0
LTYPE
  2
CONTINUOUS
 70
     0
  3
実線
 72
    65
 73
     0
 40
0.0
  0
LTYPE
  2
DASHDOT
 70
     0
  3
____ _ ____ _ ____ _ ____ _ ____ _ ____ _ ____
 72
    65
 73
     4
 40
5.5
 49
4.0
 49
-0.6
 49
0.3
 49
-0.6
  0
LTYPE
  2
DASHED
 70
     0
  3
-- -- -- -- -- -- -- -- -- -- -- -- -- -- --
 72
    65
 73
     2
 40
0.75
 49
0.5
 49
-0.25
  0
ENDTAB
  0
TABLE
  2
LAYER
 70
    12
  0
LAYER
  2
0
 70
     0
 62
     7
  6
CONTINUOUS
  0
LAYER
  2
BASIS
 70
     0
 62
     6
  6
DASHDOT
  0
LAYER
  2
OUTLINE
 70
     0
 62
     3
  6
CONTINUOUS
  0
LAYER
  2
DETAIL
 70
     0
 62
     5
  6
CONTINUOUS
  0
LAYER
  2
SIZE
 70
     0
 62
    30
  6
CONTINUOUS
  0
LAYER
  2
ARRANGE
 70
     0
 62
     1
  6
CONTINUOUS
  0
LAYER
  2
DEFPOINTS
 70
     0
 62
     7
  6
CONTINUOUS
  0
LAYER
  2
ETC
 70
     0
 62
    61
  6
CONTINUOUS
  0
LAYER
  2
NOTE
 70
     0
 62
     4
  6
CONTINUOUS
  0
LAYER
  2
FIX
 70
    64
 62
    11
  6
CONTINUOUS
  0
LAYER
  2
SERVICESPACE
 70
    64
 62
     2
  6
DASHDOT
  0
LAYER
  2
SYMBOLLINE
 70
    64
 62
    15
  6
CONTINUOUS
  0
ENDTAB
  0
TABLE
  2
STYLE
 70
     1
  0
STYLE
  2
STANDARD
 70
     0
 40
64.0
 41
0.9
 50
0.0
 71
     0
 42
64.0
  3
SIMPLEX.shx
  4
BIGFONT.shx
  0
ENDTAB
  0
TABLE
  2
APPID
 70
     5
  0
APPID
  2
ACAD
 70
     0
  0
APPID
  2
AUTOCAD_POSTSCRIPT_FIGURE
 70
     0
  0
APPID
  2
ACAD_EXEMPT_FROM_CAD_STANDARDS
 70
     0
  0
APPID
  2
ACAD_PSEXT
 70
     0
  0
APPID
  2
ACAUTHENVIRON
 70
     0
  0
ENDTAB
  0
TABLE
  2
DIMSTYLE
 70
     1
  0
DIMSTYLE
  2
STANDARD
 70
     0
  3

  4

  5

  6

  7

 40
1.0
 41
0.18
 42
0.0625
 43
0.38
 44
0.18
 45
0.0
 46
0.0
 47
0.0
 48
0.0
140
0.18
141
0.09
142
0.0
143
25.4
144
1.0
145
0.0
146
1.0
147
0.09
 71
     0
 72
     0
 73
     1
 74
     1
 75
     0
 76
     0
 77
     0
 78
     0
170
     0
171
     2
172
     0
173
     0
174
     0
175
     0
176
     7
177
     7
178
     7
  0
ENDTAB
  0
TABLE
  2
VIEW
 70
     1
  0
VIEW
  2
ALL
 70
     0
 40
4282.619808
 10
0.0
 20
41.309904
 41
5940.0
 11
0.0
 21
0.0
 31
1.0
 12
0.0
 22
0.0
 32
0.0
 42
50.0
 43
0.0
 44
0.0
 50
0.0
 71
     0
  0
ENDTAB
  0
TABLE
  2
UCS
 70
     0
  0
ENDTAB
  0
TABLE
  2
VPORT
 70
     1
  0
VPORT
  2
*ACTIVE
 70
     0
 10
0.0
 20
0.0
 11
1.0
 21
1.0
 12
243.814101
 22
162.30012
 13
0.0
 23
0.0
 14
1.0
 24
1.0
 15
0.0
 25
0.0
 16
0.0
 26
0.0
 36
1.0
 17
0.0
 27
0.0
 37
0.0
 40
1173.724875
 41
1.822153
 42
50.0
 43
0.0
 44
0.0
 50
0.0
 51
0.0
 71
     0
 72
  1000
 73
     1
 74
     0
 75
     0
 76
     0
 77
     0
 78
     0
  0
ENDTAB
  0
ENDSEC
  0
SECTION
  2
BLOCKS
  0
BLOCK
  8
0
  2
DOT1
 70
     0
 10
0.0
 20
0.0
 30
0.0
  3
DOT1
  1

  0
CIRCLE
  8
SIZE
  6
CONTINUOUS
 62
     7
 10
0.0
 20
0.0
 30
0.0
 40
3.0
  0
ENDBLK
  8
0
  0
BLOCK
  8
0
  2
_ORIGIN
 70
     0
 10
0.0
 20
0.0
 30
0.0
  3
_ORIGIN
  1

  0
CIRCLE
  8
0
  6
CONTINUOUS
 62
     7
 10
0.0
 20
0.0
 30
0.0
 40
0.5
  0
LINE
  8
0
  6
CONTINUOUS
 62
     7
 10
0.0
 20
0.0
 30
0.0
 11
-1.0
 21
0.0
 31
0.0
  0
ENDBLK
  8
0
  0
ENDSEC
  0
SECTION
  2
ENTITIES
  0
TEXT
  8
ETC
  6
CONTINUOUS
 62
    61
 10
695.98203
 20
703.505389
 30
0.0
 40
40.0
  1
PS-20CTW3_6
 41
0.9
  0
TEXT
  8
ETC
  6
CONTINUOUS
 62
    61
 10
691.796036
 20
642.80911
 30
0.0
 40
40.0
  1
システム部材
 41
0.9
  0
TEXT
  8
ETC
  6
CONTINUOUS
 62
    61
 10
742.403538
 20
560.939
 30
0.0
 40
40.0
  1
PS-20CTW3
 41
0.9
  0
CIRCLE
  8
ARRANGE
  6
CONTINUOUS
 62
     1
 10
0.0
 20
0.0
 30
0.0
 40
40.0
  0
POINT
  8
ARRANGE
  6
CONTINUOUS
 62
     1
 10
0.0
 20
0.0
 30
0.0
 39
50.0
  0
LINE
  8
BASIS
  6
DASHDOT
 62
     6
 39
50.0
 10
0.0
 20
-34.10987
 30
0.0
 11
0.0
 21
193.222114
 31
0.0
  0
LINE
  8
DETAIL
  6
CONTINUOUS
 62
     5
 10
135.368272
 20
88.215297
 30
0.0
 11
148.802379
 21
88.215297
 31
0.0
  0
LINE
  8
DETAIL
  6
CONTINUOUS
 62
     5
 10
148.802379
 20
88.215297
 30
0.0
 11
152.450425
 21
88.215297
 31
0.0
  0
LINE
  8
DETAIL
  6
CONTINUOUS
 62
     5
 10
151.430595
 20
86.532578
 30
0.0
 11
151.430595
 21
88.215297
 31
0.0
  0
LINE
  8
DETAIL
  6
CONTINUOUS
 62
     5
 10
152.450425
 20
86.532578
 30
0.0
 11
152.450425
 21
88.215297
 31
0.0
  0
LINE
  8
DETAIL
  6
CONTINUOUS
 62
     5
 10
-165.977337
 20
-9.974904
 30
0.0
 11
-165.977337
 21
-9.17847
 31
0.0
  0
LINE
  8
DETAIL
  6
CONTINUOUS
 62
     5
 10
-165.72238
 20
-9.17847
 30
0.0
 11
-165.977337
 21
-9.17847
 31
0.0
  0
LINE
  8
DETAIL
  6
CONTINUOUS
 62
     5
 10
-164.70255
 20
-10.1983
 30
0.0
 11
-166.74221
 21
-8.15864
 31
0.0
  0
ARC
  8
DETAIL
  6
CONTINUOUS
 62
     5
 10
-166.946176
 20
-0.815864
 30
0.0
 40
0.815864
 50
90.0
 51
180.0
  0
ARC
  8
DETAIL
  6
CONTINUOUS
 62
     5
 10
-167.76204
 20
-0.815864
 30
0.0
 40
0.815864
 50
270.0
 51
0.0
  0
LINE
  8
DETAIL
  6
CONTINUOUS
 62
     5
 10
-166.74221
 20
-0.815864
 30
0.0
 11
-166.74221
 21
-8.15864
 31
0.0
  0
LINE
  8
DETAIL
  6
CONTINUOUS
 62
     5
 10
-151.954674
 20
-10.1983
 30
0.0
 11
-151.954674
 21
-11.0
 31
0.0
  0
LINE
  8
DETAIL
  6
CONTINUOUS
 62
     5
 10
-195.0
 20
-0.815864
 30
0.0
 11
-167.76204
 21
-0.815864
 31
0.0
  0
LINE
  8
DETAIL
  6
CONTINUOUS
 62
     5
 10
-166.946176
 20
0.0
 30
0.0
 11
0.0
 21
0.0
 31
0.0
  0
LINE
  8
DETAIL
  6
CONTINUOUS
 62
     5
 10
-195.0
 20
-1.631728
 30
0.0
 11
-167.76204
 21
-1.631728
 31
0.0
  0
LINE
  8
DETAIL
  6
CONTINUOUS
 62
     5
 10
-164.70255
 20
-10.1983
 30
0.0
 11
-151.954674
 21
-10.1983
 31
0.0
  0
LINE
  8
DETAIL
  6
CONTINUOUS
 62
     5
 10
166.232295
 20
-0.815864
 30
0.0
 11
166.232295
 21
-11.0
 31
0.0
  0
LINE
  8
DETAIL
  6
CONTINUOUS
 62
     5
 10
-151.954674
 20
-11.0
 30
0.0
 11
0.0
 21
-11.0
 31
0.0
  0
ARC
  8
DETAIL
  6
CONTINUOUS
 62
     5
 10
165.416431
 20
-9.382436
 30
0.0
 40
1.631728
 50
300.0
 51
0.0
  0
ARC
  8
DETAIL
  6
CONTINUOUS
 62
     5
 10
167.864023
 20
-1.631728
 30
0.0
 40
1.631728
 50
150.0
 51
180.0
  0
LINE
  8
DETAIL
  6
CONTINUOUS
 62
     5
 10
168.271955
 20
-0.815864
 30
0.0
 11
168.271955
 21
-1.631728
 31
0.0
  0
LINE
  8
DETAIL
  6
CONTINUOUS
 62
     5
 10
166.232295
 20
-1.631728
 30
0.0
 11
166.232295
 21
-9.382436
 31
0.0
  0
LINE
  8
DETAIL
  6
CONTINUOUS
 62
     5
 10
167.048159
 20
-1.631728
 30
0.0
 11
167.048159
 21
-9.382436
 31
0.0
  0
ARC
  8
DETAIL
  6
CONTINUOUS
 62
     5
 10
167.864023
 20
-1.631728
 30
0.0
 40
0.815864
 50
90.0
 51
180.0
  0
LINE
  8
DETAIL
  6
CONTINUOUS
 62
     5
 10
151.954674
 20
-11.014164
 30
0.0
 11
165.416431
 21
-11.014164
 31
0.0
  0
LINE
  8
DETAIL
  6
CONTINUOUS
 62
     5
 10
167.864023
 20
-0.815864
 30
0.0
 11
195.0
 21
-0.815864
 31
0.0
  0
LINE
  8
DETAIL
  6
CONTINUOUS
 62
     5
 10
167.864023
 20
0.0
 30
0.0
 11
195.0
 21
0.0
 31
0.0
  0
LINE
  8
DETAIL
  6
CONTINUOUS
 62
     5
 10
168.271955
 20
-1.631728
 30
0.0
 11
195.0
 21
-1.631728
 31
0.0
  0
LINE
  8
DETAIL
  6
CONTINUOUS
 62
     5
 10
195.0
 20
0.0
 30
0.0
 11
195.0
 21
-1.631728
 31
0.0
  0
LINE
  8
DETAIL
  6
CONTINUOUS
 62
     5
 10
-166.232295
 20
-8.668555
 30
0.0
 11
-166.232295
 21
-9.382436
 31
0.0
  0
LINE
  8
DETAIL
  6
CONTINUOUS
 62
     5
 10
-151.954674
 20
-11.0
 30
0.0
 11
-151.954674
 21
-10.1983
 31
0.0
  0
LINE
  8
DETAIL
  6
CONTINUOUS
 62
     5
 10
-195.0
 20
0.0
 30
0.0
 11
-195.0
 21
-1.631728
 31
0.0
  0
LINE
  8
DETAIL
  6
CONTINUOUS
 62
     5
 10
-168.271955
 20
-1.631728
 30
0.0
 11
-195.0
 21
-1.631728
 31
0.0
  0
LINE
  8
DETAIL
  6
CONTINUOUS
 62
     5
 10
-167.864023
 20
0.0
 30
0.0
 11
-195.0
 21
0.0
 31
0.0
  0
LINE
  8
DETAIL
  6
CONTINUOUS
 62
     5
 10
-167.864023
 20
-0.815864
 30
0.0
 11
-195.0
 21
-0.815864
 31
0.0
  0
ARC
  8
DETAIL
  6
CONTINUOUS
 62
     5
 10
-167.864023
 20
-1.631728
 30
0.0
 40
0.815864
 50
0.0
 51
1.81229
  0
LINE
  8
DETAIL
  6
CONTINUOUS
 62
     5
 10
-167.048159
 20
-1.631728
 30
0.0
 11
-167.048159
 21
-9.382436
 31
0.0
  0
LINE
  8
DETAIL
  6
CONTINUOUS
 62
     5
 10
-168.271955
 20
-0.815864
 30
0.0
 11
-168.271955
 21
-1.631728
 31
0.0
  0
ARC
  8
DETAIL
  6
CONTINUOUS
 62
     5
 10
-165.416431
 20
-9.382436
 30
0.0
 40
0.815864
 50
180.0
 51
270.0
  0
LINE
  8
DETAIL
  6
CONTINUOUS
 62
     5
 10
-151.954674
 20
-10.1983
 30
0.0
 11
-165.416431
 21
-10.1983
 31
0.0
  0
ARC
  8
DETAIL
  6
CONTINUOUS
 62
     5
 10
-165.416431
 20
-9.382436
 30
0.0
 40
1.631728
 50
180.0
 51
240.0
  0
ARC
  8
DETAIL
  6
CONTINUOUS
 62
     5
 10
-165.496742
 20
-9.576324
 30
0.0
 40
1.423924
 50
238.89771
 51
268.929873
  0
ARC
  8
DETAIL
  6
CONTINUOUS
 62
     5
 10
-167.864023
 20
-1.631728
 30
0.0
 40
1.631728
 50
70.639093
 51
90.0
  0
ARC
  8
DETAIL
  6
CONTINUOUS
 62
     5
 10
-167.864023
 20
-1.631728
 30
0.0
 40
0.815864
 50
1.81229
 51
23.132753
  0
LINE
  8
DETAIL
  6
CONTINUOUS
 62
     5
 10
153.98017
 20
87.552408
 30
0.0
 11
153.98017
 21
0.0
 31
0.0
  0
LINE
  8
DETAIL
  6
CONTINUOUS
 62
     5
 10
155.509915
 20
84.90085
 30
0.0
 11
155.509915
 21
83.88102
 31
0.0
  0
CIRCLE
  8
DETAIL
  6
CONTINUOUS
 62
     5
 10
145.311615
 20
15.552408
 30
0.0
 40
2.192635
  0
CIRCLE
  8
DETAIL
  6
CONTINUOUS
 62
     5
 10
145.311615
 20
71.133144
 30
0.0
 40
2.192635
  0
LINE
  8
DETAIL
  6
CONTINUOUS
 62
     5
 10
138.68272
 20
2.03966
 30
0.0
 11
140.72238
 21
0.0
 31
0.0
  0
LINE
  8
DETAIL
  6
CONTINUOUS
 62
     5
 10
138.68272
 20
84.492918
 30
0.0
 11
140.72238
 21
86.532578
 31
0.0
  0
LINE
  8
DETAIL
  6
CONTINUOUS
 62
     5
 10
138.68272
 20
2.03966
 30
0.0
 11
138.68272
 21
84.492918
 31
0.0
  0
LINE
  8
DETAIL
  6
CONTINUOUS
 62
     5
 10
152.96034
 20
87.96034
 30
0.0
 11
152.96034
 21
86.532578
 31
0.0
  0
LINE
  8
DETAIL
  6
CONTINUOUS
 62
     5
 10
156.529745
 20
84.90085
 30
0.0
 11
156.529745
 21
83.88102
 31
0.0
  0
LINE
  8
DETAIL
  6
CONTINUOUS
 62
     5
 10
156.529745
 20
83.88102
 30
0.0
 11
155.203966
 21
83.88102
 31
0.0
  0
LINE
  8
DETAIL
  6
CONTINUOUS
 62
     5
 10
156.529745
 20
84.90085
 30
0.0
 11
155.203966
 21
84.90085
 31
0.0
  0
LINE
  8
DETAIL
  6
CONTINUOUS
 62
     5
 10
140.72238
 20
86.532578
 30
0.0
 11
153.98017
 21
86.532578
 31
0.0
  0
ARC
  8
DETAIL
  6
CONTINUOUS
 62
     5
 10
151.94051
 20
87.96034
 30
0.0
 40
1.01983
 50
0.0
 51
53.130102
  0
LINE
  8
DETAIL
  6
CONTINUOUS
 62
     5
 10
149.135781
 20
88.215297
 30
0.0
 11
149.135781
 21
88.776204
 31
0.0
  0
LINE
  8
DETAIL
  6
CONTINUOUS
 62
     5
 10
143.723311
 20
88.776204
 30
0.0
 11
143.723311
 21
88.215297
 31
0.0
  0
LINE
  8
DETAIL
  6
CONTINUOUS
 62
     5
 10
136.333744
 20
88.776204
 30
0.0
 11
136.333744
 21
88.215297
 31
0.0
  0
LINE
  8
DETAIL
  6
CONTINUOUS
 62
     5
 10
149.135781
 20
88.776204
 30
0.0
 11
135.368272
 21
88.776204
 31
0.0
  0
LINE
  8
DETAIL
  6
CONTINUOUS
 62
     5
 10
104.173224
 20
90.0
 30
0.0
 11
152.756374
 21
90.0
 31
0.0
  0
LINE
  8
DETAIL
  6
CONTINUOUS
 62
     5
 10
108.087819
 20
74.70255
 30
0.0
 11
106.048159
 21
76.74221
 31
0.0
  0
LINE
  8
DETAIL
  6
CONTINUOUS
 62
     5
 10
135.475921
 20
113.0
 30
0.0
 11
142.456091
 21
113.0
 31
0.0
  0
LINE
  8
DETAIL
  6
CONTINUOUS
 62
     5
 10
106.048159
 20
88.776204
 30
0.0
 11
104.173224
 21
88.776204
 31
0.0
  0
LINE
  8
DETAIL
  6
CONTINUOUS
 62
     5
 10
135.368272
 20
88.776204
 30
0.0
 11
152.756374
 21
88.776204
 31
0.0
  0
LINE
  8
DETAIL
  6
CONTINUOUS
 62
     5
 10
103.307869
 20
83.626062
 30
0.0
 11
102.442515
 21
83.626062
 31
0.0
  0
LINE
  8
DETAIL
  6
CONTINUOUS
 62
     5
 10
155.203966
 20
76.74221
 30
0.0
 11
153.98017
 21
76.74221
 31
0.0
  0
LINE
  8
DETAIL
  6
CONTINUOUS
 62
     5
 10
155.203966
 20
74.70255
 30
0.0
 11
153.98017
 21
74.70255
 31
0.0
  0
LINE
  8
DETAIL
  6
CONTINUOUS
 62
     5
 10
133.328612
 20
74.70255
 30
0.0
 11
108.087819
 21
74.70255
 31
0.0
  0
LINE
  8
DETAIL
  6
CONTINUOUS
 62
     5
 10
104.173224
 20
88.776204
 30
0.0
 11
103.950566
 21
88.735001
 31
0.0
  0
LINE
  8
DETAIL
  6
CONTINUOUS
 62
     5
 10
103.950566
 20
88.735001
 30
0.0
 11
103.73937
 21
88.611285
 31
0.0
  0
LINE
  8
DETAIL
  6
CONTINUOUS
 62
     5
 10
104.173224
 20
90.0
 30
0.0
 11
103.788472
 21
89.938753
 31
0.0
  0
LINE
  8
DETAIL
  6
CONTINUOUS
 62
     5
 10
103.788472
 20
89.938753
 30
0.0
 11
103.421493
 21
89.757064
 31
0.0
  0
LINE
  8
DETAIL
  6
CONTINUOUS
 62
     5
 10
133.328612
 20
74.70255
 30
0.0
 11
135.368272
 21
76.74221
 31
0.0
  0
LINE
  8
DETAIL
  6
CONTINUOUS
 62
     5
 10
102.442515
 20
87.552408
 30
0.0
 11
102.485823
 21
88.096528
 31
0.0
  0
LINE
  8
DETAIL
  6
CONTINUOUS
 62
     5
 10
102.485823
 20
88.096528
 30
0.0
 11
102.614295
 21
88.615515
 31
0.0
  0
LINE
  8
DETAIL
  6
CONTINUOUS
 62
     5
 10
102.614295
 20
88.615515
 30
0.0
 11
102.819515
 21
89.077419
 31
0.0
  0
LINE
  8
DETAIL
  6
CONTINUOUS
 62
     5
 10
102.819515
 20
89.077419
 30
0.0
 11
103.094878
 21
89.466839
 31
0.0
  0
LINE
  8
DETAIL
  6
CONTINUOUS
 62
     5
 10
103.094878
 20
89.466839
 30
0.0
 11
103.421493
 21
89.757064
 31
0.0
  0
LINE
  8
DETAIL
  6
CONTINUOUS
 62
     5
 10
103.307869
 20
87.552408
 30
0.0
 11
103.337004
 21
87.867295
 31
0.0
  0
LINE
  8
DETAIL
  6
CONTINUOUS
 62
     5
 10
103.337004
 20
87.867295
 30
0.0
 11
103.424485
 21
88.165968
 31
0.0
  0
LINE
  8
DETAIL
  6
CONTINUOUS
 62
     5
 10
103.424485
 20
88.165968
 30
0.0
 11
103.561326
 21
88.417762
 31
0.0
  0
LINE
  8
DETAIL
  6
CONTINUOUS
 62
     5
 10
103.561326
 20
88.417762
 30
0.0
 11
103.73937
 21
88.611285
 31
0.0
  0
LINE
  8
DETAIL
  6
CONTINUOUS
 62
     5
 10
102.442515
 20
83.626062
 30
0.0
 11
102.442515
 21
87.552408
 31
0.0
  0
LINE
  8
DETAIL
  6
CONTINUOUS
 62
     5
 10
103.307869
 20
87.552408
 30
0.0
 11
103.307869
 21
83.626062
 31
0.0
  0
LINE
  8
DETAIL
  6
CONTINUOUS
 62
     5
 10
106.048159
 20
90.0
 30
0.0
 11
106.048159
 21
76.74221
 31
0.0
  0
LINE
  8
DETAIL
  6
CONTINUOUS
 62
     5
 10
135.368272
 20
90.0
 30
0.0
 11
135.368272
 21
76.74221
 31
0.0
  0
LINE
  8
DETAIL
  6
CONTINUOUS
 62
     5
 10
137.407932
 20
90.0
 30
0.0
 11
137.407932
 21
88.776204
 31
0.0
  0
LINE
  8
DETAIL
  6
CONTINUOUS
 62
     5
 10
134.966006
 20
90.0
 30
0.0
 11
134.966006
 21
112.490085
 31
0.0
  0
LINE
  8
DETAIL
  6
CONTINUOUS
 62
     5
 10
142.966006
 20
90.0
 30
0.0
 11
142.966006
 21
112.490085
 31
0.0
  0
LINE
  8
DETAIL
  6
CONTINUOUS
 62
     5
 10
148.88102
 20
90.0
 30
0.0
 11
148.88102
 21
88.776204
 31
0.0
  0
LINE
  8
DETAIL
  6
CONTINUOUS
 62
     5
 10
150.92068
 20
90.0
 30
0.0
 11
150.92068
 21
88.776204
 31
0.0
  0
LINE
  8
DETAIL
  6
CONTINUOUS
 62
     5
 10
153.98017
 20
87.552408
 30
0.0
 11
153.98017
 21
74.70255
 31
0.0
  0
LINE
  8
DETAIL
  6
CONTINUOUS
 62
     5
 10
155.203966
 20
87.552408
 30
0.0
 11
155.203966
 21
74.70255
 31
0.0
  0
ARC
  8
DETAIL
  6
CONTINUOUS
 62
     5
 10
142.456091
 20
112.490085
 30
0.0
 40
0.509915
 50
0.0
 51
90.0
  0
ARC
  8
DETAIL
  6
CONTINUOUS
 62
     5
 10
135.475921
 20
112.490085
 30
0.0
 40
0.509915
 50
90.0
 51
180.0
  0
ARC
  8
DETAIL
  6
CONTINUOUS
 62
     5
 10
152.756374
 20
87.552408
 30
0.0
 40
2.447592
 50
0.0
 51
90.0
  0
ARC
  8
DETAIL
  6
CONTINUOUS
 62
     5
 10
152.756374
 20
87.552408
 30
0.0
 40
1.223796
 50
0.0
 51
90.0
  0
LINE
  8
DETAIL
  6
CONTINUOUS
 62
     5
 10
104.20928
 20
82.351275
 30
0.0
 11
103.307869
 21
83.626062
 31
0.0
  0
LINE
  8
DETAIL
  6
CONTINUOUS
 62
     5
 10
103.343925
 20
82.351275
 30
0.0
 11
102.442515
 21
83.626062
 31
0.0
  0
LINE
  8
DETAIL
  6
CONTINUOUS
 62
     5
 10
-143.490085
 20
-34.0
 30
0.0
 11
-136.509915
 21
-34.0
 31
0.0
  0
ARC
  8
DETAIL
  6
CONTINUOUS
 62
     5
 10
-143.490085
 20
-33.490085
 30
0.0
 40
0.509915
 50
180.0
 51
270.0
  0
LINE
  8
DETAIL
  6
CONTINUOUS
 62
     5
 10
144.0
 20
-11.0
 30
0.0
 11
144.0
 21
-33.490085
 31
0.0
  0
LINE
  8
DETAIL
  6
CONTINUOUS
 62
     5
 10
-144.0
 20
-11.0
 30
0.0
 11
-144.0
 21
-33.490085
 31
0.0
  0
LINE
  8
DETAIL
  6
CONTINUOUS
 62
     5
 10
-136.0
 20
-11.0
 30
0.0
 11
-136.0
 21
-33.490085
 31
0.0
  0
ARC
  8
DETAIL
  6
CONTINUOUS
 62
     5
 10
136.509915
 20
-33.490085
 30
0.0
 40
0.509915
 50
180.0
 51
270.0
  0
ARC
  8
DETAIL
  6
CONTINUOUS
 62
     5
 10
143.490085
 20
-33.490085
 30
0.0
 40
0.509915
 50
270.0
 51
0.0
  0
LINE
  8
DETAIL
  6
CONTINUOUS
 62
     5
 10
143.490085
 20
-34.0
 30
0.0
 11
136.509915
 21
-34.0
 31
0.0
  0
ARC
  8
DETAIL
  6
CONTINUOUS
 62
     5
 10
-136.509915
 20
-33.490085
 30
0.0
 40
0.509915
 50
270.0
 51
0.0
  0
LINE
  8
DETAIL
  6
CONTINUOUS
 62
     5
 10
136.0
 20
-11.0
 30
0.0
 11
136.0
 21
-33.490085
 31
0.0
  0
CIRCLE
  8
DETAIL
  6
CONTINUOUS
 62
     5
 10
145.311615
 20
15.552408
 30
0.0
 40
2.090652
  0
CIRCLE
  8
DETAIL
  6
CONTINUOUS
 62
     5
 10
145.311615
 20
71.133144
 30
0.0
 40
2.090652
  0
CIRCLE
  8
DETAIL
  6
CONTINUOUS
 62
     5
 10
86.671388
 20
81.84136
 30
0.0
 40
3.05949
  0
ARC
  8
DETAIL
  6
CONTINUOUS
 62
     5
 10
101.968839
 20
85.92068
 30
0.0
 40
3.569405
 50
180.0
 51
270.0
  0
LINE
  8
DETAIL
  6
CONTINUOUS
 62
     5
 10
98.399433
 20
85.92068
 30
0.0
 11
98.399433
 21
90.0
 31
0.0
  0
LINE
  8
DETAIL
  6
CONTINUOUS
 62
     5
 10
101.968839
 20
82.351275
 30
0.0
 11
106.048159
 21
82.351275
 31
0.0
  0
LINE
  8
DETAIL
  6
CONTINUOUS
 62
     5
 10
149.90085
 20
86.532578
 30
0.0
 11
135.368272
 21
86.532578
 31
0.0
  0
LINE
  8
DETAIL
  6
CONTINUOUS
 62
     5
 10
98.399433
 20
90.0
 30
0.0
 11
-1.033994
 21
90.0
 31
0.0
  0
LINE
  8
DETAIL
  6
CONTINUOUS
 62
     5
 10
155.0
 20
0.0
 30
0.0
 11
155.0
 21
74.70255
 31
0.0
  0
ARC
  8
DETAIL
  6
CONTINUOUS
 62
     5
 10
101.968839
 20
85.92068
 30
0.0
 40
3.569405
 50
270.0
 51
290.028055
  0
ARC
  8
DETAIL
  6
CONTINUOUS
 62
     5
 10
151.124646
 20
80.101366
 30
0.0
 40
6.220964
 50
310.975612
 51
37.413813
  0
LINE
  8
DETAIL
  6
CONTINUOUS
 62
     5
 39
50.0
 10
-151.954674
 20
-11.0
 30
0.0
 11
-165.523335
 21
-11.0
 31
0.0
  0
LINE
  8
DETAIL
  6
CONTINUOUS
 62
     5
 10
0.0
 20
-11.0
 30
0.0
 11
166.232295
 21
-11.0
 31
0.0
  0
LINE
  8
DETAIL
  6
CONTINUOUS
 62
     5
 10
0.0
 20
0.0
 30
0.0
 11
195.0
 21
0.0
 31
0.0
  0
LINE
  8
NOTE
  6
CONTINUOUS
 62
     4
 10
-180.0
 20
-20.815864
 30
0.0
 11
-180.0
 21
19.184136
 31
0.0
  0
LINE
  8
NOTE
  6
CONTINUOUS
 62
     4
 10
-200.0
 20
-0.815864
 30
0.0
 11
-160.0
 21
-0.815864
 31
0.0
  0
LINE
  8
NOTE
  6
CONTINUOUS
 62
     4
 10
180.0
 20
-20.815864
 30
0.0
 11
180.0
 21
19.184136
 31
0.0
  0
LINE
  8
NOTE
  6
CONTINUOUS
 62
     4
 10
160.0
 20
-0.815864
 30
0.0
 11
200.0
 21
-0.815864
 31
0.0
  0
LINE
  8
NOTE
  6
CONTINUOUS
 62
     4
 10
-217.198574
 20
13.890123
 30
0.0
 11
-180.0
 21
-0.815864
 31
0.0
  0
LINE
  8
NOTE
  6
CONTINUOUS
 62
     4
 10
-180.0
 20
-0.815864
 30
0.0
 11
-204.861917
 21
30.519182
 31
0.0
  0
LINE
  8
NOTE
  6
CONTINUOUS
 62
     4
 10
-174.55845
 20
133.142333
 30
0.0
 11
-140.0
 21
113.0
 31
0.0
  0
LINE
  8
NOTE
  6
CONTINUOUS
 62
     4
 10
-140.0
 20
113.0
 30
0.0
 11
-159.857329
 21
147.722997
 31
0.0
  0
LINE
  8
NOTE
  6
CONTINUOUS
 62
     4
 10
-143.018801
 20
-73.885923
 30
0.0
 11
-140.0
 21
-34.0
 31
0.0
  0
LINE
  8
NOTE
  6
CONTINUOUS
 62
     4
 10
-140.0
 20
-34.0
 30
0.0
 11
-162.55732
 21
-67.032822
 31
0.0
  0
TEXT
  8
NOTE
  6
CONTINUOUS
 62
     4
 10
-462.229581
 20
201.631605
 30
0.0
 40
64.0
  1
4-M8
 41
0.9
  0
LINE
  8
NOTE
  6
CONTINUOUS
 62
     4
 39
50.0
 10
-471.529136
 20
190.914579
 30
0.0
 11
-223.952271
 21
190.914579
 31
0.0
  0
TEXT
  8
NOTE
  6
CONTINUOUS
 62
     4
 10
-457.470895
 20
-194.420638
 30
0.0
 40
64.0
  1
4-M8
 41
0.9
  0
LINE
  8
NOTE
  6
CONTINUOUS
 62
     4
 39
50.0
 10
-466.77045
 20
-205.137664
 30
0.0
 11
-219.193585
 21
-205.137664
 31
0.0
  0
LINE
  8
NOTE
  6
CONTINUOUS
 62
     4
 39
50.0
 10
-140.0
 20
-34.0
 30
0.0
 11
-219.193585
 21
-205.137664
 31
0.0
  0
LINE
  8
NOTE
  6
CONTINUOUS
 62
     4
 10
-140.0
 20
-54.0
 30
0.0
 11
-140.0
 21
-14.0
 31
0.0
  0
LINE
  8
NOTE
  6
CONTINUOUS
 62
     4
 10
-160.0
 20
-34.0
 30
0.0
 11
-120.0
 21
-34.0
 31
0.0
  0
TEXT
  8
NOTE
  6
CONTINUOUS
 62
     4
 10
-547.293922
 20
108.59034
 30
0.0
 40
64.0
  1
4-φ12
 41
0.9
  0
LINE
  8
NOTE
  6
CONTINUOUS
 62
     4
 39
50.0
 10
-563.159038
 20
86.104031
 30
0.0
 11
-297.162691
 21
86.104031
 31
0.0
  0
LINE
  8
SIZE
  6
CONTINUOUS
 62
    30
 10
-195.0
 20
-21.631728
 30
0.0
 11
-195.0
 21
-419.041689
 31
0.0
  0
LINE
  8
SIZE
  6
CONTINUOUS
 62
    30
 10
195.0
 20
-21.631728
 30
0.0
 11
195.0
 21
-419.041689
 31
0.0
  0
LINE
  8
SIZE
  6
CONTINUOUS
 62
    30
 10
-183.0
 20
-399.041689
 30
0.0
 11
183.0
 21
-399.041689
 31
0.0
  0
CIRCLE
  8
SIZE
  6
CONTINUOUS
 62
    30
 10
-195.0
 20
-399.041689
 30
0.0
 40
6.0
  0
LINE
  8
SIZE
  6
CONTINUOUS
 62
    30
 10
-195.0
 20
-399.041689
 30
0.0
 11
-183.0
 21
-399.041689
 31
0.0
  0
CIRCLE
  8
SIZE
  6
CONTINUOUS
 62
    30
 10
195.0
 20
-399.041689
 30
0.0
 40
6.0
  0
LINE
  8
SIZE
  6
CONTINUOUS
 62
    30
 10
195.0
 20
-399.041689
 30
0.0
 11
183.0
 21
-399.041689
 31
0.0
  0
TEXT
  8
SIZE
  6
CONTINUOUS
 62
    30
 10
-80.928
 20
-374.041689
 30
0.0
 40
64.0
  1
390
 50
0.0
 41
0.9
 51
0.0
  7
STANDARD
 71
     0
 72
     1
 11
0.0
 21
-374.041689
 31
0.0
210
0.0
220
0.0
230
1.0
  0
POINT
  8
DEFPOINTS
  6
CONTINUOUS
 62
    30
 10
-195.0
 20
-1.631728
 30
0.0
  0
POINT
  8
DEFPOINTS
  6
CONTINUOUS
 62
    30
 10
195.0
 20
-1.631728
 30
0.0
  0
POINT
  8
DEFPOINTS
  6
CONTINUOUS
 62
    30
 10
195.0
 20
-399.041689
 30
0.0
  0
LINE
  8
NOTE
  6
CONTINUOUS
 62
     4
 10
140.0
 20
-54.0
 30
0.0
 11
140.0
 21
-14.0
 31
0.0
  0
LINE
  8
NOTE
  6
CONTINUOUS
 62
     4
 10
120.0
 20
-34.0
 30
0.0
 11
160.0
 21
-34.0
 31
0.0
  0
LINE
  8
NOTE
  6
CONTINUOUS
 62
     4
 10
140.0
 20
93.0
 30
0.0
 11
140.0
 21
133.0
 31
0.0
  0
LINE
  8
NOTE
  6
CONTINUOUS
 62
     4
 10
120.0
 20
113.0
 30
0.0
 11
160.0
 21
113.0
 31
0.0
  0
LINE
  8
NOTE
  6
CONTINUOUS
 62
     4
 10
-140.0
 20
93.0
 30
0.0
 11
-140.0
 21
133.0
 31
0.0
  0
LINE
  8
NOTE
  6
CONTINUOUS
 62
     4
 10
-160.0
 20
113.0
 30
0.0
 11
-120.0
 21
113.0
 31
0.0
  0
LINE
  8
SIZE
  6
CONTINUOUS
 62
    30
 10
-140.0
 20
-74.0
 30
0.0
 11
-140.0
 21
-182.565681
 31
0.0
  0
LINE
  8
SIZE
  6
CONTINUOUS
 62
    30
 10
140.0
 20
-74.0
 30
0.0
 11
140.0
 21
-182.565681
 31
0.0
  0
LINE
  8
SIZE
  6
CONTINUOUS
 62
    30
 10
-128.0
 20
-162.565681
 30
0.0
 11
128.0
 21
-162.565681
 31
0.0
  0
CIRCLE
  8
SIZE
  6
CONTINUOUS
 62
    30
 10
-140.0
 20
-162.565681
 30
0.0
 40
6.0
  0
LINE
  8
SIZE
  6
CONTINUOUS
 62
    30
 10
-140.0
 20
-162.565681
 30
0.0
 11
-128.0
 21
-162.565681
 31
0.0
  0
CIRCLE
  8
SIZE
  6
CONTINUOUS
 62
    30
 10
140.0
 20
-162.565681
 30
0.0
 40
6.0
  0
LINE
  8
SIZE
  6
CONTINUOUS
 62
    30
 10
140.0
 20
-162.565681
 30
0.0
 11
128.0
 21
-162.565681
 31
0.0
  0
TEXT
  8
SIZE
  6
CONTINUOUS
 62
    30
 10
-80.928
 20
-137.565681
 30
0.0
 40
64.0
  1
280
 50
0.0
 41
0.9
 51
0.0
  7
STANDARD
 71
     0
 72
     1
 11
0.0
 21
-137.565681
 31
0.0
210
0.0
220
0.0
230
1.0
  0
POINT
  8
DEFPOINTS
  6
CONTINUOUS
 62
    30
 10
-140.0
 20
-54.0
 30
0.0
  0
POINT
  8
DEFPOINTS
  6
CONTINUOUS
 62
    30
 10
140.0
 20
-54.0
 30
0.0
  0
POINT
  8
DEFPOINTS
  6
CONTINUOUS
 62
    30
 10
140.0
 20
-162.565681
 30
0.0
  0
LINE
  8
SIZE
  6
CONTINUOUS
 62
    30
 10
-180.0
 20
-40.815864
 30
0.0
 11
-180.0
 21
-301.433928
 31
0.0
  0
LINE
  8
SIZE
  6
CONTINUOUS
 62
    30
 10
180.0
 20
-40.815864
 30
0.0
 11
180.0
 21
-301.433928
 31
0.0
  0
LINE
  8
SIZE
  6
CONTINUOUS
 62
    30
 10
-168.0
 20
-281.433928
 30
0.0
 11
168.0
 21
-281.433928
 31
0.0
  0
CIRCLE
  8
SIZE
  6
CONTINUOUS
 62
    30
 10
-180.0
 20
-281.433928
 30
0.0
 40
6.0
  0
LINE
  8
SIZE
  6
CONTINUOUS
 62
    30
 10
-180.0
 20
-281.433928
 30
0.0
 11
-168.0
 21
-281.433928
 31
0.0
  0
CIRCLE
  8
SIZE
  6
CONTINUOUS
 62
    30
 10
180.0
 20
-281.433928
 30
0.0
 40
6.0
  0
LINE
  8
SIZE
  6
CONTINUOUS
 62
    30
 10
180.0
 20
-281.433928
 30
0.0
 11
168.0
 21
-281.433928
 31
0.0
  0
TEXT
  8
SIZE
  6
CONTINUOUS
 62
    30
 10
-80.928
 20
-256.433928
 30
0.0
 40
64.0
  1
360
 50
0.0
 41
0.9
 51
0.0
  7
STANDARD
 71
     0
 72
     1
 11
0.0
 21
-256.433928
 31
0.0
210
0.0
220
0.0
230
1.0
  0
POINT
  8
DEFPOINTS
  6
CONTINUOUS
 62
    30
 10
-180.0
 20
-20.815864
 30
0.0
  0
POINT
  8
DEFPOINTS
  6
CONTINUOUS
 62
    30
 10
180.0
 20
-20.815864
 30
0.0
  0
POINT
  8
DEFPOINTS
  6
CONTINUOUS
 62
    30
 10
180.0
 20
-281.433928
 30
0.0
  0
LINE
  8
NOTE
  6
CONTINUOUS
 62
     4
 39
50.0
 10
-297.162691
 20
86.104031
 30
0.0
 11
-180.0
 21
-0.815864
 31
0.0
  0
LINE
  8
NOTE
  6
CONTINUOUS
 62
     4
 39
50.0
 10
-223.952271
 20
190.914579
 30
0.0
 11
-140.0
 21
113.0
 31
0.0
  0
LINE
  8
SIZE
  6
CONTINUOUS
 62
    30
 10
163.490085
 20
-34.0
 30
0.0
 11
363.352786
 21
-34.0
 31
0.0
  0
LINE
  8
SIZE
  6
CONTINUOUS
 62
    30
 10
186.232295
 20
-11.0
 30
0.0
 11
363.352786
 21
-11.0
 31
0.0
  0
LINE
  8
SIZE
  6
CONTINUOUS
 62
    30
 10
343.352786
 20
1.0
 30
0.0
 11
343.352786
 21
13.0
 31
0.0
  0
LINE
  8
SIZE
  6
CONTINUOUS
 62
    30
 10
343.352786
 20
-46.0
 30
0.0
 11
343.352786
 21
-205.570555
 31
0.0
  0
LINE
  8
SIZE
  6
CONTINUOUS
 62
    30
 10
343.352786
 20
-11.0
 30
0.0
 11
343.352786
 21
-34.0
 31
0.0
  0
CIRCLE
  8
SIZE
  6
CONTINUOUS
 62
    30
 10
343.352786
 20
-11.0
 30
0.0
 40
6.0
  0
LINE
  8
SIZE
  6
CONTINUOUS
 62
    30
 10
343.352786
 20
-11.0
 30
0.0
 11
343.352786
 21
1.0
 31
0.0
  0
CIRCLE
  8
SIZE
  6
CONTINUOUS
 62
    30
 10
343.352786
 20
-34.0
 30
0.0
 40
6.0
  0
LINE
  8
SIZE
  6
CONTINUOUS
 62
    30
 10
343.352786
 20
-34.0
 30
0.0
 11
343.352786
 21
-46.0
 31
0.0
  0
TEXT
  8
SIZE
  6
CONTINUOUS
 62
    30
 10
318.352786
 20
-187.509984
 30
0.0
 40
64.0
  1
23
 50
90.0
 41
0.9
 51
0.0
  7
STANDARD
 71
     0
 72
     1
 11
318.352786
 21
-133.941984
 31
0.0
210
0.0
220
0.0
230
1.0
  0
POINT
  8
DEFPOINTS
  6
CONTINUOUS
 62
    30
 10
143.490085
 20
-34.0
 30
0.0
  0
POINT
  8
DEFPOINTS
  6
CONTINUOUS
 62
    30
 10
166.232295
 20
-11.0
 30
0.0
  0
POINT
  8
DEFPOINTS
  6
CONTINUOUS
 62
    30
 10
343.352786
 20
-11.0
 30
0.0
  0
LINE
  8
SIZE
  6
CONTINUOUS
 62
    30
 10
186.232295
 20
-11.0
 30
0.0
 11
514.382016
 21
-11.0
 31
0.0
  0
LINE
  8
SIZE
  6
CONTINUOUS
 62
    30
 10
215.0
 20
0.0
 30
0.0
 11
514.382016
 21
0.0
 31
0.0
  0
LINE
  8
SIZE
  6
CONTINUOUS
 62
    30
 10
494.382016
 20
12.0
 30
0.0
 11
494.382016
 21
24.0
 31
0.0
  0
LINE
  8
SIZE
  6
CONTINUOUS
 62
    30
 10
494.382016
 20
-23.0
 30
0.0
 11
494.382016
 21
-142.6
 31
0.0
  0
LINE
  8
SIZE
  6
CONTINUOUS
 62
    30
 10
494.382016
 20
0.0
 30
0.0
 11
494.382016
 21
-11.0
 31
0.0
  0
CIRCLE
  8
SIZE
  6
CONTINUOUS
 62
    30
 10
494.382016
 20
0.0
 30
0.0
 40
6.0
  0
LINE
  8
SIZE
  6
CONTINUOUS
 62
    30
 10
494.382016
 20
0.0
 30
0.0
 11
494.382016
 21
12.0
 31
0.0
  0
CIRCLE
  8
SIZE
  6
CONTINUOUS
 62
    30
 10
494.382016
 20
-11.0
 30
0.0
 40
6.0
  0
LINE
  8
SIZE
  6
CONTINUOUS
 62
    30
 10
494.382016
 20
-11.0
 30
0.0
 11
494.382016
 21
-23.0
 31
0.0
  0
TEXT
  8
SIZE
  6
CONTINUOUS
 62
    30
 10
469.382016
 20
-130.848
 30
0.0
 40
64.0
  1
11
 50
90.0
 41
0.9
 51
0.0
  7
STANDARD
 71
     0
 72
     1
 11
469.382016
 21
-88.8
 31
0.0
210
0.0
220
0.0
230
1.0
  0
POINT
  8
DEFPOINTS
  6
CONTINUOUS
 62
    30
 10
166.232295
 20
-11.0
 30
0.0
  0
POINT
  8
DEFPOINTS
  6
CONTINUOUS
 62
    30
 10
195.0
 20
0.0
 30
0.0
  0
POINT
  8
DEFPOINTS
  6
CONTINUOUS
 62
    30
 10
494.382016
 20
0.0
 30
0.0
  0
LINE
  8
SIZE
  6
CONTINUOUS
 62
    30
 10
215.0
 20
0.0
 30
0.0
 11
514.382016
 21
0.0
 31
0.0
  0
LINE
  8
SIZE
  6
CONTINUOUS
 62
    30
 10
173.790368
 20
90.0
 30
0.0
 11
514.382016
 21
90.0
 31
0.0
  0
LINE
  8
SIZE
  6
CONTINUOUS
 62
    30
 10
494.382016
 20
12.0
 30
0.0
 11
494.382016
 21
78.0
 31
0.0
  0
LINE
  8
SIZE
  6
CONTINUOUS
 62
    30
 10
494.382016
 20
90.0
 30
0.0
 11
494.382016
 21
565.738611
 31
0.0
  0
CIRCLE
  8
SIZE
  6
CONTINUOUS
 62
    30
 10
494.382016
 20
0.0
 30
0.0
 40
6.0
  0
LINE
  8
SIZE
  6
CONTINUOUS
 62
    30
 10
494.382016
 20
0.0
 30
0.0
 11
494.382016
 21
12.0
 31
0.0
  0
CIRCLE
  8
SIZE
  6
CONTINUOUS
 62
    30
 10
494.382016
 20
90.0
 30
0.0
 40
6.0
  0
LINE
  8
SIZE
  6
CONTINUOUS
 62
    30
 10
494.382016
 20
90.0
 30
0.0
 11
494.382016
 21
78.0
 31
0.0
  0
TEXT
  8
SIZE
  6
CONTINUOUS
 62
    30
 10
462.620111
 20
236.681468
 30
0.0
 40
64.0
  1
90(最小)
 50
90.0
 41
0.9
 51
0.0
  7
STANDARD
 71
     0
 72
     1
 11
462.620111
 21
397.961468
 31
0.0
210
0.0
220
0.0
230
1.0
  0
POINT
  8
DEFPOINTS
  6
CONTINUOUS
 62
    30
 10
195.0
 20
0.0
 30
0.0
  0
POINT
  8
DEFPOINTS
  6
CONTINUOUS
 62
    30
 10
153.790368
 20
90.0
 30
0.0
  0
POINT
  8
DEFPOINTS
  6
CONTINUOUS
 62
    30
 10
494.382016
 20
90.0
 30
0.0
  0
LINE
  8
SIZE
  6
CONTINUOUS
 62
    30
 10
163.490085
 20
113.0
 30
0.0
 11
363.352786
 21
113.0
 31
0.0
  0
LINE
  8
SIZE
  6
CONTINUOUS
 62
    30
 10
173.790368
 20
90.0
 30
0.0
 11
363.352786
 21
90.0
 31
0.0
  0
LINE
  8
SIZE
  6
CONTINUOUS
 62
    30
 10
343.352786
 20
78.0
 30
0.0
 11
343.352786
 21
66.0
 31
0.0
  0
LINE
  8
SIZE
  6
CONTINUOUS
 62
    30
 10
343.352786
 20
125.0
 30
0.0
 11
343.352786
 21
329.540748
 31
0.0
  0
LINE
  8
SIZE
  6
CONTINUOUS
 62
    30
 10
343.352786
 20
90.0
 30
0.0
 11
343.352786
 21
113.0
 31
0.0
  0
CIRCLE
  8
SIZE
  6
CONTINUOUS
 62
    30
 10
343.352786
 20
90.0
 30
0.0
 40
6.0
  0
LINE
  8
SIZE
  6
CONTINUOUS
 62
    30
 10
343.352786
 20
90.0
 30
0.0
 11
343.352786
 21
78.0
 31
0.0
  0
CIRCLE
  8
SIZE
  6
CONTINUOUS
 62
    30
 10
343.352786
 20
113.0
 30
0.0
 40
6.0
  0
LINE
  8
SIZE
  6
CONTINUOUS
 62
    30
 10
343.352786
 20
113.0
 30
0.0
 11
343.352786
 21
125.0
 31
0.0
  0
TEXT
  8
SIZE
  6
CONTINUOUS
 62
    30
 10
318.352786
 20
204.344176
 30
0.0
 40
64.0
  1
23
 50
90.0
 41
0.9
 51
0.0
  7
STANDARD
 71
     0
 72
     1
 11
318.352786
 21
257.912176
 31
0.0
210
0.0
220
0.0
230
1.0
  0
POINT
  8
DEFPOINTS
  6
CONTINUOUS
 62
    30
 10
143.490085
 20
113.0
 30
0.0
  0
POINT
  8
DEFPOINTS
  6
CONTINUOUS
 62
    30
 10
153.790368
 20
90.0
 30
0.0
  0
POINT
  8
DEFPOINTS
  6
CONTINUOUS
 62
    30
 10
343.352786
 20
90.0
 30
0.0
  0
LINE
  8
DETAIL
  6
DASHED
 62
     5
 10
135.368272
 20
158.215297
 30
0.0
 11
148.802379
 21
158.215297
 31
0.0
  0
LINE
  8
DETAIL
  6
DASHED
 62
     5
 10
148.802379
 20
158.215297
 30
0.0
 11
152.450425
 21
158.215297
 31
0.0
  0
LINE
  8
DETAIL
  6
DASHED
 62
     5
 10
151.430595
 20
156.532578
 30
0.0
 11
151.430595
 21
158.215297
 31
0.0
  0
LINE
  8
DETAIL
  6
DASHED
 62
     5
 10
152.450425
 20
156.532578
 30
0.0
 11
152.450425
 21
158.215297
 31
0.0
  0
LINE
  8
DETAIL
  6
DASHED
 62
     5
 10
153.98017
 20
157.552408
 30
0.0
 11
153.98017
 21
0.0
 31
0.0
  0
LINE
  8
DETAIL
  6
DASHED
 62
     5
 10
155.509915
 20
154.90085
 30
0.0
 11
155.509915
 21
153.88102
 31
0.0
  0
CIRCLE
  8
DETAIL
  6
DASHED
 62
     5
 10
145.311615
 20
141.133144
 30
0.0
 40
2.192635
  0
LINE
  8
DETAIL
  6
DASHED
 62
     5
 10
138.68272
 20
154.492918
 30
0.0
 11
140.72238
 21
156.532578
 31
0.0
  0
LINE
  8
DETAIL
  6
DASHED
 62
     5
 10
138.68272
 20
0.0
 30
0.0
 11
138.68272
 21
154.492918
 31
0.0
  0
LINE
  8
DETAIL
  6
DASHED
 62
     5
 10
152.96034
 20
157.96034
 30
0.0
 11
152.96034
 21
156.532578
 31
0.0
  0
LINE
  8
DETAIL
  6
DASHED
 62
     5
 10
156.529745
 20
154.90085
 30
0.0
 11
156.529745
 21
153.88102
 31
0.0
  0
LINE
  8
DETAIL
  6
DASHED
 62
     5
 10
156.529745
 20
153.88102
 30
0.0
 11
155.203966
 21
153.88102
 31
0.0
  0
LINE
  8
DETAIL
  6
DASHED
 62
     5
 10
156.529745
 20
154.90085
 30
0.0
 11
155.203966
 21
154.90085
 31
0.0
  0
LINE
  8
DETAIL
  6
DASHED
 62
     5
 10
140.72238
 20
156.532578
 30
0.0
 11
153.98017
 21
156.532578
 31
0.0
  0
ARC
  8
DETAIL
  6
DASHED
 62
     5
 10
151.94051
 20
157.96034
 30
0.0
 40
1.01983
 50
0.0
 51
53.130102
  0
LINE
  8
DETAIL
  6
DASHED
 62
     5
 10
149.135781
 20
158.215297
 30
0.0
 11
149.135781
 21
158.776204
 31
0.0
  0
LINE
  8
DETAIL
  6
DASHED
 62
     5
 10
143.723311
 20
158.776204
 30
0.0
 11
143.723311
 21
158.215297
 31
0.0
  0
LINE
  8
DETAIL
  6
DASHED
 62
     5
 10
136.333744
 20
158.776204
 30
0.0
 11
136.333744
 21
158.215297
 31
0.0
  0
LINE
  8
DETAIL
  6
DASHED
 62
     5
 10
149.135781
 20
158.776204
 30
0.0
 11
135.368272
 21
158.776204
 31
0.0
  0
LINE
  8
DETAIL
  6
DASHED
 62
     5
 10
104.173224
 20
160.0
 30
0.0
 11
152.756374
 21
160.0
 31
0.0
  0
LINE
  8
DETAIL
  6
DASHED
 62
     5
 10
108.087819
 20
144.70255
 30
0.0
 11
106.048159
 21
146.74221
 31
0.0
  0
LINE
  8
DETAIL
  6
DASHED
 62
     5
 10
136.495751
 20
183.0
 30
0.0
 11
143.475921
 21
183.0
 31
0.0
  0
LINE
  8
DETAIL
  6
DASHED
 62
     5
 10
106.048159
 20
158.776204
 30
0.0
 11
104.173224
 21
158.776204
 31
0.0
  0
LINE
  8
DETAIL
  6
DASHED
 62
     5
 10
135.368272
 20
158.776204
 30
0.0
 11
152.756374
 21
158.776204
 31
0.0
  0
LINE
  8
DETAIL
  6
DASHED
 62
     5
 10
103.307869
 20
153.626062
 30
0.0
 11
102.442515
 21
153.626062
 31
0.0
  0
LINE
  8
DETAIL
  6
DASHED
 62
     5
 10
155.203966
 20
146.74221
 30
0.0
 11
153.98017
 21
146.74221
 31
0.0
  0
LINE
  8
DETAIL
  6
DASHED
 62
     5
 10
155.203966
 20
144.70255
 30
0.0
 11
153.98017
 21
144.70255
 31
0.0
  0
LINE
  8
DETAIL
  6
DASHED
 62
     5
 10
133.328612
 20
144.70255
 30
0.0
 11
108.087819
 21
144.70255
 31
0.0
  0
LINE
  8
DETAIL
  6
DASHED
 62
     5
 10
104.173224
 20
158.776204
 30
0.0
 11
103.950566
 21
158.735001
 31
0.0
  0
LINE
  8
DETAIL
  6
DASHED
 62
     5
 10
103.950566
 20
158.735001
 30
0.0
 11
103.73937
 21
158.611285
 31
0.0
  0
LINE
  8
DETAIL
  6
DASHED
 62
     5
 10
104.173224
 20
160.0
 30
0.0
 11
103.788472
 21
159.938753
 31
0.0
  0
LINE
  8
DETAIL
  6
DASHED
 62
     5
 10
103.788472
 20
159.938753
 30
0.0
 11
103.421493
 21
159.757064
 31
0.0
  0
LINE
  8
DETAIL
  6
DASHED
 62
     5
 10
133.328612
 20
144.70255
 30
0.0
 11
135.368272
 21
146.74221
 31
0.0
  0
LINE
  8
DETAIL
  6
DASHED
 62
     5
 10
102.442515
 20
157.552408
 30
0.0
 11
102.485823
 21
158.096528
 31
0.0
  0
LINE
  8
DETAIL
  6
DASHED
 62
     5
 10
102.485823
 20
158.096528
 30
0.0
 11
102.614295
 21
158.615515
 31
0.0
  0
LINE
  8
DETAIL
  6
DASHED
 62
     5
 10
102.614295
 20
158.615515
 30
0.0
 11
102.819515
 21
159.077419
 31
0.0
  0
LINE
  8
DETAIL
  6
DASHED
 62
     5
 10
102.819515
 20
159.077419
 30
0.0
 11
103.094878
 21
159.466839
 31
0.0
  0
LINE
  8
DETAIL
  6
DASHED
 62
     5
 10
103.094878
 20
159.466839
 30
0.0
 11
103.421493
 21
159.757064
 31
0.0
  0
LINE
  8
DETAIL
  6
DASHED
 62
     5
 10
103.307869
 20
157.552408
 30
0.0
 11
103.337004
 21
157.867295
 31
0.0
  0
LINE
  8
DETAIL
  6
DASHED
 62
     5
 10
103.337004
 20
157.867295
 30
0.0
 11
103.424485
 21
158.165968
 31
0.0
  0
LINE
  8
DETAIL
  6
DASHED
 62
     5
 10
103.424485
 20
158.165968
 30
0.0
 11
103.561326
 21
158.417762
 31
0.0
  0
LINE
  8
DETAIL
  6
DASHED
 62
     5
 10
103.561326
 20
158.417762
 30
0.0
 11
103.73937
 21
158.611285
 31
0.0
  0
LINE
  8
DETAIL
  6
DASHED
 62
     5
 10
102.442515
 20
153.626062
 30
0.0
 11
102.442515
 21
157.552408
 31
0.0
  0
LINE
  8
DETAIL
  6
DASHED
 62
     5
 10
103.307869
 20
157.552408
 30
0.0
 11
103.307869
 21
153.626062
 31
0.0
  0
LINE
  8
DETAIL
  6
DASHED
 62
     5
 10
106.048159
 20
160.0
 30
0.0
 11
106.048159
 21
146.74221
 31
0.0
  0
LINE
  8
DETAIL
  6
DASHED
 62
     5
 10
135.368272
 20
160.0
 30
0.0
 11
135.368272
 21
146.74221
 31
0.0
  0
LINE
  8
DETAIL
  6
DASHED
 62
     5
 10
137.407932
 20
160.0
 30
0.0
 11
137.407932
 21
158.776204
 31
0.0
  0
LINE
  8
DETAIL
  6
DASHED
 62
     5
 10
134.966006
 20
160.0
 30
0.0
 11
134.966006
 21
182.490085
 31
0.0
  0
LINE
  8
DETAIL
  6
DASHED
 62
     5
 10
142.966006
 20
160.0
 30
0.0
 11
142.966006
 21
182.490085
 31
0.0
  0
LINE
  8
DETAIL
  6
DASHED
 62
     5
 10
148.88102
 20
160.0
 30
0.0
 11
148.88102
 21
158.776204
 31
0.0
  0
LINE
  8
DETAIL
  6
DASHED
 62
     5
 10
150.92068
 20
160.0
 30
0.0
 11
150.92068
 21
158.776204
 31
0.0
  0
LINE
  8
DETAIL
  6
DASHED
 62
     5
 10
153.98017
 20
157.552408
 30
0.0
 11
153.98017
 21
144.70255
 31
0.0
  0
LINE
  8
DETAIL
  6
DASHED
 62
     5
 10
155.203966
 20
157.552408
 30
0.0
 11
155.203966
 21
144.70255
 31
0.0
  0
ARC
  8
DETAIL
  6
DASHED
 62
     5
 10
143.475921
 20
182.490085
 30
0.0
 40
0.509915
 50
0.0
 51
90.0
  0
ARC
  8
DETAIL
  6
DASHED
 62
     5
 10
136.495751
 20
182.490085
 30
0.0
 40
0.509915
 50
90.0
 51
180.0
  0
ARC
  8
DETAIL
  6
DASHED
 62
     5
 10
152.756374
 20
157.552408
 30
0.0
 40
2.447592
 50
0.0
 51
90.0
  0
ARC
  8
DETAIL
  6
DASHED
 62
     5
 10
152.756374
 20
157.552408
 30
0.0
 40
1.223796
 50
0.0
 51
90.0
  0
LINE
  8
DETAIL
  6
DASHED
 62
     5
 10
104.20928
 20
152.351275
 30
0.0
 11
103.307869
 21
153.626062
 31
0.0
  0
LINE
  8
DETAIL
  6
DASHED
 62
     5
 10
103.343925
 20
152.351275
 30
0.0
 11
102.442515
 21
153.626062
 31
0.0
  0
CIRCLE
  8
DETAIL
  6
DASHED
 62
     5
 10
145.311615
 20
141.133144
 30
0.0
 40
2.090652
  0
CIRCLE
  8
DETAIL
  6
DASHED
 62
     5
 10
86.671388
 20
151.84136
 30
0.0
 40
3.05949
  0
ARC
  8
DETAIL
  6
DASHED
 62
     5
 10
101.968839
 20
155.92068
 30
0.0
 40
3.569405
 50
180.0
 51
270.0
  0
LINE
  8
DETAIL
  6
DASHED
 62
     5
 10
98.399433
 20
155.92068
 30
0.0
 11
98.399433
 21
160.0
 31
0.0
  0
LINE
  8
DETAIL
  6
DASHED
 62
     5
 10
101.968839
 20
152.351275
 30
0.0
 11
106.048159
 21
152.351275
 31
0.0
  0
LINE
  8
DETAIL
  6
DASHED
 62
     5
 10
149.90085
 20
156.532578
 30
0.0
 11
135.368272
 21
156.532578
 31
0.0
  0
LINE
  8
DETAIL
  6
DASHED
 62
     5
 10
98.399433
 20
160.0
 30
0.0
 11
-1.033994
 21
160.0
 31
0.0
  0
LINE
  8
DETAIL
  6
DASHED
 62
     5
 10
155.0
 20
0.0
 30
0.0
 11
155.0
 21
144.70255
 31
0.0
  0
ARC
  8
DETAIL
  6
DASHED
 62
     5
 10
101.968839
 20
155.92068
 30
0.0
 40
3.569405
 50
270.0
 51
290.028055
  0
ARC
  8
DETAIL
  6
DASHED
 62
     5
 10
151.124646
 20
150.101366
 30
0.0
 40
6.220964
 50
310.975612
 51
37.413813
  0
LINE
  8
SIZE
  6
CONTINUOUS
 62
    30
 10
173.790368
 20
160.0
 30
0.0
 11
697.347698
 21
160.0
 31
0.0
  0
LINE
  8
SIZE
  6
CONTINUOUS
 62
    30
 10
215.0
 20
0.0
 30
0.0
 11
697.347698
 21
0.0
 31
0.0
  0
LINE
  8
SIZE
  6
CONTINUOUS
 62
    30
 10
677.347698
 20
12.0
 30
0.0
 11
677.347698
 21
148.0
 31
0.0
  0
LINE
  8
SIZE
  6
CONTINUOUS
 62
    30
 10
677.347698
 20
160.0
 30
0.0
 11
677.347698
 21
571.44
 31
0.0
  0
CIRCLE
  8
SIZE
  6
CONTINUOUS
 62
    30
 10
677.347698
 20
0.0
 30
0.0
 40
6.0
  0
LINE
  8
SIZE
  6
CONTINUOUS
 62
    30
 10
677.347698
 20
0.0
 30
0.0
 11
677.347698
 21
12.0
 31
0.0
  0
CIRCLE
  8
SIZE
  6
CONTINUOUS
 62
    30
 10
677.347698
 20
160.0
 30
0.0
 40
6.0
  0
LINE
  8
SIZE
  6
CONTINUOUS
 62
    30
 10
677.347698
 20
160.0
 30
0.0
 11
677.347698
 21
148.0
 31
0.0
  0
TEXT
  8
SIZE
  6
CONTINUOUS
 62
    30
 10
635.585793
 20
189.416
 30
0.0
 40
64.0
  1
160(最大)
 50
90.0
 41
0.9
 51
0.0
  7
STANDARD
 71
     0
 72
     1
 11
635.585793
 21
371.72
 31
0.0
210
0.0
220
0.0
230
1.0
  0
POINT
  8
DEFPOINTS
  6
CONTINUOUS
 62
    30
 10
153.790368
 20
160.0
 30
0.0
  0
POINT
  8
DEFPOINTS
  6
CONTINUOUS
 62
    30
 10
195.0
 20
0.0
 30
0.0
  0
POINT
  8
DEFPOINTS
  6
CONTINUOUS
 62
    30
 10
677.347698
 20
0.0
 30
0.0
  0
ARC
  8
OUTLINE
  6
CONTINUOUS
 62
     3
 10
-166.946176
 20
-0.815864
 30
0.0
 40
0.815864
 50
90.0
 51
180.0
  0
ARC
  8
OUTLINE
  6
CONTINUOUS
 62
     3
 10
-167.76204
 20
-0.815864
 30
0.0
 40
0.815864
 50
270.0
 51
0.0
  0
LINE
  8
OUTLINE
  6
CONTINUOUS
 62
     3
 10
-166.946176
 20
0.0
 30
0.0
 11
0.0
 21
0.0
 31
0.0
  0
LINE
  8
OUTLINE
  6
CONTINUOUS
 62
     3
 10
0.0
 20
0.0
 30
0.0
 11
195.0
 21
0.0
 31
0.0
  0
LINE
  8
OUTLINE
  6
CONTINUOUS
 62
     3
 10
-195.0
 20
-1.631728
 30
0.0
 11
-167.76204
 21
-1.631728
 31
0.0
  0
LINE
  8
OUTLINE
  6
CONTINUOUS
 62
     3
 10
-151.954674
 20
-11.0
 30
0.0
 11
0.0
 21
-11.0
 31
0.0
  0
LINE
  8
OUTLINE
  6
CONTINUOUS
 62
     3
 10
0.0
 20
-11.0
 30
0.0
 11
166.232295
 21
-11.0
 31
0.0
  0
ARC
  8
OUTLINE
  6
CONTINUOUS
 62
     3
 10
165.416431
 20
-9.382436
 30
0.0
 40
1.631728
 50
300.0
 51
0.0
  0
LINE
  8
OUTLINE
  6
CONTINUOUS
 62
     3
 10
167.048159
 20
-1.631728
 30
0.0
 11
167.048159
 21
-9.382436
 31
0.0
  0
ARC
  8
OUTLINE
  6
CONTINUOUS
 62
     3
 10
167.864023
 20
-1.631728
 30
0.0
 40
0.815864
 50
90.0
 51
180.0
  0
LINE
  8
OUTLINE
  6
CONTINUOUS
 62
     3
 10
151.954674
 20
-11.014164
 30
0.0
 11
165.416431
 21
-11.014164
 31
0.0
  0
LINE
  8
OUTLINE
  6
CONTINUOUS
 62
     3
 10
167.864023
 20
-0.815864
 30
0.0
 11
195.0
 21
-0.815864
 31
0.0
  0
LINE
  8
OUTLINE
  6
CONTINUOUS
 62
     3
 10
167.864023
 20
0.0
 30
0.0
 11
195.0
 21
0.0
 31
0.0
  0
LINE
  8
OUTLINE
  6
CONTINUOUS
 62
     3
 10
195.0
 20
0.0
 30
0.0
 11
195.0
 21
-1.631728
 31
0.0
  0
LINE
  8
OUTLINE
  6
CONTINUOUS
 62
     3
 10
-195.0
 20
0.0
 30
0.0
 11
-195.0
 21
-1.631728
 31
0.0
  0
LINE
  8
OUTLINE
  6
CONTINUOUS
 62
     3
 10
-168.271955
 20
-1.631728
 30
0.0
 11
-195.0
 21
-1.631728
 31
0.0
  0
LINE
  8
OUTLINE
  6
CONTINUOUS
 62
     3
 10
-167.864023
 20
0.0
 30
0.0
 11
-195.0
 21
0.0
 31
0.0
  0
ARC
  8
OUTLINE
  6
CONTINUOUS
 62
     3
 10
-167.864023
 20
-1.631728
 30
0.0
 40
0.815864
 50
0.0
 51
1.81229
  0
LINE
  8
OUTLINE
  6
CONTINUOUS
 62
     3
 10
-167.048159
 20
-1.631728
 30
0.0
 11
-167.048159
 21
-9.382436
 31
0.0
  0
ARC
  8
OUTLINE
  6
CONTINUOUS
 62
     3
 10
-165.416431
 20
-9.382436
 30
0.0
 40
1.631728
 50
180.0
 51
240.0
  0
ARC
  8
OUTLINE
  6
CONTINUOUS
 62
     3
 10
-165.496742
 20
-9.576324
 30
0.0
 40
1.423924
 50
238.89771
 51
268.929873
  0
ARC
  8
OUTLINE
  6
CONTINUOUS
 62
     3
 10
-167.864023
 20
-1.631728
 30
0.0
 40
1.631728
 50
70.639093
 51
90.0
  0
ARC
  8
OUTLINE
  6
CONTINUOUS
 62
     3
 10
-167.864023
 20
-1.631728
 30
0.0
 40
0.815864
 50
1.81229
 51
23.132753
  0
LINE
  8
OUTLINE
  6
CONTINUOUS
 62
     3
 10
107.082153
 20
90.0
 30
0.0
 11
152.756374
 21
90.0
 31
0.0
  0
LINE
  8
OUTLINE
  6
CONTINUOUS
 62
     3
 10
109.121813
 20
74.70255
 30
0.0
 11
107.082153
 21
76.74221
 31
0.0
  0
LINE
  8
OUTLINE
  6
CONTINUOUS
 62
     3
 10
155.203966
 20
74.70255
 30
0.0
 11
155.0
 21
74.70255
 31
0.0
  0
LINE
  8
OUTLINE
  6
CONTINUOUS
 62
     3
 10
134.362606
 20
74.70255
 30
0.0
 11
109.121813
 21
74.70255
 31
0.0
  0
LINE
  8
OUTLINE
  6
CONTINUOUS
 62
     3
 10
134.362606
 20
74.70255
 30
0.0
 11
136.402266
 21
76.74221
 31
0.0
  0
LINE
  8
OUTLINE
  6
CONTINUOUS
 62
     3
 10
107.082153
 20
90.0
 30
0.0
 11
107.082153
 21
76.74221
 31
0.0
  0
LINE
  8
OUTLINE
  6
CONTINUOUS
 62
     3
 10
136.402266
 20
90.0
 30
0.0
 11
136.402266
 21
76.74221
 31
0.0
  0
LINE
  8
OUTLINE
  6
CONTINUOUS
 62
     3
 10
155.203966
 20
87.552408
 30
0.0
 11
155.203966
 21
74.70255
 31
0.0
  0
ARC
  8
OUTLINE
  6
CONTINUOUS
 62
     3
 10
152.756374
 20
87.552408
 30
0.0
 40
2.447592
 50
0.0
 51
90.0
  0
ARC
  8
OUTLINE
  6
CONTINUOUS
 62
     3
 10
103.002833
 20
85.92068
 30
0.0
 40
3.569405
 50
180.0
 51
270.0
  0
LINE
  8
OUTLINE
  6
CONTINUOUS
 62
     3
 10
99.433428
 20
85.92068
 30
0.0
 11
99.433428
 21
90.0
 31
0.0
  0
LINE
  8
OUTLINE
  6
CONTINUOUS
 62
     3
 10
103.002833
 20
82.351275
 30
0.0
 11
107.082153
 21
82.351275
 31
0.0
  0
LINE
  8
OUTLINE
  6
CONTINUOUS
 62
     3
 10
99.433428
 20
90.0
 30
0.0
 11
0.0
 21
90.0
 31
0.0
  0
LINE
  8
OUTLINE
  6
CONTINUOUS
 62
     3
 10
155.0
 20
0.0
 30
0.0
 11
155.0
 21
74.70255
 31
0.0
  0
LINE
  8
OUTLINE
  6
CONTINUOUS
 62
     3
 39
50.0
 10
-151.954674
 20
-11.0
 30
0.0
 11
-165.523335
 21
-11.0
 31
0.0
  0
LINE
  8
SIZE
  6
CONTINUOUS
 62
    30
 10
-140.0
 20
153.0
 30
0.0
 11
-140.0
 21
231.908357
 31
0.0
  0
LINE
  8
SIZE
  6
CONTINUOUS
 62
    30
 10
140.0
 20
153.0
 30
0.0
 11
140.0
 21
231.908357
 31
0.0
  0
LINE
  8
SIZE
  6
CONTINUOUS
 62
    30
 10
-128.0
 20
211.908357
 30
0.0
 11
128.0
 21
211.908357
 31
0.0
  0
CIRCLE
  8
SIZE
  6
CONTINUOUS
 62
    30
 10
-140.0
 20
211.908357
 30
0.0
 40
6.0
  0
LINE
  8
SIZE
  6
CONTINUOUS
 62
    30
 10
-140.0
 20
211.908357
 30
0.0
 11
-128.0
 21
211.908357
 31
0.0
  0
CIRCLE
  8
SIZE
  6
CONTINUOUS
 62
    30
 10
140.0
 20
211.908357
 30
0.0
 40
6.0
  0
LINE
  8
SIZE
  6
CONTINUOUS
 62
    30
 10
140.0
 20
211.908357
 30
0.0
 11
128.0
 21
211.908357
 31
0.0
  0
TEXT
  8
SIZE
  6
CONTINUOUS
 62
    30
 10
-80.928
 20
236.908357
 30
0.0
 40
64.0
  1
280
 50
0.0
 41
0.9
 51
0.0
  7
STANDARD
 71
     0
 72
     1
 11
0.0
 21
236.908357
 31
0.0
210
0.0
220
0.0
230
1.0
  0
POINT
  8
DEFPOINTS
  6
CONTINUOUS
 62
    30
 10
-140.0
 20
133.0
 30
0.0
  0
POINT
  8
DEFPOINTS
  6
CONTINUOUS
 62
    30
 10
140.0
 20
133.0
 30
0.0
  0
POINT
  8
DEFPOINTS
  6
CONTINUOUS
 62
    30
 10
140.0
 20
211.908357
 30
0.0
  0
LINE
  8
DETAIL
  6
CONTINUOUS
 62
     5
 10
-135.368272
 20
88.215297
 30
0.0
 11
-148.802379
 21
88.215297
 31
0.0
  0
LINE
  8
DETAIL
  6
CONTINUOUS
 62
     5
 10
-148.802379
 20
88.215297
 30
0.0
 11
-152.450425
 21
88.215297
 31
0.0
  0
LINE
  8
DETAIL
  6
CONTINUOUS
 62
     5
 10
-151.430595
 20
86.532578
 30
0.0
 11
-151.430595
 21
88.215297
 31
0.0
  0
LINE
  8
DETAIL
  6
CONTINUOUS
 62
     5
 10
-152.450425
 20
86.532578
 30
0.0
 11
-152.450425
 21
88.215297
 31
0.0
  0
LINE
  8
DETAIL
  6
CONTINUOUS
 62
     5
 10
-153.98017
 20
87.552408
 30
0.0
 11
-153.98017
 21
0.0
 31
0.0
  0
LINE
  8
DETAIL
  6
CONTINUOUS
 62
     5
 10
-155.509915
 20
84.90085
 30
0.0
 11
-155.509915
 21
83.88102
 31
0.0
  0
CIRCLE
  8
DETAIL
  6
CONTINUOUS
 62
     5
 10
-145.311615
 20
15.552408
 30
0.0
 40
2.192635
  0
CIRCLE
  8
DETAIL
  6
CONTINUOUS
 62
     5
 10
-145.311615
 20
71.133144
 30
0.0
 40
2.192635
  0
LINE
  8
DETAIL
  6
CONTINUOUS
 62
     5
 10
-138.68272
 20
2.03966
 30
0.0
 11
-140.72238
 21
0.0
 31
0.0
  0
LINE
  8
DETAIL
  6
CONTINUOUS
 62
     5
 10
-138.68272
 20
84.492918
 30
0.0
 11
-140.72238
 21
86.532578
 31
0.0
  0
LINE
  8
DETAIL
  6
CONTINUOUS
 62
     5
 10
-138.68272
 20
2.03966
 30
0.0
 11
-138.68272
 21
84.492918
 31
0.0
  0
LINE
  8
DETAIL
  6
CONTINUOUS
 62
     5
 10
-152.96034
 20
87.96034
 30
0.0
 11
-152.96034
 21
86.532578
 31
0.0
  0
LINE
  8
DETAIL
  6
CONTINUOUS
 62
     5
 10
-156.529745
 20
84.90085
 30
0.0
 11
-156.529745
 21
83.88102
 31
0.0
  0
LINE
  8
DETAIL
  6
CONTINUOUS
 62
     5
 10
-156.529745
 20
83.88102
 30
0.0
 11
-155.203966
 21
83.88102
 31
0.0
  0
LINE
  8
DETAIL
  6
CONTINUOUS
 62
     5
 10
-156.529745
 20
84.90085
 30
0.0
 11
-155.203966
 21
84.90085
 31
0.0
  0
LINE
  8
DETAIL
  6
CONTINUOUS
 62
     5
 10
-140.72238
 20
86.532578
 30
0.0
 11
-153.98017
 21
86.532578
 31
0.0
  0
ARC
  8
DETAIL
  6
CONTINUOUS
 62
     5
 10
-151.94051
 20
87.96034
 30
0.0
 40
1.01983
 50
126.869898
 51
180.0
  0
LINE
  8
DETAIL
  6
CONTINUOUS
 62
     5
 10
-149.135781
 20
88.215297
 30
0.0
 11
-149.135781
 21
88.776204
 31
0.0
  0
LINE
  8
DETAIL
  6
CONTINUOUS
 62
     5
 10
-143.723311
 20
88.776204
 30
0.0
 11
-143.723311
 21
88.215297
 31
0.0
  0
LINE
  8
DETAIL
  6
CONTINUOUS
 62
     5
 10
-136.333744
 20
88.776204
 30
0.0
 11
-136.333744
 21
88.215297
 31
0.0
  0
LINE
  8
DETAIL
  6
CONTINUOUS
 62
     5
 10
-149.135781
 20
88.776204
 30
0.0
 11
-135.368272
 21
88.776204
 31
0.0
  0
LINE
  8
DETAIL
  6
CONTINUOUS
 62
     5
 10
-104.173224
 20
90.0
 30
0.0
 11
-152.756374
 21
90.0
 31
0.0
  0
LINE
  8
DETAIL
  6
CONTINUOUS
 62
     5
 10
-108.087819
 20
74.70255
 30
0.0
 11
-106.048159
 21
76.74221
 31
0.0
  0
LINE
  8
DETAIL
  6
CONTINUOUS
 62
     5
 10
-135.475921
 20
113.0
 30
0.0
 11
-142.456091
 21
113.0
 31
0.0
  0
LINE
  8
DETAIL
  6
CONTINUOUS
 62
     5
 10
-106.048159
 20
88.776204
 30
0.0
 11
-104.173224
 21
88.776204
 31
0.0
  0
LINE
  8
DETAIL
  6
CONTINUOUS
 62
     5
 10
-135.368272
 20
88.776204
 30
0.0
 11
-152.756374
 21
88.776204
 31
0.0
  0
LINE
  8
DETAIL
  6
CONTINUOUS
 62
     5
 10
-103.307869
 20
83.626062
 30
0.0
 11
-102.442515
 21
83.626062
 31
0.0
  0
LINE
  8
DETAIL
  6
CONTINUOUS
 62
     5
 10
-155.203966
 20
76.74221
 30
0.0
 11
-153.98017
 21
76.74221
 31
0.0
  0
LINE
  8
DETAIL
  6
CONTINUOUS
 62
     5
 10
-155.203966
 20
74.70255
 30
0.0
 11
-153.98017
 21
74.70255
 31
0.0
  0
LINE
  8
DETAIL
  6
CONTINUOUS
 62
     5
 10
-133.328612
 20
74.70255
 30
0.0
 11
-108.087819
 21
74.70255
 31
0.0
  0
LINE
  8
DETAIL
  6
CONTINUOUS
 62
     5
 10
-104.173224
 20
88.776204
 30
0.0
 11
-103.950566
 21
88.735001
 31
0.0
  0
LINE
  8
DETAIL
  6
CONTINUOUS
 62
     5
 10
-103.950566
 20
88.735001
 30
0.0
 11
-103.73937
 21
88.611285
 31
0.0
  0
LINE
  8
DETAIL
  6
CONTINUOUS
 62
     5
 10
-104.173224
 20
90.0
 30
0.0
 11
-103.788472
 21
89.938753
 31
0.0
  0
LINE
  8
DETAIL
  6
CONTINUOUS
 62
     5
 10
-103.788472
 20
89.938753
 30
0.0
 11
-103.421493
 21
89.757064
 31
0.0
  0
LINE
  8
DETAIL
  6
CONTINUOUS
 62
     5
 10
-133.328612
 20
74.70255
 30
0.0
 11
-135.368272
 21
76.74221
 31
0.0
  0
LINE
  8
DETAIL
  6
CONTINUOUS
 62
     5
 10
-102.442515
 20
87.552408
 30
0.0
 11
-102.485823
 21
88.096528
 31
0.0
  0
LINE
  8
DETAIL
  6
CONTINUOUS
 62
     5
 10
-102.485823
 20
88.096528
 30
0.0
 11
-102.614295
 21
88.615515
 31
0.0
  0
LINE
  8
DETAIL
  6
CONTINUOUS
 62
     5
 10
-102.614295
 20
88.615515
 30
0.0
 11
-102.819515
 21
89.077419
 31
0.0
  0
LINE
  8
DETAIL
  6
CONTINUOUS
 62
     5
 10
-102.819515
 20
89.077419
 30
0.0
 11
-103.094878
 21
89.466839
 31
0.0
  0
LINE
  8
DETAIL
  6
CONTINUOUS
 62
     5
 10
-103.094878
 20
89.466839
 30
0.0
 11
-103.421493
 21
89.757064
 31
0.0
  0
LINE
  8
DETAIL
  6
CONTINUOUS
 62
     5
 10
-103.307869
 20
87.552408
 30
0.0
 11
-103.337004
 21
87.867295
 31
0.0
  0
LINE
  8
DETAIL
  6
CONTINUOUS
 62
     5
 10
-103.337004
 20
87.867295
 30
0.0
 11
-103.424485
 21
88.165968
 31
0.0
  0
LINE
  8
DETAIL
  6
CONTINUOUS
 62
     5
 10
-103.424485
 20
88.165968
 30
0.0
 11
-103.561326
 21
88.417762
 31
0.0
  0
LINE
  8
DETAIL
  6
CONTINUOUS
 62
     5
 10
-103.561326
 20
88.417762
 30
0.0
 11
-103.73937
 21
88.611285
 31
0.0
  0
LINE
  8
DETAIL
  6
CONTINUOUS
 62
     5
 10
-102.442515
 20
83.626062
 30
0.0
 11
-102.442515
 21
87.552408
 31
0.0
  0
LINE
  8
DETAIL
  6
CONTINUOUS
 62
     5
 10
-103.307869
 20
87.552408
 30
0.0
 11
-103.307869
 21
83.626062
 31
0.0
  0
LINE
  8
DETAIL
  6
CONTINUOUS
 62
     5
 10
-106.048159
 20
90.0
 30
0.0
 11
-106.048159
 21
76.74221
 31
0.0
  0
LINE
  8
DETAIL
  6
CONTINUOUS
 62
     5
 10
-135.368272
 20
90.0
 30
0.0
 11
-135.368272
 21
76.74221
 31
0.0
  0
LINE
  8
DETAIL
  6
CONTINUOUS
 62
     5
 10
-137.407932
 20
90.0
 30
0.0
 11
-137.407932
 21
88.776204
 31
0.0
  0
LINE
  8
DETAIL
  6
CONTINUOUS
 62
     5
 10
-134.966006
 20
90.0
 30
0.0
 11
-134.966006
 21
112.490085
 31
0.0
  0
LINE
  8
DETAIL
  6
CONTINUOUS
 62
     5
 10
-142.966006
 20
90.0
 30
0.0
 11
-142.966006
 21
112.490085
 31
0.0
  0
LINE
  8
DETAIL
  6
CONTINUOUS
 62
     5
 10
-148.88102
 20
90.0
 30
0.0
 11
-148.88102
 21
88.776204
 31
0.0
  0
LINE
  8
DETAIL
  6
CONTINUOUS
 62
     5
 10
-150.92068
 20
90.0
 30
0.0
 11
-150.92068
 21
88.776204
 31
0.0
  0
LINE
  8
DETAIL
  6
CONTINUOUS
 62
     5
 10
-153.98017
 20
87.552408
 30
0.0
 11
-153.98017
 21
74.70255
 31
0.0
  0
LINE
  8
DETAIL
  6
CONTINUOUS
 62
     5
 10
-155.203966
 20
87.552408
 30
0.0
 11
-155.203966
 21
74.70255
 31
0.0
  0
ARC
  8
DETAIL
  6
CONTINUOUS
 62
     5
 10
-142.456091
 20
112.490085
 30
0.0
 40
0.509915
 50
90.0
 51
180.0
  0
ARC
  8
DETAIL
  6
CONTINUOUS
 62
     5
 10
-135.475921
 20
112.490085
 30
0.0
 40
0.509915
 50
0.0
 51
90.0
  0
ARC
  8
DETAIL
  6
CONTINUOUS
 62
     5
 10
-152.756374
 20
87.552408
 30
0.0
 40
2.447592
 50
90.0
 51
180.0
  0
ARC
  8
DETAIL
  6
CONTINUOUS
 62
     5
 10
-152.756374
 20
87.552408
 30
0.0
 40
1.223796
 50
90.0
 51
180.0
  0
LINE
  8
DETAIL
  6
CONTINUOUS
 62
     5
 10
-104.20928
 20
82.351275
 30
0.0
 11
-103.307869
 21
83.626062
 31
0.0
  0
LINE
  8
DETAIL
  6
CONTINUOUS
 62
     5
 10
-103.343925
 20
82.351275
 30
0.0
 11
-102.442515
 21
83.626062
 31
0.0
  0
CIRCLE
  8
DETAIL
  6
CONTINUOUS
 62
     5
 10
-145.311615
 20
15.552408
 30
0.0
 40
2.090652
  0
CIRCLE
  8
DETAIL
  6
CONTINUOUS
 62
     5
 10
-145.311615
 20
71.133144
 30
0.0
 40
2.090652
  0
CIRCLE
  8
DETAIL
  6
CONTINUOUS
 62
     5
 10
-86.671388
 20
81.84136
 30
0.0
 40
3.05949
  0
ARC
  8
DETAIL
  6
CONTINUOUS
 62
     5
 10
-101.968839
 20
85.92068
 30
0.0
 40
3.569405
 50
270.0
 51
0.0
  0
LINE
  8
DETAIL
  6
CONTINUOUS
 62
     5
 10
-98.399433
 20
85.92068
 30
0.0
 11
-98.399433
 21
90.0
 31
0.0
  0
LINE
  8
DETAIL
  6
CONTINUOUS
 62
     5
 10
-101.968839
 20
82.351275
 30
0.0
 11
-106.048159
 21
82.351275
 31
0.0
  0
LINE
  8
DETAIL
  6
CONTINUOUS
 62
     5
 10
-149.90085
 20
86.532578
 30
0.0
 11
-135.368272
 21
86.532578
 31
0.0
  0
LINE
  8
DETAIL
  6
CONTINUOUS
 62
     5
 10
-98.399433
 20
90.0
 30
0.0
 11
1.033994
 21
90.0
 31
0.0
  0
LINE
  8
DETAIL
  6
CONTINUOUS
 62
     5
 10
-155.0
 20
0.0
 30
0.0
 11
-155.0
 21
74.70255
 31
0.0
  0
ARC
  8
DETAIL
  6
CONTINUOUS
 62
     5
 10
-101.968839
 20
85.92068
 30
0.0
 40
3.569405
 50
249.971945
 51
270.0
  0
ARC
  8
DETAIL
  6
CONTINUOUS
 62
     5
 10
-151.124646
 20
80.101366
 30
0.0
 40
6.220964
 50
142.586187
 51
229.024388
  0
LINE
  8
DETAIL
  6
DASHED
 62
     5
 10
-135.368272
 20
158.215297
 30
0.0
 11
-148.802379
 21
158.215297
 31
0.0
  0
LINE
  8
DETAIL
  6
DASHED
 62
     5
 10
-148.802379
 20
158.215297
 30
0.0
 11
-152.450425
 21
158.215297
 31
0.0
  0
LINE
  8
DETAIL
  6
DASHED
 62
     5
 10
-151.430595
 20
156.532578
 30
0.0
 11
-151.430595
 21
158.215297
 31
0.0
  0
LINE
  8
DETAIL
  6
DASHED
 62
     5
 10
-152.450425
 20
156.532578
 30
0.0
 11
-152.450425
 21
158.215297
 31
0.0
  0
LINE
  8
DETAIL
  6
DASHED
 62
     5
 10
-153.98017
 20
157.552408
 30
0.0
 11
-153.98017
 21
0.0
 31
0.0
  0
LINE
  8
DETAIL
  6
DASHED
 62
     5
 10
-155.509915
 20
154.90085
 30
0.0
 11
-155.509915
 21
153.88102
 31
0.0
  0
CIRCLE
  8
DETAIL
  6
DASHED
 62
     5
 10
-145.311615
 20
141.133144
 30
0.0
 40
2.192635
  0
LINE
  8
DETAIL
  6
DASHED
 62
     5
 10
-138.68272
 20
154.492918
 30
0.0
 11
-140.72238
 21
156.532578
 31
0.0
  0
LINE
  8
DETAIL
  6
DASHED
 62
     5
 10
-138.68272
 20
0.0
 30
0.0
 11
-138.68272
 21
154.492918
 31
0.0
  0
LINE
  8
DETAIL
  6
DASHED
 62
     5
 10
-152.96034
 20
157.96034
 30
0.0
 11
-152.96034
 21
156.532578
 31
0.0
  0
LINE
  8
DETAIL
  6
DASHED
 62
     5
 10
-156.529745
 20
154.90085
 30
0.0
 11
-156.529745
 21
153.88102
 31
0.0
  0
LINE
  8
DETAIL
  6
DASHED
 62
     5
 10
-156.529745
 20
153.88102
 30
0.0
 11
-155.203966
 21
153.88102
 31
0.0
  0
LINE
  8
DETAIL
  6
DASHED
 62
     5
 10
-156.529745
 20
154.90085
 30
0.0
 11
-155.203966
 21
154.90085
 31
0.0
  0
LINE
  8
DETAIL
  6
DASHED
 62
     5
 10
-140.72238
 20
156.532578
 30
0.0
 11
-153.98017
 21
156.532578
 31
0.0
  0
ARC
  8
DETAIL
  6
DASHED
 62
     5
 10
-151.94051
 20
157.96034
 30
0.0
 40
1.01983
 50
126.869898
 51
180.0
  0
LINE
  8
DETAIL
  6
DASHED
 62
     5
 10
-149.135781
 20
158.215297
 30
0.0
 11
-149.135781
 21
158.776204
 31
0.0
  0
LINE
  8
DETAIL
  6
DASHED
 62
     5
 10
-143.723311
 20
158.776204
 30
0.0
 11
-143.723311
 21
158.215297
 31
0.0
  0
LINE
  8
DETAIL
  6
DASHED
 62
     5
 10
-136.333744
 20
158.776204
 30
0.0
 11
-136.333744
 21
158.215297
 31
0.0
  0
LINE
  8
DETAIL
  6
DASHED
 62
     5
 10
-149.135781
 20
158.776204
 30
0.0
 11
-135.368272
 21
158.776204
 31
0.0
  0
LINE
  8
DETAIL
  6
DASHED
 62
     5
 10
-104.173224
 20
160.0
 30
0.0
 11
-152.756374
 21
160.0
 31
0.0
  0
LINE
  8
DETAIL
  6
DASHED
 62
     5
 10
-108.087819
 20
144.70255
 30
0.0
 11
-106.048159
 21
146.74221
 31
0.0
  0
LINE
  8
DETAIL
  6
DASHED
 62
     5
 10
-136.495751
 20
183.0
 30
0.0
 11
-143.475921
 21
183.0
 31
0.0
  0
LINE
  8
DETAIL
  6
DASHED
 62
     5
 10
-106.048159
 20
158.776204
 30
0.0
 11
-104.173224
 21
158.776204
 31
0.0
  0
LINE
  8
DETAIL
  6
DASHED
 62
     5
 10
-135.368272
 20
158.776204
 30
0.0
 11
-152.756374
 21
158.776204
 31
0.0
  0
LINE
  8
DETAIL
  6
DASHED
 62
     5
 10
-103.307869
 20
153.626062
 30
0.0
 11
-102.442515
 21
153.626062
 31
0.0
  0
LINE
  8
DETAIL
  6
DASHED
 62
     5
 10
-155.203966
 20
146.74221
 30
0.0
 11
-153.98017
 21
146.74221
 31
0.0
  0
LINE
  8
DETAIL
  6
DASHED
 62
     5
 10
-155.203966
 20
144.70255
 30
0.0
 11
-153.98017
 21
144.70255
 31
0.0
  0
LINE
  8
DETAIL
  6
DASHED
 62
     5
 10
-133.328612
 20
144.70255
 30
0.0
 11
-108.087819
 21
144.70255
 31
0.0
  0
LINE
  8
DETAIL
  6
DASHED
 62
     5
 10
-104.173224
 20
158.776204
 30
0.0
 11
-103.950566
 21
158.735001
 31
0.0
  0
LINE
  8
DETAIL
  6
DASHED
 62
     5
 10
-103.950566
 20
158.735001
 30
0.0
 11
-103.73937
 21
158.611285
 31
0.0
  0
LINE
  8
DETAIL
  6
DASHED
 62
     5
 10
-104.173224
 20
160.0
 30
0.0
 11
-103.788472
 21
159.938753
 31
0.0
  0
LINE
  8
DETAIL
  6
DASHED
 62
     5
 10
-103.788472
 20
159.938753
 30
0.0
 11
-103.421493
 21
159.757064
 31
0.0
  0
LINE
  8
DETAIL
  6
DASHED
 62
     5
 10
-133.328612
 20
144.70255
 30
0.0
 11
-135.368272
 21
146.74221
 31
0.0
  0
LINE
  8
DETAIL
  6
DASHED
 62
     5
 10
-102.442515
 20
157.552408
 30
0.0
 11
-102.485823
 21
158.096528
 31
0.0
  0
LINE
  8
DETAIL
  6
DASHED
 62
     5
 10
-102.485823
 20
158.096528
 30
0.0
 11
-102.614295
 21
158.615515
 31
0.0
  0
LINE
  8
DETAIL
  6
DASHED
 62
     5
 10
-102.614295
 20
158.615515
 30
0.0
 11
-102.819515
 21
159.077419
 31
0.0
  0
LINE
  8
DETAIL
  6
DASHED
 62
     5
 10
-102.819515
 20
159.077419
 30
0.0
 11
-103.094878
 21
159.466839
 31
0.0
  0
LINE
  8
DETAIL
  6
DASHED
 62
     5
 10
-103.094878
 20
159.466839
 30
0.0
 11
-103.421493
 21
159.757064
 31
0.0
  0
LINE
  8
DETAIL
  6
DASHED
 62
     5
 10
-103.307869
 20
157.552408
 30
0.0
 11
-103.337004
 21
157.867295
 31
0.0
  0
LINE
  8
DETAIL
  6
DASHED
 62
     5
 10
-103.337004
 20
157.867295
 30
0.0
 11
-103.424485
 21
158.165968
 31
0.0
  0
LINE
  8
DETAIL
  6
DASHED
 62
     5
 10
-103.424485
 20
158.165968
 30
0.0
 11
-103.561326
 21
158.417762
 31
0.0
  0
LINE
  8
DETAIL
  6
DASHED
 62
     5
 10
-103.561326
 20
158.417762
 30
0.0
 11
-103.73937
 21
158.611285
 31
0.0
  0
LINE
  8
DETAIL
  6
DASHED
 62
     5
 10
-102.442515
 20
153.626062
 30
0.0
 11
-102.442515
 21
157.552408
 31
0.0
  0
LINE
  8
DETAIL
  6
DASHED
 62
     5
 10
-103.307869
 20
157.552408
 30
0.0
 11
-103.307869
 21
153.626062
 31
0.0
  0
LINE
  8
DETAIL
  6
DASHED
 62
     5
 10
-106.048159
 20
160.0
 30
0.0
 11
-106.048159
 21
146.74221
 31
0.0
  0
LINE
  8
DETAIL
  6
DASHED
 62
     5
 10
-135.368272
 20
160.0
 30
0.0
 11
-135.368272
 21
146.74221
 31
0.0
  0
LINE
  8
DETAIL
  6
DASHED
 62
     5
 10
-137.407932
 20
160.0
 30
0.0
 11
-137.407932
 21
158.776204
 31
0.0
  0
LINE
  8
DETAIL
  6
DASHED
 62
     5
 10
-134.966006
 20
160.0
 30
0.0
 11
-134.966006
 21
182.490085
 31
0.0
  0
LINE
  8
DETAIL
  6
DASHED
 62
     5
 10
-142.966006
 20
160.0
 30
0.0
 11
-142.966006
 21
182.490085
 31
0.0
  0
LINE
  8
DETAIL
  6
DASHED
 62
     5
 10
-148.88102
 20
160.0
 30
0.0
 11
-148.88102
 21
158.776204
 31
0.0
  0
LINE
  8
DETAIL
  6
DASHED
 62
     5
 10
-150.92068
 20
160.0
 30
0.0
 11
-150.92068
 21
158.776204
 31
0.0
  0
LINE
  8
DETAIL
  6
DASHED
 62
     5
 10
-153.98017
 20
157.552408
 30
0.0
 11
-153.98017
 21
144.70255
 31
0.0
  0
LINE
  8
DETAIL
  6
DASHED
 62
     5
 10
-155.203966
 20
157.552408
 30
0.0
 11
-155.203966
 21
144.70255
 31
0.0
  0
ARC
  8
DETAIL
  6
DASHED
 62
     5
 10
-143.475921
 20
182.490085
 30
0.0
 40
0.509915
 50
90.0
 51
180.0
  0
ARC
  8
DETAIL
  6
DASHED
 62
     5
 10
-136.495751
 20
182.490085
 30
0.0
 40
0.509915
 50
0.0
 51
90.0
  0
ARC
  8
DETAIL
  6
DASHED
 62
     5
 10
-152.756374
 20
157.552408
 30
0.0
 40
2.447592
 50
90.0
 51
180.0
  0
ARC
  8
DETAIL
  6
DASHED
 62
     5
 10
-152.756374
 20
157.552408
 30
0.0
 40
1.223796
 50
90.0
 51
180.0
  0
LINE
  8
DETAIL
  6
DASHED
 62
     5
 10
-104.20928
 20
152.351275
 30
0.0
 11
-103.307869
 21
153.626062
 31
0.0
  0
LINE
  8
DETAIL
  6
DASHED
 62
     5
 10
-103.343925
 20
152.351275
 30
0.0
 11
-102.442515
 21
153.626062
 31
0.0
  0
CIRCLE
  8
DETAIL
  6
DASHED
 62
     5
 10
-145.311615
 20
141.133144
 30
0.0
 40
2.090652
  0
CIRCLE
  8
DETAIL
  6
DASHED
 62
     5
 10
-86.671388
 20
151.84136
 30
0.0
 40
3.05949
  0
ARC
  8
DETAIL
  6
DASHED
 62
     5
 10
-101.968839
 20
155.92068
 30
0.0
 40
3.569405
 50
270.0
 51
0.0
  0
LINE
  8
DETAIL
  6
DASHED
 62
     5
 10
-98.399433
 20
155.92068
 30
0.0
 11
-98.399433
 21
160.0
 31
0.0
  0
LINE
  8
DETAIL
  6
DASHED
 62
     5
 10
-101.968839
 20
152.351275
 30
0.0
 11
-106.048159
 21
152.351275
 31
0.0
  0
LINE
  8
DETAIL
  6
DASHED
 62
     5
 10
-149.90085
 20
156.532578
 30
0.0
 11
-135.368272
 21
156.532578
 31
0.0
  0
LINE
  8
DETAIL
  6
DASHED
 62
     5
 10
-98.399433
 20
160.0
 30
0.0
 11
1.033994
 21
160.0
 31
0.0
  0
LINE
  8
DETAIL
  6
DASHED
 62
     5
 10
-155.0
 20
0.0
 30
0.0
 11
-155.0
 21
144.70255
 31
0.0
  0
ARC
  8
DETAIL
  6
DASHED
 62
     5
 10
-101.968839
 20
155.92068
 30
0.0
 40
3.569405
 50
249.971945
 51
270.0
  0
ARC
  8
DETAIL
  6
DASHED
 62
     5
 10
-151.124646
 20
150.101366
 30
0.0
 40
6.220964
 50
142.586187
 51
229.024388
  0
LINE
  8
OUTLINE
  6
CONTINUOUS
 62
     3
 10
-107.082153
 20
90.0
 30
0.0
 11
-152.756374
 21
90.0
 31
0.0
  0
LINE
  8
OUTLINE
  6
CONTINUOUS
 62
     3
 10
-109.121813
 20
74.70255
 30
0.0
 11
-107.082153
 21
76.74221
 31
0.0
  0
LINE
  8
OUTLINE
  6
CONTINUOUS
 62
     3
 10
-155.203966
 20
74.70255
 30
0.0
 11
-155.0
 21
74.70255
 31
0.0
  0
LINE
  8
OUTLINE
  6
CONTINUOUS
 62
     3
 10
-134.362606
 20
74.70255
 30
0.0
 11
-109.121813
 21
74.70255
 31
0.0
  0
LINE
  8
OUTLINE
  6
CONTINUOUS
 62
     3
 10
-134.362606
 20
74.70255
 30
0.0
 11
-136.402266
 21
76.74221
 31
0.0
  0
LINE
  8
OUTLINE
  6
CONTINUOUS
 62
     3
 10
-107.082153
 20
90.0
 30
0.0
 11
-107.082153
 21
76.74221
 31
0.0
  0
LINE
  8
OUTLINE
  6
CONTINUOUS
 62
     3
 10
-136.402266
 20
90.0
 30
0.0
 11
-136.402266
 21
76.74221
 31
0.0
  0
LINE
  8
OUTLINE
  6
CONTINUOUS
 62
     3
 10
-155.203966
 20
87.552408
 30
0.0
 11
-155.203966
 21
74.70255
 31
0.0
  0
ARC
  8
OUTLINE
  6
CONTINUOUS
 62
     3
 10
-152.756374
 20
87.552408
 30
0.0
 40
2.447592
 50
90.0
 51
180.0
  0
ARC
  8
OUTLINE
  6
CONTINUOUS
 62
     3
 10
-103.002833
 20
85.92068
 30
0.0
 40
3.569405
 50
270.0
 51
0.0
  0
LINE
  8
OUTLINE
  6
CONTINUOUS
 62
     3
 10
-99.433428
 20
85.92068
 30
0.0
 11
-99.433428
 21
90.0
 31
0.0
  0
LINE
  8
OUTLINE
  6
CONTINUOUS
 62
     3
 10
-103.002833
 20
82.351275
 30
0.0
 11
-107.082153
 21
82.351275
 31
0.0
  0
LINE
  8
OUTLINE
  6
CONTINUOUS
 62
     3
 10
-99.433428
 20
90.0
 30
0.0
 11
0.0
 21
90.0
 31
0.0
  0
LINE
  8
OUTLINE
  6
CONTINUOUS
 62
     3
 10
-155.0
 20
0.0
 30
0.0
 11
-155.0
 21
74.70255
 31
0.0
  0
LINE
  8
SIZE
  6
CONTINUOUS
 62
    30
 10
-155.0
 20
20.0
 30
0.0
 11
-155.0
 21
349.707572
 31
0.0
  0
LINE
  8
SIZE
  6
CONTINUOUS
 62
    30
 10
155.0
 20
20.0
 30
0.0
 11
155.0
 21
349.707572
 31
0.0
  0
LINE
  8
SIZE
  6
CONTINUOUS
 62
    30
 10
-143.0
 20
329.707572
 30
0.0
 11
143.0
 21
329.707572
 31
0.0
  0
CIRCLE
  8
SIZE
  6
CONTINUOUS
 62
    30
 10
-155.0
 20
329.707572
 30
0.0
 40
6.0
  0
LINE
  8
SIZE
  6
CONTINUOUS
 62
    30
 10
-155.0
 20
329.707572
 30
0.0
 11
-143.0
 21
329.707572
 31
0.0
  0
CIRCLE
  8
SIZE
  6
CONTINUOUS
 62
    30
 10
155.0
 20
329.707572
 30
0.0
 40
6.0
  0
LINE
  8
SIZE
  6
CONTINUOUS
 62
    30
 10
155.0
 20
329.707572
 30
0.0
 11
143.0
 21
329.707572
 31
0.0
  0
TEXT
  8
SIZE
  6
CONTINUOUS
 62
    30
 10
-109.728
 20
354.707572
 30
0.0
 40
64.0
  1
□310
 50
0.0
 41
0.9
 51
0.0
  7
STANDARD
 71
     0
 72
     1
 11
0.0
 21
354.707572
 31
0.0
210
0.0
220
0.0
230
1.0
  0
POINT
  8
DEFPOINTS
  6
CONTINUOUS
 62
    30
 10
-155.0
 20
0.0
 30
0.0
  0
POINT
  8
DEFPOINTS
  6
CONTINUOUS
 62
    30
 10
155.0
 20
0.0
 30
0.0
  0
POINT
  8
DEFPOINTS
  6
CONTINUOUS
 62
    30
 10
155.0
 20
329.707572
 30
0.0
  0
ENDSEC
  0
EOF
