  0
SECTION
  2
HEADER
  9
$ACADVER
  1
AC1009
  9
$DWGCODEPAGE
  3
dos932
  9
$INSBASE
 10
0.0
 20
0.0
 30
0.0
  9
$EXTMIN
 10
-658.026107
 20
-262.115467
 30
-0.003052
  9
$EXTMAX
 10
657.572948
 20
651.763924
 30
50.003052
  9
$LIMMIN
 10
-2970.0
 20
-2100.0
  9
$LIMMAX
 10
2970.0
 20
2100.0
  9
$ORTHOMODE
 70
     1
  9
$REGENMODE
 70
     1
  9
$FILLMODE
 70
     1
  9
$QTEXTMODE
 70
     0
  9
$MIRRTEXT
 70
     0
  9
$DRAGMODE
 70
     2
  9
$LTSCALE
 40
20.0
  9
$OSMODE
 70
  3071
  9
$ATTMODE
 70
     1
  9
$TEXTSIZE
 40
64.0
  9
$TRACEWID
 40
0.05
  9
$TEXTSTYLE
  7
STANDARD
  9
$CLAYER
  8
SIZE
  9
$CELTYPE
  6
CONTINUOUS
  9
$CECOLOR
 62
     7
  9
$DIMSCALE
 40
1.0
  9
$DIMASZ
 40
12.0
  9
$DIMEXO
 40
20.0
  9
$DIMDLI
 40
200.0
  9
$DIMRND
 40
0.0
  9
$DIMDLE
 40
0.0
  9
$DIMEXE
 40
20.0
  9
$DIMTP
 40
0.0
  9
$DIMTM
 40
0.0
  9
$DIMTXT
 40
64.0
  9
$DIMCEN
 40
0.09
  9
$DIMTSZ
 40
0.0
  9
$DIMTOL
 70
     0
  9
$DIMLIM
 70
     0
  9
$DIMTIH
 70
     0
  9
$DIMTOH
 70
     0
  9
$DIMSE1
 70
     0
  9
$DIMSE2
 70
     0
  9
$DIMTAD
 70
     1
  9
$DIMZIN
 70
     8
  9
$DIMBLK
  1
DOT1
  9
$DIMASO
 70
     1
  9
$DIMSHO
 70
     0
  9
$DIMPOST
  1

  9
$DIMAPOST
  1

  9
$DIMALT
 70
     0
  9
$DIMALTD
 70
     2
  9
$DIMALTF
 40
25.4
  9
$DIMLFAC
 40
1.0
  9
$DIMTOFL
 70
     1
  9
$DIMTVP
 40
0.0
  9
$DIMTIX
 70
     1
  9
$DIMSOXD
 70
     0
  9
$DIMSAH
 70
     1
  9
$DIMBLK1
  1
_ORIGIN
  9
$DIMBLK2
  1
_ORIGIN
  9
$DIMSTYLE
  2
STANDARD
  9
$DIMCLRD
 70
     7
  9
$DIMCLRE
 70
     7
  9
$DIMCLRT
 70
     7
  9
$DIMTFAC
 40
1.0
  9
$DIMGAP
 40
25.0
  9
$LUNITS
 70
     2
  9
$LUPREC
 70
     4
  9
$SKETCHINC
 40
0.1
  9
$FILLETRAD
 40
3.0
  9
$AUNITS
 70
     1
  9
$AUPREC
 70
     3
  9
$MENU
  1
ACAD
  9
$ELEVATION
 40
0.0
  9
$PELEVATION
 40
0.0
  9
$THICKNESS
 40
50.0
  9
$LIMCHECK
 70
     0
  9
$BLIPMODE
 70
     0
  9
$CHAMFERA
 40
0.0
  9
$CHAMFERB
 40
0.0
  9
$SKPOLY
 70
     0
  9
$TDCREATE
 40
2453019.62301037
  9
$TDUPDATE
 40
2454529.588640532
  9
$TDINDWG
 40
1.1502896296
  9
$TDUSRTIMER
 40
1.1502896296
  9
$USRTIMER
 70
     1
  9
$ANGBASE
 50
0.0
  9
$ANGDIR
 70
     0
  9
$PDMODE
 70
     3
  9
$PDSIZE
 40
-2.0
  9
$PLINEWID
 40
0.0
  9
$COORDS
 70
     2
  9
$SPLFRAME
 70
     0
  9
$SPLINETYPE
 70
     6
  9
$SPLINESEGS
 70
     8
  9
$ATTDIA
 70
     1
  9
$ATTREQ
 70
     1
  9
$HANDLING
 70
     0
  9
$HANDSEED
  5
A798
  9
$SURFTAB1
 70
     6
  9
$SURFTAB2
 70
     6
  9
$SURFTYPE
 70
     6
  9
$SURFU
 70
     6
  9
$SURFV
 70
     6
  9
$UCSNAME
  2

  9
$UCSORG
 10
0.0
 20
0.0
 30
0.0
  9
$UCSXDIR
 10
1.0
 20
0.0
 30
0.0
  9
$UCSYDIR
 10
0.0
 20
1.0
 30
0.0
  9
$PUCSNAME
  2

  9
$PUCSORG
 10
0.0
 20
0.0
 30
0.0
  9
$PUCSXDIR
 10
1.0
 20
0.0
 30
0.0
  9
$PUCSYDIR
 10
0.0
 20
1.0
 30
0.0
  9
$USERI1
 70
     0
  9
$USERI2
 70
     0
  9
$USERI3
 70
     0
  9
$USERI4
 70
     0
  9
$USERI5
 70
     0
  9
$USERR1
 40
20.0
  9
$USERR2
 40
0.0
  9
$USERR3
 40
0.0
  9
$USERR4
 40
0.0
  9
$USERR5
 40
0.0
  9
$WORLDVIEW
 70
     1
  9
$SHADEDGE
 70
     3
  9
$SHADEDIF
 70
    70
  9
$TILEMODE
 70
     1
  9
$MAXACTVP
 70
    48
  9
$PINSBASE
 10
0.0
 20
0.0
 30
0.0
  9
$PLIMCHECK
 70
     0
  9
$PEXTMIN
 10
-100000000000000000000.0
 20
-100000000000000000000.0
 30
-100000000000000000000.0
  9
$PEXTMAX
 10
100000000000000000000.0
 20
100000000000000000000.0
 30
100000000000000000000.0
  9
$PLIMMIN
 10
0.0
 20
0.0
  9
$PLIMMAX
 10
12.0
 20
9.0
  9
$UNITMODE
 70
     0
  9
$VISRETAIN
 70
     0
  9
$PLINEGEN
 70
     0
  9
$PSLTSCALE
 70
     0
  9
$TREEDEPTH
 70
  3020
  0
ENDSEC
  0
SECTION
  2
TABLES
  0
TABLE
  2
LTYPE
 70
     3
  0
LTYPE
  2
CONTINUOUS
 70
     0
  3
実線
 72
    65
 73
     0
 40
0.0
  0
LTYPE
  2
DASHDOT
 70
     0
  3
____ _ ____ _ ____ _ ____ _ ____ _ ____ _ ____
 72
    65
 73
     4
 40
5.5
 49
4.0
 49
-0.6
 49
0.3
 49
-0.6
  0
LTYPE
  2
DASHED
 70
     0
  3
-- -- -- -- -- -- -- -- -- -- -- -- -- -- --
 72
    65
 73
     2
 40
0.75
 49
0.5
 49
-0.25
  0
ENDTAB
  0
TABLE
  2
LAYER
 70
    12
  0
LAYER
  2
0
 70
     0
 62
     7
  6
CONTINUOUS
  0
LAYER
  2
BASIS
 70
     0
 62
     6
  6
DASHDOT
  0
LAYER
  2
OUTLINE
 70
     0
 62
     3
  6
CONTINUOUS
  0
LAYER
  2
DETAIL
 70
     0
 62
     5
  6
CONTINUOUS
  0
LAYER
  2
SIZE
 70
     0
 62
    30
  6
CONTINUOUS
  0
LAYER
  2
ARRANGE
 70
     0
 62
     1
  6
CONTINUOUS
  0
LAYER
  2
DEFPOINTS
 70
     0
 62
     7
  6
CONTINUOUS
  0
LAYER
  2
ETC
 70
     0
 62
    61
  6
CONTINUOUS
  0
LAYER
  2
FIX
 70
     0
 62
    11
  6
CONTINUOUS
  0
LAYER
  2
NOTE
 70
     0
 62
     4
  6
CONTINUOUS
  0
LAYER
  2
SERVICESPACE
 70
    64
 62
     2
  6
DASHDOT
  0
LAYER
  2
SYMBOLLINE
 70
    64
 62
    15
  6
CONTINUOUS
  0
ENDTAB
  0
TABLE
  2
STYLE
 70
     1
  0
STYLE
  2
STANDARD
 70
     0
 40
64.0
 41
0.9
 50
0.0
 71
     0
 42
64.0
  3
SIMPLEX.shx
  4
BIGFONT.shx
  0
ENDTAB
  0
TABLE
  2
APPID
 70
    13
  0
APPID
  2
ACAD
 70
     0
  0
APPID
  2
AUTOCAD_POSTSCRIPT_FIGURE
 70
     0
  0
APPID
  2
ACAD_EXEMPT_FROM_CAD_STANDARDS
 70
     0
  0
APPID
  2
ACAD_PSEXT
 70
     0
  0
APPID
  2
ACAUTHENVIRON
 70
     0
  0
APPID
  2
GENIUS_GENOENT_13
 70
     0
  0
APPID
  2
GENIUS_GENCFG_13
 70
     0
  0
APPID
  2
GENIUS_GENCFG0_13
 70
     0
  0
APPID
  2
GENIUS_GENCFG1_13
 70
     0
  0
APPID
  2
GENIUS_GENCFG2_13
 70
     0
  0
APPID
  2
GENIUS_GENCFG3_13
 70
     0
  0
APPID
  2
GENIUS_GENCFG4_13
 70
     0
  0
APPID
  2
GENIUS_GEVCFG0_13
 70
     0
  0
ENDTAB
  0
TABLE
  2
DIMSTYLE
 70
     1
  0
DIMSTYLE
  2
STANDARD
 70
     0
  3

  4

  5

  6

  7

 40
1.0
 41
0.18
 42
0.0625
 43
0.38
 44
0.18
 45
0.0
 46
0.0
 47
0.0
 48
0.0
140
0.18
141
0.09
142
0.0
143
25.4
144
1.0
145
0.0
146
1.0
147
0.09
 71
     0
 72
     0
 73
     1
 74
     1
 75
     0
 76
     0
 77
     0
 78
     0
170
     0
171
     2
172
     0
173
     0
174
     0
175
     0
176
     7
177
     7
178
     7
  0
ENDTAB
  0
TABLE
  2
VIEW
 70
     1
  0
VIEW
  2
ALL
 70
     0
 40
4282.619808
 10
0.0
 20
41.309904
 41
5940.0
 11
0.0
 21
0.0
 31
1.0
 12
0.0
 22
0.0
 32
0.0
 42
50.0
 43
0.0
 44
0.0
 50
0.0
 71
     0
  0
ENDTAB
  0
TABLE
  2
UCS
 70
     0
  0
ENDTAB
  0
TABLE
  2
VPORT
 70
     1
  0
VPORT
  2
*ACTIVE
 70
     0
 10
0.0
 20
0.0
 11
1.0
 21
1.0
 12
-0.226579
 22
194.824229
 13
0.0
 23
0.0
 14
1.0
 24
1.0
 15
0.0
 25
0.0
 16
0.0
 26
0.0
 36
1.0
 17
0.0
 27
0.0
 37
0.0
 40
924.715905
 41
1.754455
 42
50.0
 43
0.0
 44
0.0
 50
0.0
 51
0.0
 71
     0
 72
  1000
 73
     1
 74
     0
 75
     0
 76
     0
 77
     0
 78
     0
  0
ENDTAB
  0
ENDSEC
  0
SECTION
  2
BLOCKS
  0
BLOCK
  8
0
  2
DOT1
 70
     0
 10
0.0
 20
0.0
 30
0.0
  3
DOT1
  1

  0
CIRCLE
  8
SIZE
  6
CONTINUOUS
 62
     7
 10
0.0
 20
0.0
 30
0.0
 40
3.0
  0
ENDBLK
  8
0
  0
BLOCK
  8
0
  2
_ORIGIN
 70
     0
 10
0.0
 20
0.0
 30
0.0
  3
_ORIGIN
  1

  0
CIRCLE
  8
0
  6
CONTINUOUS
 62
     7
 10
0.0
 20
0.0
 30
0.0
 40
0.5
  0
LINE
  8
0
  6
CONTINUOUS
 62
     7
 10
0.0
 20
0.0
 30
0.0
 11
-1.0
 21
0.0
 31
0.0
  0
ENDBLK
  8
0
  0
ENDSEC
  0
SECTION
  2
ENTITIES
  0
TEXT
  8
ETC
  6
CONTINUOUS
 62
    61
 10
333.243319
 20
549.035957
 30
0.0
 40
40.0
  1
PS-20ZW3_2
 41
0.9
  0
TEXT
  8
ETC
  6
CONTINUOUS
 62
    61
 10
329.057325
 20
488.339678
 30
0.0
 40
40.0
  1
システム部材
 41
0.9
  0
TEXT
  8
ETC
  6
CONTINUOUS
 62
    61
 10
379.664827
 20
406.469567
 30
0.0
 40
40.0
  1
PS-20ZW3
 41
0.9
  0
CIRCLE
  8
ARRANGE
  6
CONTINUOUS
 62
     1
 10
0.0
 20
0.0
 30
0.0
 40
40.0
  0
LINE
  8
BASIS
  6
DASHDOT
 62
     6
 10
-257.369586
 20
0.0
 30
0.0
 11
257.369586
 21
0.0
 31
0.0
  0
LINE
  8
BASIS
  6
DASHDOT
 62
     6
 10
0.0
 20
261.99037
 30
0.0
 11
0.0
 21
-261.99037
 31
0.0
  0
LINE
  8
NOTE
  6
CONTINUOUS
 62
     4
 10
180.0
 20
159.999998
 30
0.0
 11
180.0
 21
199.999998
 31
0.0
  0
LINE
  8
NOTE
  6
CONTINUOUS
 62
     4
 10
160.0
 20
179.999998
 30
0.0
 11
200.0
 21
179.999998
 31
0.0
  0
LINE
  8
NOTE
  6
CONTINUOUS
 62
     4
 10
180.0
 20
-200.0
 30
0.0
 11
180.0
 21
-160.0
 31
0.0
  0
LINE
  8
NOTE
  6
CONTINUOUS
 62
     4
 10
160.0
 20
-180.0
 30
0.0
 11
200.0
 21
-180.0
 31
0.0
  0
LINE
  8
NOTE
  6
CONTINUOUS
 62
     4
 10
140.0
 20
119.999998
 30
0.0
 11
140.0
 21
159.999998
 31
0.0
  0
LINE
  8
NOTE
  6
CONTINUOUS
 62
     4
 10
120.0
 20
139.999998
 30
0.0
 11
160.0
 21
139.999998
 31
0.0
  0
LINE
  8
NOTE
  6
CONTINUOUS
 62
     4
 10
140.0
 20
-160.0
 30
0.0
 11
140.0
 21
-120.0
 31
0.0
  0
LINE
  8
NOTE
  6
CONTINUOUS
 62
     4
 10
120.0
 20
-140.0
 30
0.0
 11
160.0
 21
-140.0
 31
0.0
  0
POINT
  8
ARRANGE
  6
CONTINUOUS
 62
     1
 10
0.0
 20
0.0
 30
0.0
 39
50.0
  0
TEXT
  8
NOTE
  6
CONTINUOUS
 62
     4
 10
-554.522725
 20
320.721449
 30
0.0
 40
64.0
  1
4-φ10
 41
0.9
  0
LINE
  8
NOTE
  6
CONTINUOUS
 62
     4
 39
50.0
 10
-563.88752
 20
298.935886
 30
0.0
 11
-276.86169
 21
298.935886
 31
0.0
  0
LINE
  8
NOTE
  6
CONTINUOUS
 62
     4
 10
-212.822426
 20
202.862377
 30
0.0
 11
-180.0
 21
179.999998
 31
0.0
  0
LINE
  8
NOTE
  6
CONTINUOUS
 62
     4
 10
-180.0
 20
179.999998
 30
0.0
 11
-196.993864
 21
216.210612
 31
0.0
  0
LINE
  8
NOTE
  6
CONTINUOUS
 62
     4
 39
50.0
 10
-180.0
 20
179.999998
 30
0.0
 11
-276.86169
 21
298.935886
 31
0.0
  0
TEXT
  8
NOTE
  6
CONTINUOUS
 62
     4
 10
278.038245
 20
1.5393
 30
0.0
 40
64.0
  1
4-M8
 41
0.9
  0
LINE
  8
NOTE
  6
CONTINUOUS
 62
     4
 39
50.0
 10
276.51364
 20
-17.719657
 30
0.0
 11
515.365345
 21
-17.719657
 31
0.0
  0
LINE
  8
NOTE
  6
CONTINUOUS
 62
     4
 10
163.414067
 20
-102.826979
 30
0.0
 11
143.058586
 21
-137.260311
 31
0.0
  0
LINE
  8
NOTE
  6
CONTINUOUS
 62
     4
 10
143.058586
 20
-137.260311
 30
0.0
 11
177.903616
 21
-117.617911
 31
0.0
  0
LINE
  8
NOTE
  6
CONTINUOUS
 62
     4
 39
50.0
 10
276.51364
 20
-17.719657
 30
0.0
 11
143.058586
 21
-137.260311
 31
0.0
  0
CIRCLE
  8
FIX
  6
CONTINUOUS
 62
    11
 39
50.0
 10
140.0
 20
-140.0
 30
0.0
 40
4.0
  0
CIRCLE
  8
FIX
  6
CONTINUOUS
 62
    11
 39
50.0
 10
140.0
 20
139.999998
 30
0.0
 40
4.0
  0
LINE
  8
DETAIL
  6
CONTINUOUS
 62
     5
 10
135.5
 20
148.499998
 30
0.0
 11
135.75
 21
148.499998
 31
0.0
  0
LINE
  8
DETAIL
  6
CONTINUOUS
 62
     5
 10
148.5
 20
148.499998
 30
0.0
 11
147.5
 21
148.499998
 31
0.0
  0
ARC
  8
DETAIL
  6
CONTINUOUS
 62
     5
 10
148.5
 20
147.499998
 30
0.0
 40
1.0
 50
60.0
 51
90.0
  0
LINE
  8
DETAIL
  6
CONTINUOUS
 62
     5
 10
135.5
 20
148.999998
 30
0.0
 11
135.5
 21
148.499998
 31
0.0
  0
ARC
  8
DETAIL
  6
CONTINUOUS
 62
     5
 10
185.0
 20
184.999998
 30
0.0
 40
10.0
 50
0.0
 51
90.0
  0
LINE
  8
DETAIL
  6
CONTINUOUS
 62
     5
 10
195.0
 20
164.999998
 30
0.0
 11
195.0
 21
184.999998
 31
0.0
  0
LINE
  8
DETAIL
  6
CONTINUOUS
 62
     5
 10
185.0
 20
194.999998
 30
0.0
 11
0.0
 21
194.999998
 31
0.0
  0
LINE
  8
DETAIL
  6
CONTINUOUS
 62
     5
 10
195.0
 20
164.999998
 30
0.0
 11
163.0
 21
164.999998
 31
0.0
  0
LINE
  8
DETAIL
  6
CONTINUOUS
 62
     5
 10
163.0
 20
163.799998
 30
0.0
 11
0.0
 21
163.799998
 31
0.0
  0
LINE
  8
DETAIL
  6
CONTINUOUS
 62
     5
 10
163.5
 20
162.999998
 30
0.0
 11
149.0
 21
162.999998
 31
0.0
  0
LINE
  8
DETAIL
  6
CONTINUOUS
 62
     5
 10
161.0
 20
162.999998
 30
0.0
 11
161.0
 21
163.799998
 31
0.0
  0
LINE
  8
DETAIL
  6
CONTINUOUS
 62
     5
 10
163.0
 20
162.999998
 30
0.0
 11
163.0
 21
164.999998
 31
0.0
  0
LINE
  8
DETAIL
  6
CONTINUOUS
 62
     5
 10
163.7
 20
164.999998
 30
0.0
 11
163.7
 21
194.999998
 31
0.0
  0
LINE
  8
DETAIL
  6
CONTINUOUS
 62
     5
 10
149.0
 20
148.999998
 30
0.0
 11
149.0
 21
163.799998
 31
0.0
  0
LINE
  8
DETAIL
  6
CONTINUOUS
 62
     5
 10
149.0
 20
148.999998
 30
0.0
 11
0.0
 21
148.999998
 31
0.0
  0
ARC
  8
DETAIL
  6
CONTINUOUS
 62
     5
 10
185.0
 20
184.999998
 30
0.0
 40
10.0
 50
0.0
 51
90.0
  0
LINE
  8
DETAIL
  6
CONTINUOUS
 62
     5
 10
149.0
 20
162.999998
 30
0.0
 11
164.5
 21
162.999998
 31
0.0
  0
LINE
  8
DETAIL
  6
CONTINUOUS
 62
     5
 10
163.8
 20
-77.000002
 30
0.0
 11
163.8
 21
162.999998
 31
0.0
  0
LINE
  8
DETAIL
  6
CONTINUOUS
 62
     5
 10
195.0
 20
-77.000002
 30
0.0
 11
195.0
 21
184.999998
 31
0.0
  0
LINE
  8
DETAIL
  6
CONTINUOUS
 62
     5
 10
165.0
 20
194.999998
 30
0.0
 11
185.0
 21
194.999998
 31
0.0
  0
LINE
  8
DETAIL
  6
CONTINUOUS
 62
     5
 10
164.5
 20
162.999998
 30
0.0
 11
164.5
 21
164.999998
 31
0.0
  0
LINE
  8
DETAIL
  6
CONTINUOUS
 62
     5
 10
149.0
 20
-77.000002
 30
0.0
 11
149.0
 21
162.999998
 31
0.0
  0
LINE
  8
DETAIL
  6
CONTINUOUS
 62
     5
 10
133.75
 20
148.999998
 30
0.0
 11
133.75
 21
146.499998
 31
0.0
  0
LINE
  8
DETAIL
  6
CONTINUOUS
 62
     5
 10
149.0
 20
146.999998
 30
0.0
 11
149.0
 21
135.749998
 31
0.0
  0
LINE
  8
DETAIL
  6
CONTINUOUS
 62
     5
 10
135.75
 20
146.499998
 30
0.0
 11
135.75
 21
148.999998
 31
0.0
  0
LINE
  8
DETAIL
  6
CONTINUOUS
 62
     5
 10
146.5
 20
133.749998
 30
0.0
 11
149.0
 21
133.749998
 31
0.0
  0
LINE
  8
DETAIL
  6
CONTINUOUS
 62
     5
 10
149.0
 20
135.749998
 30
0.0
 11
146.5
 21
135.749998
 31
0.0
  0
LINE
  8
DETAIL
  6
CONTINUOUS
 62
     5
 10
135.75
 20
148.999998
 30
0.0
 11
147.0
 21
148.999998
 31
0.0
  0
LINE
  8
DETAIL
  6
CONTINUOUS
 62
     5
 10
95.473773
 20
148.999998
 30
0.0
 11
142.964466
 21
101.464464
 31
0.0
  0
LINE
  8
DETAIL
  6
CONTINUOUS
 62
     5
 10
149.0
 20
146.999998
 30
0.0
 11
147.0
 21
148.999998
 31
0.0
  0
ARC
  8
DETAIL
  6
CONTINUOUS
 62
     5
 10
134.75
 20
146.499998
 30
0.0
 40
1.0
 50
180.0
 51
0.0
  0
ARC
  8
DETAIL
  6
CONTINUOUS
 62
     5
 10
146.5
 20
134.749998
 30
0.0
 40
1.0
 50
90.0
 51
270.0
  0
LINE
  8
DETAIL
  6
CONTINUOUS
 62
     5
 10
141.732412
 20
135.934134
 30
0.0
 11
144.065864
 21
138.267586
 31
0.0
  0
LINE
  8
DETAIL
  6
CONTINUOUS
 62
     5
 10
135.934136
 20
141.73241
 30
0.0
 11
138.267588
 21
144.065862
 31
0.0
  0
ARC
  8
DETAIL
  6
CONTINUOUS
 62
     5
 10
138.833274
 20
138.833272
 30
0.0
 40
4.1
 50
135.0
 51
315.0
  0
ARC
  8
DETAIL
  6
CONTINUOUS
 62
     5
 10
141.166726
 20
141.166724
 30
0.0
 40
4.1
 50
315.0
 51
135.0
  0
LINE
  8
DETAIL
  6
CONTINUOUS
 62
     5
 10
133.75
 20
146.499998
 30
0.0
 11
133.75
 21
148.999998
 31
0.0
  0
LINE
  8
DETAIL
  6
CONTINUOUS
 62
     5
 10
135.75
 20
148.999998
 30
0.0
 11
135.75
 21
146.499998
 31
0.0
  0
LINE
  8
DETAIL
  6
CONTINUOUS
 62
     5
 10
135.75
 20
148.999998
 30
0.0
 11
147.0
 21
148.999998
 31
0.0
  0
LINE
  8
DETAIL
  6
CONTINUOUS
 62
     5
 10
146.5
 20
135.749998
 30
0.0
 11
149.0
 21
135.749998
 31
0.0
  0
LINE
  8
DETAIL
  6
CONTINUOUS
 62
     5
 10
149.0
 20
135.749998
 30
0.0
 11
149.0
 21
146.999998
 31
0.0
  0
LINE
  8
DETAIL
  6
CONTINUOUS
 62
     5
 10
147.0
 20
148.999998
 30
0.0
 11
149.0
 21
146.999998
 31
0.0
  0
ARC
  8
DETAIL
  6
CONTINUOUS
 62
     5
 10
134.75
 20
146.499998
 30
0.0
 40
1.0
 50
180.0
 51
0.0
  0
LINE
  8
DETAIL
  6
CONTINUOUS
 62
     5
 10
149.0
 20
95.441481
 30
0.0
 11
95.473773
 21
148.999998
 31
0.0
  0
ARC
  8
DETAIL
  6
CONTINUOUS
 62
     5
 10
146.5
 20
134.749998
 30
0.0
 40
1.0
 50
90.0
 51
270.0
  0
LINE
  8
DETAIL
  6
CONTINUOUS
 62
     5
 10
149.0
 20
133.749998
 30
0.0
 11
146.5
 21
133.749998
 31
0.0
  0
CIRCLE
  8
DETAIL
  6
CONTINUOUS
 62
     5
 10
140.0
 20
139.999998
 30
0.0
 40
4.0
  0
LINE
  8
DETAIL
  6
CONTINUOUS
 62
     5
 10
144.880415
 20
139.429337
 30
0.0
 11
143.986954
 21
140.322798
 31
0.0
  0
LINE
  8
DETAIL
  6
CONTINUOUS
 62
     5
 10
139.429339
 20
144.880413
 30
0.0
 11
140.3228
 21
143.986952
 31
0.0
  0
LINE
  8
DETAIL
  6
CONTINUOUS
 62
     5
 10
133.75
 20
146.82178
 30
0.0
 11
135.75
 21
146.82178
 31
0.0
  0
LINE
  8
DETAIL
  6
CONTINUOUS
 62
     5
 10
146.821782
 20
133.749998
 30
0.0
 11
146.821782
 21
135.749998
 31
0.0
  0
LINE
  8
DETAIL
  6
CONTINUOUS
 62
     5
 10
0.0
 20
147.999998
 30
0.0
 11
96.475857
 21
147.999998
 31
0.0
  0
LINE
  8
DETAIL
  6
CONTINUOUS
 62
     5
 10
148.0
 20
96.442085
 30
0.0
 11
148.0
 21
-77.000002
 31
0.0
  0
LINE
  8
DETAIL
  6
CONTINUOUS
 62
     5
 10
135.5
 20
-148.5
 30
0.0
 11
135.75
 21
-148.5
 31
0.0
  0
LINE
  8
DETAIL
  6
CONTINUOUS
 62
     5
 10
148.5
 20
-148.5
 30
0.0
 11
147.5
 21
-148.5
 31
0.0
  0
ARC
  8
DETAIL
  6
CONTINUOUS
 62
     5
 10
148.5
 20
-147.5
 30
0.0
 40
1.0
 50
270.0
 51
300.0
  0
LINE
  8
DETAIL
  6
CONTINUOUS
 62
     5
 10
135.5
 20
-149.0
 30
0.0
 11
135.5
 21
-148.5
 31
0.0
  0
ARC
  8
DETAIL
  6
CONTINUOUS
 62
     5
 10
185.0
 20
-185.0
 30
0.0
 40
10.0
 50
270.0
 51
0.0
  0
LINE
  8
DETAIL
  6
CONTINUOUS
 62
     5
 10
195.0
 20
-165.0
 30
0.0
 11
195.0
 21
-185.0
 31
0.0
  0
LINE
  8
DETAIL
  6
CONTINUOUS
 62
     5
 10
185.0
 20
-195.0
 30
0.0
 11
0.0
 21
-195.0
 31
0.0
  0
LINE
  8
DETAIL
  6
CONTINUOUS
 62
     5
 10
195.0
 20
-165.0
 30
0.0
 11
163.0
 21
-165.0
 31
0.0
  0
LINE
  8
DETAIL
  6
CONTINUOUS
 62
     5
 10
163.0
 20
-163.8
 30
0.0
 11
0.0
 21
-163.8
 31
0.0
  0
LINE
  8
DETAIL
  6
CONTINUOUS
 62
     5
 10
163.5
 20
-163.0
 30
0.0
 11
149.0
 21
-163.0
 31
0.0
  0
LINE
  8
DETAIL
  6
CONTINUOUS
 62
     5
 10
161.0
 20
-163.0
 30
0.0
 11
161.0
 21
-163.8
 31
0.0
  0
LINE
  8
DETAIL
  6
CONTINUOUS
 62
     5
 10
163.0
 20
-163.0
 30
0.0
 11
163.0
 21
-165.0
 31
0.0
  0
LINE
  8
DETAIL
  6
CONTINUOUS
 62
     5
 10
163.7
 20
-165.0
 30
0.0
 11
163.7
 21
-195.0
 31
0.0
  0
LINE
  8
DETAIL
  6
CONTINUOUS
 62
     5
 10
149.0
 20
-149.0
 30
0.0
 11
149.0
 21
-163.8
 31
0.0
  0
LINE
  8
DETAIL
  6
CONTINUOUS
 62
     5
 10
149.0
 20
-149.0
 30
0.0
 11
0.0
 21
-149.0
 31
0.0
  0
ARC
  8
DETAIL
  6
CONTINUOUS
 62
     5
 10
185.0
 20
-185.0
 30
0.0
 40
10.0
 50
270.0
 51
0.0
  0
LINE
  8
DETAIL
  6
CONTINUOUS
 62
     5
 10
149.0
 20
-163.0
 30
0.0
 11
164.5
 21
-163.0
 31
0.0
  0
LINE
  8
DETAIL
  6
CONTINUOUS
 62
     5
 10
163.8
 20
77.0
 30
0.0
 11
163.8
 21
-163.0
 31
0.0
  0
LINE
  8
DETAIL
  6
CONTINUOUS
 62
     5
 10
195.0
 20
77.0
 30
0.0
 11
195.0
 21
-185.0
 31
0.0
  0
LINE
  8
DETAIL
  6
CONTINUOUS
 62
     5
 10
165.0
 20
-195.0
 30
0.0
 11
185.0
 21
-195.0
 31
0.0
  0
LINE
  8
DETAIL
  6
CONTINUOUS
 62
     5
 10
164.5
 20
-163.0
 30
0.0
 11
164.5
 21
-165.0
 31
0.0
  0
LINE
  8
DETAIL
  6
CONTINUOUS
 62
     5
 10
149.0
 20
77.0
 30
0.0
 11
149.0
 21
-163.0
 31
0.0
  0
LINE
  8
DETAIL
  6
CONTINUOUS
 62
     5
 10
133.75
 20
-149.0
 30
0.0
 11
133.75
 21
-146.5
 31
0.0
  0
LINE
  8
DETAIL
  6
CONTINUOUS
 62
     5
 10
149.0
 20
-147.0
 30
0.0
 11
149.0
 21
-135.75
 31
0.0
  0
LINE
  8
DETAIL
  6
CONTINUOUS
 62
     5
 10
135.75
 20
-146.5
 30
0.0
 11
135.75
 21
-149.0
 31
0.0
  0
LINE
  8
DETAIL
  6
CONTINUOUS
 62
     5
 10
146.5
 20
-133.75
 30
0.0
 11
149.0
 21
-133.75
 31
0.0
  0
LINE
  8
DETAIL
  6
CONTINUOUS
 62
     5
 10
149.0
 20
-135.75
 30
0.0
 11
146.5
 21
-135.75
 31
0.0
  0
LINE
  8
DETAIL
  6
CONTINUOUS
 62
     5
 10
135.75
 20
-149.0
 30
0.0
 11
147.0
 21
-149.0
 31
0.0
  0
LINE
  8
DETAIL
  6
CONTINUOUS
 62
     5
 10
95.428932
 20
-149.0
 30
0.0
 11
142.964466
 21
-101.464466
 31
0.0
  0
LINE
  8
DETAIL
  6
CONTINUOUS
 62
     5
 10
149.0
 20
-147.0
 30
0.0
 11
147.0
 21
-149.0
 31
0.0
  0
ARC
  8
DETAIL
  6
CONTINUOUS
 62
     5
 10
134.75
 20
-146.5
 30
0.0
 40
1.0
 50
0.0
 51
180.0
  0
ARC
  8
DETAIL
  6
CONTINUOUS
 62
     5
 10
146.5
 20
-134.75
 30
0.0
 40
1.0
 50
90.0
 51
270.0
  0
LINE
  8
DETAIL
  6
CONTINUOUS
 62
     5
 10
141.732412
 20
-135.934136
 30
0.0
 11
144.065864
 21
-138.267588
 31
0.0
  0
LINE
  8
DETAIL
  6
CONTINUOUS
 62
     5
 10
135.934136
 20
-141.732412
 30
0.0
 11
138.267588
 21
-144.065864
 31
0.0
  0
ARC
  8
DETAIL
  6
CONTINUOUS
 62
     5
 10
138.833274
 20
-138.833274
 30
0.0
 40
4.1
 50
45.0
 51
225.0
  0
ARC
  8
DETAIL
  6
CONTINUOUS
 62
     5
 10
141.166726
 20
-141.166726
 30
0.0
 40
4.1
 50
225.0
 51
45.0
  0
LINE
  8
DETAIL
  6
CONTINUOUS
 62
     5
 10
133.75
 20
-146.5
 30
0.0
 11
133.75
 21
-149.0
 31
0.0
  0
LINE
  8
DETAIL
  6
CONTINUOUS
 62
     5
 10
135.75
 20
-149.0
 30
0.0
 11
135.75
 21
-146.5
 31
0.0
  0
LINE
  8
DETAIL
  6
CONTINUOUS
 62
     5
 10
135.75
 20
-149.0
 30
0.0
 11
147.0
 21
-149.0
 31
0.0
  0
LINE
  8
DETAIL
  6
CONTINUOUS
 62
     5
 10
146.5
 20
-135.75
 30
0.0
 11
149.0
 21
-135.75
 31
0.0
  0
LINE
  8
DETAIL
  6
CONTINUOUS
 62
     5
 10
149.0
 20
-135.75
 30
0.0
 11
149.0
 21
-147.0
 31
0.0
  0
LINE
  8
DETAIL
  6
CONTINUOUS
 62
     5
 10
147.0
 20
-149.0
 30
0.0
 11
149.0
 21
-147.0
 31
0.0
  0
ARC
  8
DETAIL
  6
CONTINUOUS
 62
     5
 10
134.75
 20
-146.5
 30
0.0
 40
1.0
 50
0.0
 51
180.0
  0
LINE
  8
DETAIL
  6
CONTINUOUS
 62
     5
 10
149.0
 20
-95.428932
 30
0.0
 11
95.428932
 21
-149.0
 31
0.0
  0
ARC
  8
DETAIL
  6
CONTINUOUS
 62
     5
 10
146.5
 20
-134.75
 30
0.0
 40
1.0
 50
90.0
 51
270.0
  0
LINE
  8
DETAIL
  6
CONTINUOUS
 62
     5
 10
149.0
 20
-133.75
 30
0.0
 11
146.5
 21
-133.75
 31
0.0
  0
CIRCLE
  8
DETAIL
  6
CONTINUOUS
 62
     5
 10
140.0
 20
-140.0
 30
0.0
 40
4.0
  0
LINE
  8
DETAIL
  6
CONTINUOUS
 62
     5
 10
144.880415
 20
-139.429339
 30
0.0
 11
143.986954
 21
-140.3228
 31
0.0
  0
LINE
  8
DETAIL
  6
CONTINUOUS
 62
     5
 10
139.429339
 20
-144.880415
 30
0.0
 11
140.3228
 21
-143.986954
 31
0.0
  0
LINE
  8
DETAIL
  6
CONTINUOUS
 62
     5
 10
133.75
 20
-146.821782
 30
0.0
 11
135.75
 21
-146.821782
 31
0.0
  0
LINE
  8
DETAIL
  6
CONTINUOUS
 62
     5
 10
146.821782
 20
-133.75
 30
0.0
 11
146.821782
 21
-135.75
 31
0.0
  0
LINE
  8
DETAIL
  6
CONTINUOUS
 62
     5
 10
0.0
 20
-148.0
 30
0.0
 11
96.428932
 21
-148.0
 31
0.0
  0
LINE
  8
DETAIL
  6
CONTINUOUS
 62
     5
 10
148.0
 20
-173.428932
 30
0.0
 11
148.0
 21
0.0
 31
0.0
  0
ARC
  8
OUTLINE
  6
CONTINUOUS
 62
     3
 10
185.0
 20
184.999998
 30
0.0
 40
10.0
 50
0.0
 51
90.0
  0
LINE
  8
OUTLINE
  6
CONTINUOUS
 62
     3
 10
195.0
 20
164.999998
 30
0.0
 11
195.0
 21
184.999998
 31
0.0
  0
LINE
  8
OUTLINE
  6
CONTINUOUS
 62
     3
 10
185.0
 20
194.999998
 30
0.0
 11
0.0
 21
194.999998
 31
0.0
  0
ARC
  8
OUTLINE
  6
CONTINUOUS
 62
     3
 10
185.0
 20
184.999998
 30
0.0
 40
10.0
 50
0.0
 51
90.0
  0
LINE
  8
OUTLINE
  6
CONTINUOUS
 62
     3
 10
195.0
 20
-77.000002
 30
0.0
 11
195.0
 21
184.999998
 31
0.0
  0
LINE
  8
OUTLINE
  6
CONTINUOUS
 62
     3
 10
165.0
 20
194.999998
 30
0.0
 11
185.0
 21
194.999998
 31
0.0
  0
ARC
  8
OUTLINE
  6
CONTINUOUS
 62
     3
 10
185.0
 20
-185.0
 30
0.0
 40
10.0
 50
270.0
 51
0.0
  0
LINE
  8
OUTLINE
  6
CONTINUOUS
 62
     3
 10
195.0
 20
-165.0
 30
0.0
 11
195.0
 21
-185.0
 31
0.0
  0
LINE
  8
OUTLINE
  6
CONTINUOUS
 62
     3
 10
185.0
 20
-195.0
 30
0.0
 11
0.0
 21
-195.0
 31
0.0
  0
ARC
  8
OUTLINE
  6
CONTINUOUS
 62
     3
 10
185.0
 20
-185.0
 30
0.0
 40
10.0
 50
270.0
 51
0.0
  0
LINE
  8
OUTLINE
  6
CONTINUOUS
 62
     3
 10
195.0
 20
77.0
 30
0.0
 11
195.0
 21
-185.0
 31
0.0
  0
LINE
  8
OUTLINE
  6
CONTINUOUS
 62
     3
 10
165.0
 20
-195.0
 30
0.0
 11
185.0
 21
-195.0
 31
0.0
  0
CIRCLE
  8
DETAIL
  6
CONTINUOUS
 62
     5
 39
31.25
 10
180.0
 20
-180.0
 30
0.0
 40
5.0
  0
CIRCLE
  8
DETAIL
  6
CONTINUOUS
 62
     5
 39
31.25
 10
180.0
 20
179.999998
 30
0.0
 40
5.0
  0
CIRCLE
  8
FIX
  6
CONTINUOUS
 62
    11
 39
31.25
 10
180.0
 20
179.999998
 30
0.0
 40
5.0
  0
CIRCLE
  8
FIX
  6
CONTINUOUS
 62
    11
 39
31.25
 10
180.0
 20
-180.0
 30
0.0
 40
5.0
  0
LINE
  8
DETAIL
  6
CONTINUOUS
 62
     5
 10
-135.5
 20
148.499998
 30
0.0
 11
-135.75
 21
148.499998
 31
0.0
  0
LINE
  8
DETAIL
  6
CONTINUOUS
 62
     5
 10
-148.5
 20
148.499998
 30
0.0
 11
-147.5
 21
148.499998
 31
0.0
  0
ARC
  8
DETAIL
  6
CONTINUOUS
 62
     5
 10
-148.5
 20
147.499998
 30
0.0
 40
1.0
 50
90.0
 51
120.0
  0
LINE
  8
DETAIL
  6
CONTINUOUS
 62
     5
 10
-135.5
 20
148.999998
 30
0.0
 11
-135.5
 21
148.499998
 31
0.0
  0
ARC
  8
DETAIL
  6
CONTINUOUS
 62
     5
 10
-185.0
 20
184.999998
 30
0.0
 40
10.0
 50
90.0
 51
180.0
  0
LINE
  8
DETAIL
  6
CONTINUOUS
 62
     5
 10
-195.0
 20
164.999998
 30
0.0
 11
-195.0
 21
184.999998
 31
0.0
  0
LINE
  8
DETAIL
  6
CONTINUOUS
 62
     5
 10
-185.0
 20
194.999998
 30
0.0
 11
0.0
 21
194.999998
 31
0.0
  0
LINE
  8
DETAIL
  6
CONTINUOUS
 62
     5
 10
-195.0
 20
164.999998
 30
0.0
 11
-163.0
 21
164.999998
 31
0.0
  0
LINE
  8
DETAIL
  6
CONTINUOUS
 62
     5
 10
-163.0
 20
163.799998
 30
0.0
 11
0.0
 21
163.799998
 31
0.0
  0
LINE
  8
DETAIL
  6
CONTINUOUS
 62
     5
 10
-163.5
 20
162.999998
 30
0.0
 11
-149.0
 21
162.999998
 31
0.0
  0
LINE
  8
DETAIL
  6
CONTINUOUS
 62
     5
 10
-161.0
 20
162.999998
 30
0.0
 11
-161.0
 21
163.799998
 31
0.0
  0
LINE
  8
DETAIL
  6
CONTINUOUS
 62
     5
 10
-163.0
 20
162.999998
 30
0.0
 11
-163.0
 21
164.999998
 31
0.0
  0
LINE
  8
DETAIL
  6
CONTINUOUS
 62
     5
 10
-163.7
 20
164.999998
 30
0.0
 11
-163.7
 21
194.999998
 31
0.0
  0
LINE
  8
DETAIL
  6
CONTINUOUS
 62
     5
 10
-149.0
 20
148.999998
 30
0.0
 11
-149.0
 21
163.799998
 31
0.0
  0
LINE
  8
DETAIL
  6
CONTINUOUS
 62
     5
 10
-149.0
 20
148.999998
 30
0.0
 11
0.0
 21
148.999998
 31
0.0
  0
ARC
  8
DETAIL
  6
CONTINUOUS
 62
     5
 10
-185.0
 20
184.999998
 30
0.0
 40
10.0
 50
90.0
 51
180.0
  0
LINE
  8
DETAIL
  6
CONTINUOUS
 62
     5
 10
-149.0
 20
162.999998
 30
0.0
 11
-164.5
 21
162.999998
 31
0.0
  0
LINE
  8
DETAIL
  6
CONTINUOUS
 62
     5
 10
-163.8
 20
-77.000002
 30
0.0
 11
-163.8
 21
162.999998
 31
0.0
  0
LINE
  8
DETAIL
  6
CONTINUOUS
 62
     5
 10
-195.0
 20
-77.000002
 30
0.0
 11
-195.0
 21
184.999998
 31
0.0
  0
LINE
  8
DETAIL
  6
CONTINUOUS
 62
     5
 10
-165.0
 20
194.999998
 30
0.0
 11
-185.0
 21
194.999998
 31
0.0
  0
LINE
  8
DETAIL
  6
CONTINUOUS
 62
     5
 10
-164.5
 20
162.999998
 30
0.0
 11
-164.5
 21
164.999998
 31
0.0
  0
LINE
  8
DETAIL
  6
CONTINUOUS
 62
     5
 10
-149.0
 20
-77.000002
 30
0.0
 11
-149.0
 21
162.999998
 31
0.0
  0
LINE
  8
DETAIL
  6
CONTINUOUS
 62
     5
 10
-133.75
 20
148.999998
 30
0.0
 11
-133.75
 21
146.499998
 31
0.0
  0
LINE
  8
DETAIL
  6
CONTINUOUS
 62
     5
 10
-149.0
 20
146.999998
 30
0.0
 11
-149.0
 21
135.749998
 31
0.0
  0
LINE
  8
DETAIL
  6
CONTINUOUS
 62
     5
 10
-135.75
 20
146.499998
 30
0.0
 11
-135.75
 21
148.999998
 31
0.0
  0
LINE
  8
DETAIL
  6
CONTINUOUS
 62
     5
 10
-146.5
 20
133.749998
 30
0.0
 11
-149.0
 21
133.749998
 31
0.0
  0
LINE
  8
DETAIL
  6
CONTINUOUS
 62
     5
 10
-149.0
 20
135.749998
 30
0.0
 11
-146.5
 21
135.749998
 31
0.0
  0
LINE
  8
DETAIL
  6
CONTINUOUS
 62
     5
 10
-135.75
 20
148.999998
 30
0.0
 11
-147.0
 21
148.999998
 31
0.0
  0
LINE
  8
DETAIL
  6
CONTINUOUS
 62
     5
 10
-95.473773
 20
148.999998
 30
0.0
 11
-142.964466
 21
101.464464
 31
0.0
  0
LINE
  8
DETAIL
  6
CONTINUOUS
 62
     5
 10
-149.0
 20
146.999998
 30
0.0
 11
-147.0
 21
148.999998
 31
0.0
  0
ARC
  8
DETAIL
  6
CONTINUOUS
 62
     5
 10
-134.75
 20
146.499998
 30
0.0
 40
1.0
 50
180.0
 51
0.0
  0
ARC
  8
DETAIL
  6
CONTINUOUS
 62
     5
 10
-146.5
 20
134.749998
 30
0.0
 40
1.0
 50
270.0
 51
90.0
  0
LINE
  8
DETAIL
  6
CONTINUOUS
 62
     5
 10
-141.732412
 20
135.934134
 30
0.0
 11
-144.065864
 21
138.267586
 31
0.0
  0
LINE
  8
DETAIL
  6
CONTINUOUS
 62
     5
 10
-135.934136
 20
141.73241
 30
0.0
 11
-138.267588
 21
144.065862
 31
0.0
  0
ARC
  8
DETAIL
  6
CONTINUOUS
 62
     5
 10
-138.833274
 20
138.833272
 30
0.0
 40
4.1
 50
225.0
 51
45.0
  0
ARC
  8
DETAIL
  6
CONTINUOUS
 62
     5
 10
-141.166726
 20
141.166724
 30
0.0
 40
4.1
 50
45.0
 51
225.0
  0
LINE
  8
DETAIL
  6
CONTINUOUS
 62
     5
 10
-133.75
 20
146.499998
 30
0.0
 11
-133.75
 21
148.999998
 31
0.0
  0
LINE
  8
DETAIL
  6
CONTINUOUS
 62
     5
 10
-135.75
 20
148.999998
 30
0.0
 11
-135.75
 21
146.499998
 31
0.0
  0
LINE
  8
DETAIL
  6
CONTINUOUS
 62
     5
 10
-135.75
 20
148.999998
 30
0.0
 11
-147.0
 21
148.999998
 31
0.0
  0
LINE
  8
DETAIL
  6
CONTINUOUS
 62
     5
 10
-146.5
 20
135.749998
 30
0.0
 11
-149.0
 21
135.749998
 31
0.0
  0
LINE
  8
DETAIL
  6
CONTINUOUS
 62
     5
 10
-149.0
 20
135.749998
 30
0.0
 11
-149.0
 21
146.999998
 31
0.0
  0
LINE
  8
DETAIL
  6
CONTINUOUS
 62
     5
 10
-147.0
 20
148.999998
 30
0.0
 11
-149.0
 21
146.999998
 31
0.0
  0
ARC
  8
DETAIL
  6
CONTINUOUS
 62
     5
 10
-134.75
 20
146.499998
 30
0.0
 40
1.0
 50
180.0
 51
0.0
  0
LINE
  8
DETAIL
  6
CONTINUOUS
 62
     5
 10
-149.0
 20
95.441481
 30
0.0
 11
-95.473773
 21
148.999998
 31
0.0
  0
ARC
  8
DETAIL
  6
CONTINUOUS
 62
     5
 10
-146.5
 20
134.749998
 30
0.0
 40
1.0
 50
270.0
 51
90.0
  0
LINE
  8
DETAIL
  6
CONTINUOUS
 62
     5
 10
-149.0
 20
133.749998
 30
0.0
 11
-146.5
 21
133.749998
 31
0.0
  0
CIRCLE
  8
DETAIL
  6
CONTINUOUS
 62
     5
 10
-140.0
 20
139.999998
 30
0.0
 40
4.0
  0
LINE
  8
DETAIL
  6
CONTINUOUS
 62
     5
 10
-144.880415
 20
139.429337
 30
0.0
 11
-143.986954
 21
140.322798
 31
0.0
  0
LINE
  8
DETAIL
  6
CONTINUOUS
 62
     5
 10
-139.429339
 20
144.880413
 30
0.0
 11
-140.3228
 21
143.986952
 31
0.0
  0
LINE
  8
DETAIL
  6
CONTINUOUS
 62
     5
 10
-133.75
 20
146.82178
 30
0.0
 11
-135.75
 21
146.82178
 31
0.0
  0
LINE
  8
DETAIL
  6
CONTINUOUS
 62
     5
 10
-146.821782
 20
133.749998
 30
0.0
 11
-146.821782
 21
135.749998
 31
0.0
  0
LINE
  8
DETAIL
  6
CONTINUOUS
 62
     5
 10
0.0
 20
147.999998
 30
0.0
 11
-96.475857
 21
147.999998
 31
0.0
  0
LINE
  8
DETAIL
  6
CONTINUOUS
 62
     5
 10
-148.0
 20
96.442085
 30
0.0
 11
-148.0
 21
-77.000002
 31
0.0
  0
LINE
  8
DETAIL
  6
CONTINUOUS
 62
     5
 10
-135.5
 20
-148.5
 30
0.0
 11
-135.75
 21
-148.5
 31
0.0
  0
LINE
  8
DETAIL
  6
CONTINUOUS
 62
     5
 10
-148.5
 20
-148.5
 30
0.0
 11
-147.5
 21
-148.5
 31
0.0
  0
ARC
  8
DETAIL
  6
CONTINUOUS
 62
     5
 10
-148.5
 20
-147.5
 30
0.0
 40
1.0
 50
240.0
 51
270.0
  0
LINE
  8
DETAIL
  6
CONTINUOUS
 62
     5
 10
-135.5
 20
-149.0
 30
0.0
 11
-135.5
 21
-148.5
 31
0.0
  0
ARC
  8
DETAIL
  6
CONTINUOUS
 62
     5
 10
-185.0
 20
-185.0
 30
0.0
 40
10.0
 50
180.0
 51
270.0
  0
LINE
  8
DETAIL
  6
CONTINUOUS
 62
     5
 10
-195.0
 20
-165.0
 30
0.0
 11
-195.0
 21
-185.0
 31
0.0
  0
LINE
  8
DETAIL
  6
CONTINUOUS
 62
     5
 10
-185.0
 20
-195.0
 30
0.0
 11
0.0
 21
-195.0
 31
0.0
  0
LINE
  8
DETAIL
  6
CONTINUOUS
 62
     5
 10
-195.0
 20
-165.0
 30
0.0
 11
-163.0
 21
-165.0
 31
0.0
  0
LINE
  8
DETAIL
  6
CONTINUOUS
 62
     5
 10
-163.0
 20
-163.8
 30
0.0
 11
0.0
 21
-163.8
 31
0.0
  0
LINE
  8
DETAIL
  6
CONTINUOUS
 62
     5
 10
-163.5
 20
-163.0
 30
0.0
 11
-149.0
 21
-163.0
 31
0.0
  0
LINE
  8
DETAIL
  6
CONTINUOUS
 62
     5
 10
-161.0
 20
-163.0
 30
0.0
 11
-161.0
 21
-163.8
 31
0.0
  0
LINE
  8
DETAIL
  6
CONTINUOUS
 62
     5
 10
-163.0
 20
-163.0
 30
0.0
 11
-163.0
 21
-165.0
 31
0.0
  0
LINE
  8
DETAIL
  6
CONTINUOUS
 62
     5
 10
-163.7
 20
-165.0
 30
0.0
 11
-163.7
 21
-195.0
 31
0.0
  0
LINE
  8
DETAIL
  6
CONTINUOUS
 62
     5
 10
-149.0
 20
-149.0
 30
0.0
 11
-149.0
 21
-163.8
 31
0.0
  0
LINE
  8
DETAIL
  6
CONTINUOUS
 62
     5
 10
-149.0
 20
-149.0
 30
0.0
 11
0.0
 21
-149.0
 31
0.0
  0
ARC
  8
DETAIL
  6
CONTINUOUS
 62
     5
 10
-185.0
 20
-185.0
 30
0.0
 40
10.0
 50
180.0
 51
270.0
  0
LINE
  8
DETAIL
  6
CONTINUOUS
 62
     5
 10
-149.0
 20
-163.0
 30
0.0
 11
-164.5
 21
-163.0
 31
0.0
  0
LINE
  8
DETAIL
  6
CONTINUOUS
 62
     5
 10
-163.8
 20
77.0
 30
0.0
 11
-163.8
 21
-163.0
 31
0.0
  0
LINE
  8
DETAIL
  6
CONTINUOUS
 62
     5
 10
-195.0
 20
77.0
 30
0.0
 11
-195.0
 21
-185.0
 31
0.0
  0
LINE
  8
DETAIL
  6
CONTINUOUS
 62
     5
 10
-165.0
 20
-195.0
 30
0.0
 11
-185.0
 21
-195.0
 31
0.0
  0
LINE
  8
DETAIL
  6
CONTINUOUS
 62
     5
 10
-164.5
 20
-163.0
 30
0.0
 11
-164.5
 21
-165.0
 31
0.0
  0
LINE
  8
DETAIL
  6
CONTINUOUS
 62
     5
 10
-149.0
 20
77.0
 30
0.0
 11
-149.0
 21
-163.0
 31
0.0
  0
LINE
  8
DETAIL
  6
CONTINUOUS
 62
     5
 10
-133.75
 20
-149.0
 30
0.0
 11
-133.75
 21
-146.5
 31
0.0
  0
LINE
  8
DETAIL
  6
CONTINUOUS
 62
     5
 10
-149.0
 20
-147.0
 30
0.0
 11
-149.0
 21
-135.75
 31
0.0
  0
LINE
  8
DETAIL
  6
CONTINUOUS
 62
     5
 10
-135.75
 20
-146.5
 30
0.0
 11
-135.75
 21
-149.0
 31
0.0
  0
LINE
  8
DETAIL
  6
CONTINUOUS
 62
     5
 10
-146.5
 20
-133.75
 30
0.0
 11
-149.0
 21
-133.75
 31
0.0
  0
LINE
  8
DETAIL
  6
CONTINUOUS
 62
     5
 10
-149.0
 20
-135.75
 30
0.0
 11
-146.5
 21
-135.75
 31
0.0
  0
LINE
  8
DETAIL
  6
CONTINUOUS
 62
     5
 10
-135.75
 20
-149.0
 30
0.0
 11
-147.0
 21
-149.0
 31
0.0
  0
LINE
  8
DETAIL
  6
CONTINUOUS
 62
     5
 10
-95.428932
 20
-149.0
 30
0.0
 11
-142.964466
 21
-101.464466
 31
0.0
  0
LINE
  8
DETAIL
  6
CONTINUOUS
 62
     5
 10
-149.0
 20
-147.0
 30
0.0
 11
-147.0
 21
-149.0
 31
0.0
  0
ARC
  8
DETAIL
  6
CONTINUOUS
 62
     5
 10
-134.75
 20
-146.5
 30
0.0
 40
1.0
 50
0.0
 51
180.0
  0
ARC
  8
DETAIL
  6
CONTINUOUS
 62
     5
 10
-146.5
 20
-134.75
 30
0.0
 40
1.0
 50
270.0
 51
90.0
  0
LINE
  8
DETAIL
  6
CONTINUOUS
 62
     5
 10
-141.732412
 20
-135.934136
 30
0.0
 11
-144.065864
 21
-138.267588
 31
0.0
  0
LINE
  8
DETAIL
  6
CONTINUOUS
 62
     5
 10
-135.934136
 20
-141.732412
 30
0.0
 11
-138.267588
 21
-144.065864
 31
0.0
  0
ARC
  8
DETAIL
  6
CONTINUOUS
 62
     5
 10
-138.833274
 20
-138.833274
 30
0.0
 40
4.1
 50
315.0
 51
135.0
  0
ARC
  8
DETAIL
  6
CONTINUOUS
 62
     5
 10
-141.166726
 20
-141.166726
 30
0.0
 40
4.1
 50
135.0
 51
315.0
  0
LINE
  8
DETAIL
  6
CONTINUOUS
 62
     5
 10
-133.75
 20
-146.5
 30
0.0
 11
-133.75
 21
-149.0
 31
0.0
  0
LINE
  8
DETAIL
  6
CONTINUOUS
 62
     5
 10
-135.75
 20
-149.0
 30
0.0
 11
-135.75
 21
-146.5
 31
0.0
  0
LINE
  8
DETAIL
  6
CONTINUOUS
 62
     5
 10
-135.75
 20
-149.0
 30
0.0
 11
-147.0
 21
-149.0
 31
0.0
  0
LINE
  8
DETAIL
  6
CONTINUOUS
 62
     5
 10
-146.5
 20
-135.75
 30
0.0
 11
-149.0
 21
-135.75
 31
0.0
  0
LINE
  8
DETAIL
  6
CONTINUOUS
 62
     5
 10
-149.0
 20
-135.75
 30
0.0
 11
-149.0
 21
-147.0
 31
0.0
  0
LINE
  8
DETAIL
  6
CONTINUOUS
 62
     5
 10
-147.0
 20
-149.0
 30
0.0
 11
-149.0
 21
-147.0
 31
0.0
  0
ARC
  8
DETAIL
  6
CONTINUOUS
 62
     5
 10
-134.75
 20
-146.5
 30
0.0
 40
1.0
 50
0.0
 51
180.0
  0
LINE
  8
DETAIL
  6
CONTINUOUS
 62
     5
 10
-149.0
 20
-95.428932
 30
0.0
 11
-95.428932
 21
-149.0
 31
0.0
  0
ARC
  8
DETAIL
  6
CONTINUOUS
 62
     5
 10
-146.5
 20
-134.75
 30
0.0
 40
1.0
 50
270.0
 51
90.0
  0
LINE
  8
DETAIL
  6
CONTINUOUS
 62
     5
 10
-149.0
 20
-133.75
 30
0.0
 11
-146.5
 21
-133.75
 31
0.0
  0
CIRCLE
  8
DETAIL
  6
CONTINUOUS
 62
     5
 10
-140.0
 20
-140.0
 30
0.0
 40
4.0
  0
LINE
  8
DETAIL
  6
CONTINUOUS
 62
     5
 10
-144.880415
 20
-139.429339
 30
0.0
 11
-143.986954
 21
-140.3228
 31
0.0
  0
LINE
  8
DETAIL
  6
CONTINUOUS
 62
     5
 10
-139.429339
 20
-144.880415
 30
0.0
 11
-140.3228
 21
-143.986954
 31
0.0
  0
LINE
  8
DETAIL
  6
CONTINUOUS
 62
     5
 10
-133.75
 20
-146.821782
 30
0.0
 11
-135.75
 21
-146.821782
 31
0.0
  0
LINE
  8
DETAIL
  6
CONTINUOUS
 62
     5
 10
-146.821782
 20
-133.75
 30
0.0
 11
-146.821782
 21
-135.75
 31
0.0
  0
LINE
  8
DETAIL
  6
CONTINUOUS
 62
     5
 10
0.0
 20
-148.0
 30
0.0
 11
-96.428932
 21
-148.0
 31
0.0
  0
LINE
  8
DETAIL
  6
CONTINUOUS
 62
     5
 10
-148.0
 20
-173.428932
 30
0.0
 11
-148.0
 21
0.0
 31
0.0
  0
LINE
  8
NOTE
  6
CONTINUOUS
 62
     4
 10
-180.0
 20
159.999998
 30
0.0
 11
-180.0
 21
199.999998
 31
0.0
  0
LINE
  8
NOTE
  6
CONTINUOUS
 62
     4
 10
-160.0
 20
179.999998
 30
0.0
 11
-200.0
 21
179.999998
 31
0.0
  0
LINE
  8
NOTE
  6
CONTINUOUS
 62
     4
 10
-180.0
 20
-200.0
 30
0.0
 11
-180.0
 21
-160.0
 31
0.0
  0
LINE
  8
NOTE
  6
CONTINUOUS
 62
     4
 10
-160.0
 20
-180.0
 30
0.0
 11
-200.0
 21
-180.0
 31
0.0
  0
LINE
  8
NOTE
  6
CONTINUOUS
 62
     4
 10
-140.0
 20
119.999998
 30
0.0
 11
-140.0
 21
159.999998
 31
0.0
  0
LINE
  8
NOTE
  6
CONTINUOUS
 62
     4
 10
-120.0
 20
139.999998
 30
0.0
 11
-160.0
 21
139.999998
 31
0.0
  0
LINE
  8
NOTE
  6
CONTINUOUS
 62
     4
 10
-140.0
 20
-160.0
 30
0.0
 11
-140.0
 21
-120.0
 31
0.0
  0
LINE
  8
NOTE
  6
CONTINUOUS
 62
     4
 10
-120.0
 20
-140.0
 30
0.0
 11
-160.0
 21
-140.0
 31
0.0
  0
CIRCLE
  8
FIX
  6
CONTINUOUS
 62
    11
 39
50.0
 10
-140.0
 20
-140.0
 30
0.0
 40
4.0
  0
CIRCLE
  8
FIX
  6
CONTINUOUS
 62
    11
 39
50.0
 10
-140.0
 20
139.999998
 30
0.0
 40
4.0
  0
ARC
  8
OUTLINE
  6
CONTINUOUS
 62
     3
 10
-185.0
 20
184.999998
 30
0.0
 40
10.0
 50
90.0
 51
180.0
  0
LINE
  8
OUTLINE
  6
CONTINUOUS
 62
     3
 10
-195.0
 20
164.999998
 30
0.0
 11
-195.0
 21
184.999998
 31
0.0
  0
LINE
  8
OUTLINE
  6
CONTINUOUS
 62
     3
 10
-185.0
 20
194.999998
 30
0.0
 11
0.0
 21
194.999998
 31
0.0
  0
ARC
  8
OUTLINE
  6
CONTINUOUS
 62
     3
 10
-185.0
 20
184.999998
 30
0.0
 40
10.0
 50
90.0
 51
180.0
  0
LINE
  8
OUTLINE
  6
CONTINUOUS
 62
     3
 10
-195.0
 20
-77.000002
 30
0.0
 11
-195.0
 21
184.999998
 31
0.0
  0
LINE
  8
OUTLINE
  6
CONTINUOUS
 62
     3
 10
-165.0
 20
194.999998
 30
0.0
 11
-185.0
 21
194.999998
 31
0.0
  0
ARC
  8
OUTLINE
  6
CONTINUOUS
 62
     3
 10
-185.0
 20
-185.0
 30
0.0
 40
10.0
 50
180.0
 51
270.0
  0
LINE
  8
OUTLINE
  6
CONTINUOUS
 62
     3
 10
-195.0
 20
-165.0
 30
0.0
 11
-195.0
 21
-185.0
 31
0.0
  0
LINE
  8
OUTLINE
  6
CONTINUOUS
 62
     3
 10
-185.0
 20
-195.0
 30
0.0
 11
0.0
 21
-195.0
 31
0.0
  0
ARC
  8
OUTLINE
  6
CONTINUOUS
 62
     3
 10
-185.0
 20
-185.0
 30
0.0
 40
10.0
 50
180.0
 51
270.0
  0
LINE
  8
OUTLINE
  6
CONTINUOUS
 62
     3
 10
-195.0
 20
77.0
 30
0.0
 11
-195.0
 21
-185.0
 31
0.0
  0
LINE
  8
OUTLINE
  6
CONTINUOUS
 62
     3
 10
-165.0
 20
-195.0
 30
0.0
 11
-185.0
 21
-195.0
 31
0.0
  0
CIRCLE
  8
DETAIL
  6
CONTINUOUS
 62
     5
 39
31.25
 10
-180.0
 20
-180.0
 30
0.0
 40
5.0
  0
CIRCLE
  8
DETAIL
  6
CONTINUOUS
 62
     5
 39
31.25
 10
-180.0
 20
179.999998
 30
0.0
 40
5.0
  0
CIRCLE
  8
FIX
  6
CONTINUOUS
 62
    11
 39
31.25
 10
-180.0
 20
179.999998
 30
0.0
 40
5.0
  0
CIRCLE
  8
FIX
  6
CONTINUOUS
 62
    11
 39
31.25
 10
-180.0
 20
-180.0
 30
0.0
 40
5.0
  0
LINE
  8
SIZE
  6
CONTINUOUS
 62
    30
 10
-180.0
 20
214.999998
 30
0.0
 11
-180.0
 21
448.776607
 31
0.0
  0
LINE
  8
SIZE
  6
CONTINUOUS
 62
    30
 10
180.0
 20
219.999998
 30
0.0
 11
180.0
 21
448.776607
 31
0.0
  0
LINE
  8
SIZE
  6
CONTINUOUS
 62
    30
 10
-168.0
 20
428.776607
 30
0.0
 11
168.0
 21
428.776607
 31
0.0
  0
CIRCLE
  8
SIZE
  6
CONTINUOUS
 62
    30
 10
-180.0
 20
428.776607
 30
0.0
 40
6.0
  0
LINE
  8
SIZE
  6
CONTINUOUS
 62
    30
 10
-180.0
 20
428.776607
 30
0.0
 11
-168.0
 21
428.776607
 31
0.0
  0
CIRCLE
  8
SIZE
  6
CONTINUOUS
 62
    30
 10
180.0
 20
428.776607
 30
0.0
 40
6.0
  0
LINE
  8
SIZE
  6
CONTINUOUS
 62
    30
 10
180.0
 20
428.776607
 30
0.0
 11
168.0
 21
428.776607
 31
0.0
  0
TEXT
  8
SIZE
  6
CONTINUOUS
 62
    30
 10
-80.928
 20
453.776607
 30
0.0
 40
64.0
  1
360
 50
0.0
 41
0.9
 51
0.0
  7
STANDARD
 71
     0
 72
     1
 11
0.0
 21
453.776607
 31
0.0
210
0.0
220
0.0
230
1.0
  0
POINT
  8
DEFPOINTS
  6
CONTINUOUS
 62
    30
 10
-180.0
 20
194.999998
 30
0.0
  0
POINT
  8
DEFPOINTS
  6
CONTINUOUS
 62
    30
 10
180.0
 20
199.999998
 30
0.0
  0
POINT
  8
DEFPOINTS
  6
CONTINUOUS
 62
    30
 10
180.0
 20
428.776607
 30
0.0
  0
LINE
  8
SIZE
  6
CONTINUOUS
 62
    30
 10
-195.0
 20
204.999998
 30
0.0
 11
-195.0
 21
582.618846
 31
0.0
  0
LINE
  8
SIZE
  6
CONTINUOUS
 62
    30
 10
195.0
 20
204.999998
 30
0.0
 11
195.0
 21
582.618846
 31
0.0
  0
LINE
  8
SIZE
  6
CONTINUOUS
 62
    30
 10
-183.0
 20
562.618846
 30
0.0
 11
183.0
 21
562.618846
 31
0.0
  0
CIRCLE
  8
SIZE
  6
CONTINUOUS
 62
    30
 10
-195.0
 20
562.618846
 30
0.0
 40
6.0
  0
LINE
  8
SIZE
  6
CONTINUOUS
 62
    30
 10
-195.0
 20
562.618846
 30
0.0
 11
-183.0
 21
562.618846
 31
0.0
  0
CIRCLE
  8
SIZE
  6
CONTINUOUS
 62
    30
 10
195.0
 20
562.618846
 30
0.0
 40
6.0
  0
LINE
  8
SIZE
  6
CONTINUOUS
 62
    30
 10
195.0
 20
562.618846
 30
0.0
 11
183.0
 21
562.618846
 31
0.0
  0
TEXT
  8
SIZE
  6
CONTINUOUS
 62
    30
 10
-80.928
 20
587.618846
 30
0.0
 40
64.0
  1
390
 50
0.0
 41
0.9
 51
0.0
  7
STANDARD
 71
     0
 72
     1
 11
0.0
 21
587.618846
 31
0.0
210
0.0
220
0.0
230
1.0
  0
POINT
  8
DEFPOINTS
  6
CONTINUOUS
 62
    30
 10
-195.0
 20
184.999998
 30
0.0
  0
POINT
  8
DEFPOINTS
  6
CONTINUOUS
 62
    30
 10
195.0
 20
184.999998
 30
0.0
  0
POINT
  8
DEFPOINTS
  6
CONTINUOUS
 62
    30
 10
195.0
 20
562.618846
 30
0.0
  0
LINE
  8
SIZE
  6
CONTINUOUS
 62
    30
 10
-140.0
 20
179.999998
 30
0.0
 11
-140.0
 21
339.454802
 31
0.0
  0
LINE
  8
SIZE
  6
CONTINUOUS
 62
    30
 10
140.0
 20
179.999998
 30
0.0
 11
140.0
 21
339.454802
 31
0.0
  0
LINE
  8
SIZE
  6
CONTINUOUS
 62
    30
 10
-128.0
 20
319.454802
 30
0.0
 11
128.0
 21
319.454802
 31
0.0
  0
CIRCLE
  8
SIZE
  6
CONTINUOUS
 62
    30
 10
-140.0
 20
319.454802
 30
0.0
 40
6.0
  0
LINE
  8
SIZE
  6
CONTINUOUS
 62
    30
 10
-140.0
 20
319.454802
 30
0.0
 11
-128.0
 21
319.454802
 31
0.0
  0
CIRCLE
  8
SIZE
  6
CONTINUOUS
 62
    30
 10
140.0
 20
319.454802
 30
0.0
 40
6.0
  0
LINE
  8
SIZE
  6
CONTINUOUS
 62
    30
 10
140.0
 20
319.454802
 30
0.0
 11
128.0
 21
319.454802
 31
0.0
  0
TEXT
  8
SIZE
  6
CONTINUOUS
 62
    30
 10
-80.928
 20
344.454802
 30
0.0
 40
64.0
  1
280
 50
0.0
 41
0.9
 51
0.0
  7
STANDARD
 71
     0
 72
     1
 11
0.0
 21
344.454802
 31
0.0
210
0.0
220
0.0
230
1.0
  0
POINT
  8
DEFPOINTS
  6
CONTINUOUS
 62
    30
 10
-140.0
 20
159.999998
 30
0.0
  0
POINT
  8
DEFPOINTS
  6
CONTINUOUS
 62
    30
 10
140.0
 20
159.999998
 30
0.0
  0
POINT
  8
DEFPOINTS
  6
CONTINUOUS
 62
    30
 10
140.0
 20
319.454802
 30
0.0
  0
LINE
  8
SIZE
  6
CONTINUOUS
 62
    30
 10
-200.0
 20
194.999998
 30
0.0
 11
-588.670742
 21
194.999998
 31
0.0
  0
LINE
  8
SIZE
  6
CONTINUOUS
 62
    30
 10
-205.0
 20
-195.0
 30
0.0
 11
-588.670742
 21
-195.0
 31
0.0
  0
LINE
  8
SIZE
  6
CONTINUOUS
 62
    30
 10
-568.670742
 20
182.999998
 30
0.0
 11
-568.670742
 21
-183.0
 31
0.0
  0
CIRCLE
  8
SIZE
  6
CONTINUOUS
 62
    30
 10
-568.670742
 20
194.999998
 30
0.0
 40
6.0
  0
LINE
  8
SIZE
  6
CONTINUOUS
 62
    30
 10
-568.670742
 20
194.999998
 30
0.0
 11
-568.670742
 21
182.999998
 31
0.0
  0
CIRCLE
  8
SIZE
  6
CONTINUOUS
 62
    30
 10
-568.670742
 20
-195.0
 30
0.0
 40
6.0
  0
LINE
  8
SIZE
  6
CONTINUOUS
 62
    30
 10
-568.670742
 20
-195.0
 30
0.0
 11
-568.670742
 21
-183.0
 31
0.0
  0
TEXT
  8
SIZE
  6
CONTINUOUS
 62
    30
 10
-593.670742
 20
-80.928001
 30
0.0
 40
64.0
  1
390
 50
90.0
 41
0.9
 51
0.0
  7
STANDARD
 71
     0
 72
     1
 11
-593.670742
 21
-0.000001
 31
0.0
210
0.0
220
0.0
230
1.0
  0
POINT
  8
DEFPOINTS
  6
CONTINUOUS
 62
    30
 10
-180.0
 20
194.999998
 30
0.0
  0
POINT
  8
DEFPOINTS
  6
CONTINUOUS
 62
    30
 10
-185.0
 20
-195.0
 30
0.0
  0
POINT
  8
DEFPOINTS
  6
CONTINUOUS
 62
    30
 10
-568.670742
 20
-195.0
 30
0.0
  0
LINE
  8
SIZE
  6
CONTINUOUS
 62
    30
 10
-220.0
 20
179.999998
 30
0.0
 11
-456.076607
 21
179.999998
 31
0.0
  0
LINE
  8
SIZE
  6
CONTINUOUS
 62
    30
 10
-220.0
 20
-180.0
 30
0.0
 11
-456.076607
 21
-180.0
 31
0.0
  0
LINE
  8
SIZE
  6
CONTINUOUS
 62
    30
 10
-436.076607
 20
167.999998
 30
0.0
 11
-436.076607
 21
-168.0
 31
0.0
  0
CIRCLE
  8
SIZE
  6
CONTINUOUS
 62
    30
 10
-436.076607
 20
179.999998
 30
0.0
 40
6.0
  0
LINE
  8
SIZE
  6
CONTINUOUS
 62
    30
 10
-436.076607
 20
179.999998
 30
0.0
 11
-436.076607
 21
167.999998
 31
0.0
  0
CIRCLE
  8
SIZE
  6
CONTINUOUS
 62
    30
 10
-436.076607
 20
-180.0
 30
0.0
 40
6.0
  0
LINE
  8
SIZE
  6
CONTINUOUS
 62
    30
 10
-436.076607
 20
-180.0
 30
0.0
 11
-436.076607
 21
-168.0
 31
0.0
  0
TEXT
  8
SIZE
  6
CONTINUOUS
 62
    30
 10
-461.076607
 20
-80.928001
 30
0.0
 40
64.0
  1
360
 50
90.0
 41
0.9
 51
0.0
  7
STANDARD
 71
     0
 72
     1
 11
-461.076607
 21
-0.000001
 31
0.0
210
0.0
220
0.0
230
1.0
  0
POINT
  8
DEFPOINTS
  6
CONTINUOUS
 62
    30
 10
-200.0
 20
179.999998
 30
0.0
  0
POINT
  8
DEFPOINTS
  6
CONTINUOUS
 62
    30
 10
-200.0
 20
-180.0
 30
0.0
  0
POINT
  8
DEFPOINTS
  6
CONTINUOUS
 62
    30
 10
-436.076607
 20
-180.0
 30
0.0
  0
LINE
  8
SIZE
  6
CONTINUOUS
 62
    30
 10
-180.0
 20
139.999998
 30
0.0
 11
-334.792969
 21
139.999998
 31
0.0
  0
LINE
  8
SIZE
  6
CONTINUOUS
 62
    30
 10
-180.0
 20
-140.0
 30
0.0
 11
-334.792969
 21
-140.0
 31
0.0
  0
LINE
  8
SIZE
  6
CONTINUOUS
 62
    30
 10
-314.792969
 20
127.999998
 30
0.0
 11
-314.792969
 21
-128.0
 31
0.0
  0
CIRCLE
  8
SIZE
  6
CONTINUOUS
 62
    30
 10
-314.792969
 20
139.999998
 30
0.0
 40
6.0
  0
LINE
  8
SIZE
  6
CONTINUOUS
 62
    30
 10
-314.792969
 20
139.999998
 30
0.0
 11
-314.792969
 21
127.999998
 31
0.0
  0
CIRCLE
  8
SIZE
  6
CONTINUOUS
 62
    30
 10
-314.792969
 20
-140.0
 30
0.0
 40
6.0
  0
LINE
  8
SIZE
  6
CONTINUOUS
 62
    30
 10
-314.792969
 20
-140.0
 30
0.0
 11
-314.792969
 21
-128.0
 31
0.0
  0
TEXT
  8
SIZE
  6
CONTINUOUS
 62
    30
 10
-339.792969
 20
-80.928001
 30
0.0
 40
64.0
  1
280
 50
90.0
 41
0.9
 51
0.0
  7
STANDARD
 71
     0
 72
     1
 11
-339.792969
 21
-0.000001
 31
0.0
210
0.0
220
0.0
230
1.0
  0
POINT
  8
DEFPOINTS
  6
CONTINUOUS
 62
    30
 10
-160.0
 20
139.999998
 30
0.0
  0
POINT
  8
DEFPOINTS
  6
CONTINUOUS
 62
    30
 10
-160.0
 20
-140.0
 30
0.0
  0
POINT
  8
DEFPOINTS
  6
CONTINUOUS
 62
    30
 10
-314.792969
 20
-140.0
 30
0.0
  0
LINE
  8
SIZE
  6
CONTINUOUS
 62
    30
 10
-85.155102
 20
147.999998
 30
0.0
 11
-94.5
 21
147.999998
 31
0.0
  0
LINE
  8
SIZE
  6
CONTINUOUS
 62
    30
 10
-65.155102
 20
-148.0
 30
0.0
 11
-54.5
 21
-148.0
 31
0.0
  0
LINE
  8
SIZE
  6
CONTINUOUS
 62
    30
 10
-74.5
 20
135.999998
 30
0.0
 11
-74.5
 21
-136.0
 31
0.0
  0
CIRCLE
  8
SIZE
  6
CONTINUOUS
 62
    30
 10
-74.5
 20
147.999998
 30
0.0
 40
6.0
  0
LINE
  8
SIZE
  6
CONTINUOUS
 62
    30
 10
-74.5
 20
147.999998
 30
0.0
 11
-74.5
 21
135.999998
 31
0.0
  0
CIRCLE
  8
SIZE
  6
CONTINUOUS
 62
    30
 10
-74.5
 20
-148.0
 30
0.0
 40
6.0
  0
LINE
  8
SIZE
  6
CONTINUOUS
 62
    30
 10
-74.5
 20
-148.0
 30
0.0
 11
-74.5
 21
-136.0
 31
0.0
  0
TEXT
  8
SIZE
  6
CONTINUOUS
 62
    30
 10
-99.5
 20
-80.352001
 30
0.0
 40
64.0
  1
296
 50
90.0
 41
0.9
 51
0.0
  7
STANDARD
 71
     0
 72
     1
 11
-99.5
 21
-0.000001
 31
0.0
210
0.0
220
0.0
230
1.0
  0
POINT
  8
DEFPOINTS
  6
CONTINUOUS
 62
    30
 10
-65.155102
 20
147.999998
 30
0.0
  0
POINT
  8
DEFPOINTS
  6
CONTINUOUS
 62
    30
 10
-85.155102
 20
-148.0
 30
0.0
  0
POINT
  8
DEFPOINTS
  6
CONTINUOUS
 62
    30
 10
-74.5
 20
-148.0
 30
0.0
  0
LINE
  8
SIZE
  6
CONTINUOUS
 62
    30
 10
-148.0
 20
-106.714466
 30
0.0
 11
-148.0
 21
-160.0
 31
0.0
  0
LINE
  8
SIZE
  6
CONTINUOUS
 62
    30
 10
148.0
 20
-106.714466
 30
0.0
 11
148.0
 21
-160.0
 31
0.0
  0
LINE
  8
SIZE
  6
CONTINUOUS
 62
    30
 10
-136.0
 20
-140.0
 30
0.0
 11
136.0
 21
-140.0
 31
0.0
  0
CIRCLE
  8
SIZE
  6
CONTINUOUS
 62
    30
 10
-148.0
 20
-140.0
 30
0.0
 40
6.0
  0
LINE
  8
SIZE
  6
CONTINUOUS
 62
    30
 10
-148.0
 20
-140.0
 30
0.0
 11
-136.0
 21
-140.0
 31
0.0
  0
CIRCLE
  8
SIZE
  6
CONTINUOUS
 62
    30
 10
148.0
 20
-140.0
 30
0.0
 40
6.0
  0
LINE
  8
SIZE
  6
CONTINUOUS
 62
    30
 10
148.0
 20
-140.0
 30
0.0
 11
136.0
 21
-140.0
 31
0.0
  0
TEXT
  8
SIZE
  6
CONTINUOUS
 62
    30
 10
-80.352
 20
-115.0
 30
0.0
 40
64.0
  1
296
 50
0.0
 41
0.9
 51
0.0
  7
STANDARD
 71
     0
 72
     1
 11
0.0
 21
-115.0
 31
0.0
210
0.0
220
0.0
230
1.0
  0
POINT
  8
DEFPOINTS
  6
CONTINUOUS
 62
    30
 10
-148.0
 20
-86.714466
 30
0.0
  0
POINT
  8
DEFPOINTS
  6
CONTINUOUS
 62
    30
 10
148.0
 20
-86.714466
 30
0.0
  0
POINT
  8
DEFPOINTS
  6
CONTINUOUS
 62
    30
 10
148.0
 20
-140.0
 30
0.0
  0
LINE
  8
DETAIL
  6
DASHED
 62
     5
 39
50.0
 10
162.586927
 20
162.999998
 30
0.0
 11
162.757883
 21
-0.000001
 31
0.0
  0
LINE
  8
DETAIL
  6
DASHED
 62
     5
 39
50.0
 10
-163.0
 20
162.999998
 30
0.0
 11
-163.0
 21
0.0
 31
0.0
  0
LINE
  8
SIZE
  6
CONTINUOUS
 62
    30
 10
-163.0
 20
105.772742
 30
0.0
 11
-163.0
 21
141.468823
 31
0.0
  0
LINE
  8
SIZE
  6
CONTINUOUS
 62
    30
 10
163.0
 20
105.772742
 30
0.0
 11
163.0
 21
141.468823
 31
0.0
  0
LINE
  8
SIZE
  6
CONTINUOUS
 62
    30
 10
-151.0
 20
121.468823
 30
0.0
 11
151.0
 21
121.468823
 31
0.0
  0
LINE
  8
SIZE
  6
CONTINUOUS
 62
    30
 10
163.0
 20
121.468823
 30
0.0
 11
459.911998
 21
121.468823
 31
0.0
  0
CIRCLE
  8
SIZE
  6
CONTINUOUS
 62
    30
 10
-163.0
 20
121.468823
 30
0.0
 40
6.0
  0
LINE
  8
SIZE
  6
CONTINUOUS
 62
    30
 10
-163.0
 20
121.468823
 30
0.0
 11
-151.0
 21
121.468823
 31
0.0
  0
CIRCLE
  8
SIZE
  6
CONTINUOUS
 62
    30
 10
163.0
 20
121.468823
 30
0.0
 40
6.0
  0
LINE
  8
SIZE
  6
CONTINUOUS
 62
    30
 10
163.0
 20
121.468823
 30
0.0
 11
151.0
 21
121.468823
 31
0.0
  0
TEXT
  8
SIZE
  6
CONTINUOUS
 62
    30
 10
214.674284
 20
146.468823
 30
0.0
 40
64.0
  1
□326
 50
0.0
 41
0.9
 51
0.0
  7
STANDARD
 71
     0
 72
     1
 11
329.586284
 21
146.468823
 31
0.0
210
0.0
220
0.0
230
1.0
  0
POINT
  8
DEFPOINTS
  6
CONTINUOUS
 62
    30
 10
-163.0
 20
85.772742
 30
0.0
  0
POINT
  8
DEFPOINTS
  6
CONTINUOUS
 62
    30
 10
163.0
 20
85.772742
 30
0.0
  0
POINT
  8
DEFPOINTS
  6
CONTINUOUS
 62
    30
 10
163.0
 20
121.468823
 30
0.0
  0
LINE
  8
NOTE
  6
CONTINUOUS
 62
     4
 39
50.0
 10
276.51364
 20
-17.719657
 30
0.0
 11
561.582496
 21
-17.719657
 31
0.0
  0
ENDSEC
  0
EOF
