  0
SECTION
  2
HEADER
  9
$ACADVER
  1
AC1009
  9
$DWGCODEPAGE
  3
dos932
  9
$INSBASE
 10
0.0
 20
0.0
 30
0.0
  9
$EXTMIN
 10
-640.351851
 20
-257.308948
 30
-0.003052
  9
$EXTMAX
 10
609.988414
 20
686.050423
 30
50.003052
  9
$LIMMIN
 10
-2970.0
 20
-2100.0
  9
$LIMMAX
 10
2970.0
 20
2100.0
  9
$ORTHOMODE
 70
     1
  9
$REGENMODE
 70
     1
  9
$FILLMODE
 70
     1
  9
$QTEXTMODE
 70
     0
  9
$MIRRTEXT
 70
     0
  9
$DRAGMODE
 70
     2
  9
$LTSCALE
 40
20.0
  9
$OSMODE
 70
  3071
  9
$ATTMODE
 70
     1
  9
$TEXTSIZE
 40
64.0
  9
$TRACEWID
 40
0.05
  9
$TEXTSTYLE
  7
STANDARD
  9
$CLAYER
  8
SIZE
  9
$CELTYPE
  6
CONTINUOUS
  9
$CECOLOR
 62
     7
  9
$DIMSCALE
 40
1.0
  9
$DIMASZ
 40
12.0
  9
$DIMEXO
 40
20.0
  9
$DIMDLI
 40
200.0
  9
$DIMRND
 40
0.0
  9
$DIMDLE
 40
0.0
  9
$DIMEXE
 40
20.0
  9
$DIMTP
 40
0.0
  9
$DIMTM
 40
0.0
  9
$DIMTXT
 40
64.0
  9
$DIMCEN
 40
0.09
  9
$DIMTSZ
 40
0.0
  9
$DIMTOL
 70
     0
  9
$DIMLIM
 70
     0
  9
$DIMTIH
 70
     0
  9
$DIMTOH
 70
     0
  9
$DIMSE1
 70
     0
  9
$DIMSE2
 70
     0
  9
$DIMTAD
 70
     1
  9
$DIMZIN
 70
     8
  9
$DIMBLK
  1
DOT1
  9
$DIMASO
 70
     1
  9
$DIMSHO
 70
     0
  9
$DIMPOST
  1

  9
$DIMAPOST
  1

  9
$DIMALT
 70
     0
  9
$DIMALTD
 70
     2
  9
$DIMALTF
 40
25.4
  9
$DIMLFAC
 40
1.0
  9
$DIMTOFL
 70
     1
  9
$DIMTVP
 40
0.0
  9
$DIMTIX
 70
     1
  9
$DIMSOXD
 70
     0
  9
$DIMSAH
 70
     1
  9
$DIMBLK1
  1
_ORIGIN
  9
$DIMBLK2
  1
_ORIGIN
  9
$DIMSTYLE
  2
STANDARD
  9
$DIMCLRD
 70
     7
  9
$DIMCLRE
 70
     7
  9
$DIMCLRT
 70
     7
  9
$DIMTFAC
 40
1.0
  9
$DIMGAP
 40
25.0
  9
$LUNITS
 70
     2
  9
$LUPREC
 70
     4
  9
$SKETCHINC
 40
0.1
  9
$FILLETRAD
 40
3.0
  9
$AUNITS
 70
     1
  9
$AUPREC
 70
     3
  9
$MENU
  1
ACAD
  9
$ELEVATION
 40
0.0
  9
$PELEVATION
 40
0.0
  9
$THICKNESS
 40
50.0
  9
$LIMCHECK
 70
     0
  9
$BLIPMODE
 70
     0
  9
$CHAMFERA
 40
0.0
  9
$CHAMFERB
 40
0.0
  9
$SKPOLY
 70
     0
  9
$TDCREATE
 40
2453019.62301037
  9
$TDUPDATE
 40
2454529.588768773
  9
$TDINDWG
 40
1.2362311574
  9
$TDUSRTIMER
 40
1.2362311574
  9
$USRTIMER
 70
     1
  9
$ANGBASE
 50
0.0
  9
$ANGDIR
 70
     0
  9
$PDMODE
 70
     3
  9
$PDSIZE
 40
-2.0
  9
$PLINEWID
 40
0.0
  9
$COORDS
 70
     1
  9
$SPLFRAME
 70
     0
  9
$SPLINETYPE
 70
     6
  9
$SPLINESEGS
 70
     8
  9
$ATTDIA
 70
     1
  9
$ATTREQ
 70
     1
  9
$HANDLING
 70
     0
  9
$HANDSEED
  5
AE26
  9
$SURFTAB1
 70
     6
  9
$SURFTAB2
 70
     6
  9
$SURFTYPE
 70
     6
  9
$SURFU
 70
     6
  9
$SURFV
 70
     6
  9
$UCSNAME
  2

  9
$UCSORG
 10
0.0
 20
0.0
 30
0.0
  9
$UCSXDIR
 10
1.0
 20
0.0
 30
0.0
  9
$UCSYDIR
 10
0.0
 20
1.0
 30
0.0
  9
$PUCSNAME
  2

  9
$PUCSORG
 10
0.0
 20
0.0
 30
0.0
  9
$PUCSXDIR
 10
1.0
 20
0.0
 30
0.0
  9
$PUCSYDIR
 10
0.0
 20
1.0
 30
0.0
  9
$USERI1
 70
     0
  9
$USERI2
 70
     0
  9
$USERI3
 70
     0
  9
$USERI4
 70
     0
  9
$USERI5
 70
     0
  9
$USERR1
 40
20.0
  9
$USERR2
 40
0.0
  9
$USERR3
 40
0.0
  9
$USERR4
 40
0.0
  9
$USERR5
 40
0.0
  9
$WORLDVIEW
 70
     1
  9
$SHADEDGE
 70
     3
  9
$SHADEDIF
 70
    70
  9
$TILEMODE
 70
     1
  9
$MAXACTVP
 70
    48
  9
$PINSBASE
 10
0.0
 20
0.0
 30
0.0
  9
$PLIMCHECK
 70
     0
  9
$PEXTMIN
 10
-100000000000000000000.0
 20
-100000000000000000000.0
 30
-100000000000000000000.0
  9
$PEXTMAX
 10
100000000000000000000.0
 20
100000000000000000000.0
 30
100000000000000000000.0
  9
$PLIMMIN
 10
0.0
 20
0.0
  9
$PLIMMAX
 10
12.0
 20
9.0
  9
$UNITMODE
 70
     0
  9
$VISRETAIN
 70
     0
  9
$PLINEGEN
 70
     0
  9
$PSLTSCALE
 70
     0
  9
$TREEDEPTH
 70
  3020
  0
ENDSEC
  0
SECTION
  2
TABLES
  0
TABLE
  2
LTYPE
 70
     2
  0
LTYPE
  2
CONTINUOUS
 70
     0
  3
実線
 72
    65
 73
     0
 40
0.0
  0
LTYPE
  2
DASHDOT
 70
     0
  3
____ _ ____ _ ____ _ ____ _ ____ _ ____ _ ____
 72
    65
 73
     4
 40
5.5
 49
4.0
 49
-0.6
 49
0.3
 49
-0.6
  0
ENDTAB
  0
TABLE
  2
LAYER
 70
    12
  0
LAYER
  2
0
 70
     0
 62
     7
  6
CONTINUOUS
  0
LAYER
  2
BASIS
 70
     0
 62
     6
  6
DASHDOT
  0
LAYER
  2
OUTLINE
 70
     0
 62
     3
  6
CONTINUOUS
  0
LAYER
  2
DETAIL
 70
     0
 62
     5
  6
CONTINUOUS
  0
LAYER
  2
SIZE
 70
     0
 62
    30
  6
CONTINUOUS
  0
LAYER
  2
ARRANGE
 70
     0
 62
     1
  6
CONTINUOUS
  0
LAYER
  2
DEFPOINTS
 70
     0
 62
     7
  6
CONTINUOUS
  0
LAYER
  2
ETC
 70
     0
 62
    61
  6
CONTINUOUS
  0
LAYER
  2
FIX
 70
     0
 62
    11
  6
CONTINUOUS
  0
LAYER
  2
NOTE
 70
     0
 62
     4
  6
CONTINUOUS
  0
LAYER
  2
SERVICESPACE
 70
    64
 62
     2
  6
DASHDOT
  0
LAYER
  2
SYMBOLLINE
 70
    64
 62
    15
  6
CONTINUOUS
  0
ENDTAB
  0
TABLE
  2
STYLE
 70
     1
  0
STYLE
  2
STANDARD
 70
     0
 40
64.0
 41
0.9
 50
0.0
 71
     0
 42
64.0
  3
SIMPLEX.shx
  4
BIGFONT.shx
  0
ENDTAB
  0
TABLE
  2
APPID
 70
    13
  0
APPID
  2
ACAD
 70
     0
  0
APPID
  2
AUTOCAD_POSTSCRIPT_FIGURE
 70
     0
  0
APPID
  2
ACAD_EXEMPT_FROM_CAD_STANDARDS
 70
     0
  0
APPID
  2
ACAD_PSEXT
 70
     0
  0
APPID
  2
ACAUTHENVIRON
 70
     0
  0
APPID
  2
GENIUS_GENOENT_13
 70
     0
  0
APPID
  2
GENIUS_GENCFG_13
 70
     0
  0
APPID
  2
GENIUS_GENCFG0_13
 70
     0
  0
APPID
  2
GENIUS_GENCFG1_13
 70
     0
  0
APPID
  2
GENIUS_GENCFG2_13
 70
     0
  0
APPID
  2
GENIUS_GENCFG3_13
 70
     0
  0
APPID
  2
GENIUS_GENCFG4_13
 70
     0
  0
APPID
  2
GENIUS_GEVCFG0_13
 70
     0
  0
ENDTAB
  0
TABLE
  2
DIMSTYLE
 70
     1
  0
DIMSTYLE
  2
STANDARD
 70
     0
  3

  4

  5

  6

  7

 40
1.0
 41
0.18
 42
0.0625
 43
0.38
 44
0.18
 45
0.0
 46
0.0
 47
0.0
 48
0.0
140
0.18
141
0.09
142
0.0
143
25.4
144
1.0
145
0.0
146
1.0
147
0.09
 71
     0
 72
     0
 73
     1
 74
     1
 75
     0
 76
     0
 77
     0
 78
     0
170
     0
171
     2
172
     0
173
     0
174
     0
175
     0
176
     7
177
     7
178
     7
  0
ENDTAB
  0
TABLE
  2
VIEW
 70
     1
  0
VIEW
  2
ALL
 70
     0
 40
4282.619808
 10
0.0
 20
41.309904
 41
5940.0
 11
0.0
 21
0.0
 31
1.0
 12
0.0
 22
0.0
 32
0.0
 42
50.0
 43
0.0
 44
0.0
 50
0.0
 71
     0
  0
ENDTAB
  0
TABLE
  2
UCS
 70
     0
  0
ENDTAB
  0
TABLE
  2
VPORT
 70
     1
  0
VPORT
  2
*ACTIVE
 70
     0
 10
0.0
 20
0.0
 11
1.0
 21
1.0
 12
-15.181718
 22
214.370738
 13
0.0
 23
0.0
 14
1.0
 24
1.0
 15
0.0
 25
0.0
 16
0.0
 26
0.0
 36
1.0
 17
0.0
 27
0.0
 37
0.0
 40
954.545451
 41
1.754455
 42
50.0
 43
0.0
 44
0.0
 50
0.0
 51
0.0
 71
     0
 72
  1000
 73
     1
 74
     0
 75
     0
 76
     0
 77
     0
 78
     0
  0
ENDTAB
  0
ENDSEC
  0
SECTION
  2
BLOCKS
  0
BLOCK
  8
0
  2
DOT1
 70
     0
 10
0.0
 20
0.0
 30
0.0
  3
DOT1
  1

  0
CIRCLE
  8
SIZE
  6
CONTINUOUS
 62
     7
 10
0.0
 20
0.0
 30
0.0
 40
3.0
  0
ENDBLK
  8
0
  0
BLOCK
  8
0
  2
_ORIGIN
 70
     0
 10
0.0
 20
0.0
 30
0.0
  3
_ORIGIN
  1

  0
CIRCLE
  8
0
  6
CONTINUOUS
 62
     7
 10
0.0
 20
0.0
 30
0.0
 40
0.5
  0
LINE
  8
0
  6
CONTINUOUS
 62
     7
 10
0.0
 20
0.0
 30
0.0
 11
-1.0
 21
0.0
 31
0.0
  0
ENDBLK
  8
0
  0
ENDSEC
  0
SECTION
  2
ENTITIES
  0
TEXT
  8
ETC
  6
CONTINUOUS
 62
    61
 10
285.747996
 20
462.201183
 30
0.0
 40
40.0
  1
PS-20ZW3_3
 41
0.9
  0
TEXT
  8
ETC
  6
CONTINUOUS
 62
    61
 10
281.562002
 20
401.504904
 30
0.0
 40
40.0
  1
システム部材
 41
0.9
  0
TEXT
  8
ETC
  6
CONTINUOUS
 62
    61
 10
332.169504
 20
319.634794
 30
0.0
 40
40.0
  1
PS-20ZW3
 41
0.9
  0
CIRCLE
  8
ARRANGE
  6
CONTINUOUS
 62
     1
 10
0.0
 20
0.0
 30
0.0
 40
40.0
  0
LINE
  8
BASIS
  6
DASHDOT
 62
     6
 10
-257.743916
 20
0.0
 30
0.0
 11
257.743916
 21
0.0
 31
0.0
  0
LINE
  8
BASIS
  6
DASHDOT
 62
     6
 10
0.0
 20
257.10425
 30
0.0
 11
0.0
 21
-257.10425
 31
0.0
  0
POINT
  8
ARRANGE
  6
CONTINUOUS
 62
     1
 10
0.0
 20
0.0
 30
0.0
 39
50.0
  0
LINE
  8
DETAIL
  6
CONTINUOUS
 62
     5
 10
-153.2
 20
113.249999
 30
0.0
 11
-162.75
 21
113.249999
 31
0.0
  0
LINE
  8
DETAIL
  6
CONTINUOUS
 62
     5
 10
-153.2
 20
125.249999
 30
0.0
 11
-162.75
 21
125.249999
 31
0.0
  0
LINE
  8
DETAIL
  6
CONTINUOUS
 62
     5
 10
-149.5
 20
133.749999
 30
0.0
 11
-149.5
 21
148.499999
 31
0.0
  0
LINE
  8
DETAIL
  6
CONTINUOUS
 62
     5
 10
-150.5
 20
133.749999
 30
0.0
 11
-150.5
 21
148.499999
 31
0.0
  0
LINE
  8
DETAIL
  6
CONTINUOUS
 62
     5
 10
-133.75
 20
149.499999
 30
0.0
 11
-147.5
 21
149.499999
 31
0.0
  0
LINE
  8
DETAIL
  6
CONTINUOUS
 62
     5
 10
-105.0
 20
150.499999
 30
0.0
 11
-97.0
 21
150.499999
 31
0.0
  0
LINE
  8
DETAIL
  6
CONTINUOUS
 62
     5
 10
-150.5
 20
96.999999
 30
0.0
 11
-150.5
 21
104.999999
 31
0.0
  0
LINE
  8
DETAIL
  6
CONTINUOUS
 62
     5
 10
-149.5
 20
95.999999
 30
0.0
 11
-149.5
 21
104.999999
 31
0.0
  0
LINE
  8
DETAIL
  6
CONTINUOUS
 62
     5
 10
-152.0
 20
148.499999
 30
0.0
 11
-162.75
 21
148.499999
 31
0.0
  0
LINE
  8
DETAIL
  6
CONTINUOUS
 62
     5
 10
-96.0
 20
149.499999
 30
0.0
 11
-105.0
 21
149.499999
 31
0.0
  0
LINE
  8
DETAIL
  6
CONTINUOUS
 62
     5
 10
-147.5
 20
150.999999
 30
0.0
 11
-147.5
 21
150.499999
 31
0.0
  0
LINE
  8
BASIS
  6
DASHDOT
 62
     6
 10
0.0
 20
257.10425
 30
0.0
 11
0.0
 21
-257.10425
 31
0.0
  0
LINE
  8
DETAIL
  6
CONTINUOUS
 62
     5
 10
-148.5
 20
147.499999
 30
0.0
 11
-148.5
 21
148.499999
 31
0.0
  0
LINE
  8
DETAIL
  6
CONTINUOUS
 62
     5
 10
-149.5
 20
135.499999
 30
0.0
 11
-149.0
 21
135.499999
 31
0.0
  0
LINE
  8
DETAIL
  6
CONTINUOUS
 62
     5
 10
-149.5
 20
137.499999
 30
0.0
 11
-149.0
 21
137.499999
 31
0.0
  0
LINE
  8
DETAIL
  6
CONTINUOUS
 62
     5
 10
-147.5
 20
162.749999
 30
0.0
 11
-147.5
 21
152.999999
 31
0.0
  0
LINE
  8
DETAIL
  6
CONTINUOUS
 62
     5
 10
-148.5
 20
135.499999
 30
0.0
 11
-148.5
 21
135.749999
 31
0.0
  0
LINE
  8
DETAIL
  6
CONTINUOUS
 62
     5
 10
-150.5
 20
146.499999
 30
0.0
 11
-149.5
 21
146.499999
 31
0.0
  0
LINE
  8
DETAIL
  6
CONTINUOUS
 62
     5
 10
-149.5
 20
148.499999
 30
0.0
 11
-151.0
 21
148.499999
 31
0.0
  0
LINE
  8
DETAIL
  6
CONTINUOUS
 62
     5
 10
-147.5
 20
150.499999
 30
0.0
 11
-133.75
 21
150.499999
 31
0.0
  0
LINE
  8
DETAIL
  6
CONTINUOUS
 62
     5
 10
-162.75
 20
148.499999
 30
0.0
 11
-162.75
 21
125.249999
 31
0.0
  0
LINE
  8
DETAIL
  6
CONTINUOUS
 62
     5
 10
-162.75
 20
113.249999
 30
0.0
 11
-162.75
 21
-77.000001
 31
0.0
  0
LINE
  8
DETAIL
  6
CONTINUOUS
 62
     5
 10
77.0
 20
162.749999
 30
0.0
 11
-147.5
 21
162.749999
 31
0.0
  0
ARC
  8
DETAIL
  6
CONTINUOUS
 62
     5
 10
-147.5
 20
148.499999
 30
0.0
 40
1.0
 50
150.0
 51
180.0
  0
ARC
  8
DETAIL
  6
CONTINUOUS
 62
     5
 10
-147.5
 20
148.499999
 30
0.0
 40
2.0
 50
90.0
 51
180.0
  0
LINE
  8
DETAIL
  6
CONTINUOUS
 62
     5
 10
-149.0
 20
135.499999
 30
0.0
 11
-148.5
 21
135.499999
 31
0.0
  0
ARC
  8
DETAIL
  6
CONTINUOUS
 62
     5
 10
-147.5
 20
148.499999
 30
0.0
 40
1.0
 50
90.0
 51
150.0
  0
LINE
  8
BASIS
  6
DASHDOT
 62
     6
 10
0.0
 20
257.10425
 30
0.0
 11
0.0
 21
-257.10425
 31
0.0
  0
LINE
  8
DETAIL
  6
CONTINUOUS
 62
     5
 10
-95.5
 20
148.999999
 30
0.0
 11
-105.0
 21
148.999999
 31
0.0
  0
LINE
  8
DETAIL
  6
CONTINUOUS
 62
     5
 10
-133.75
 20
148.999999
 30
0.0
 11
-148.366025
 21
148.999999
 31
0.0
  0
LINE
  8
DETAIL
  6
CONTINUOUS
 62
     5
 10
-149.436492
 20
148.999999
 30
0.0
 11
-163.0
 21
148.999999
 31
0.0
  0
LINE
  8
DETAIL
  6
CONTINUOUS
 62
     5
 10
77.0
 20
194.999999
 30
0.0
 11
-185.0
 21
194.999999
 31
0.0
  0
ARC
  8
DETAIL
  6
CONTINUOUS
 62
     5
 10
-185.0
 20
184.999999
 30
0.0
 40
10.0
 50
90.0
 51
180.0
  0
LINE
  8
DETAIL
  6
CONTINUOUS
 62
     5
 10
-195.0
 20
184.999999
 30
0.0
 11
-195.0
 21
164.999999
 31
0.0
  0
LINE
  8
DETAIL
  6
CONTINUOUS
 62
     5
 10
77.0
 20
162.999999
 30
0.0
 11
-163.0
 21
162.999999
 31
0.0
  0
LINE
  8
DETAIL
  6
CONTINUOUS
 62
     5
 10
-163.0
 20
148.999999
 30
0.0
 11
-163.0
 21
164.999999
 31
0.0
  0
LINE
  8
DETAIL
  6
CONTINUOUS
 62
     5
 10
-163.0
 20
164.999999
 30
0.0
 11
-165.0
 21
164.999999
 31
0.0
  0
LINE
  8
DETAIL
  6
CONTINUOUS
 62
     5
 10
-165.0
 20
164.999999
 30
0.0
 11
-195.0
 21
164.999999
 31
0.0
  0
LINE
  8
DETAIL
  6
CONTINUOUS
 62
     5
 10
-152.0
 20
148.999999
 30
0.0
 11
-163.0
 21
148.999999
 31
0.0
  0
LINE
  8
DETAIL
  6
CONTINUOUS
 62
     5
 10
-149.0
 20
104.999999
 30
0.0
 11
-149.0
 21
95.499999
 31
0.0
  0
LINE
  8
DETAIL
  6
CONTINUOUS
 62
     5
 10
-149.0
 20
135.499999
 30
0.0
 11
-149.0
 21
133.749999
 31
0.0
  0
LINE
  8
DETAIL
  6
CONTINUOUS
 62
     5
 10
-149.436492
 20
148.999999
 30
0.0
 11
-151.0
 21
148.999999
 31
0.0
  0
LINE
  8
DETAIL
  6
CONTINUOUS
 62
     5
 10
-195.0
 20
164.999999
 30
0.0
 11
-195.0
 21
-77.000001
 31
0.0
  0
LINE
  8
DETAIL
  6
CONTINUOUS
 62
     5
 10
-165.0
 20
164.999999
 30
0.0
 11
-165.0
 21
163.499999
 31
0.0
  0
ARC
  8
DETAIL
  6
CONTINUOUS
 62
     5
 10
-185.0
 20
184.999999
 30
0.0
 40
10.0
 50
90.0
 51
180.0
  0
LINE
  8
DETAIL
  6
CONTINUOUS
 62
     5
 10
-195.0
 20
184.999999
 30
0.0
 11
-195.0
 21
164.999999
 31
0.0
  0
LINE
  8
DETAIL
  6
CONTINUOUS
 62
     5
 10
-163.8
 20
163.499999
 30
0.0
 11
-163.8
 21
-77.000001
 31
0.0
  0
LINE
  8
DETAIL
  6
CONTINUOUS
 62
     5
 10
-163.0
 20
148.999999
 30
0.0
 11
-163.0
 21
-77.000001
 31
0.0
  0
LINE
  8
DETAIL
  6
CONTINUOUS
 62
     5
 10
-163.0
 20
163.499999
 30
0.0
 11
-163.0
 21
148.999999
 31
0.0
  0
LINE
  8
DETAIL
  6
CONTINUOUS
 62
     5
 10
-163.0
 20
163.499999
 30
0.0
 11
-165.0
 21
163.499999
 31
0.0
  0
LINE
  8
DETAIL
  6
CONTINUOUS
 62
     5
 10
-165.0
 20
164.499999
 30
0.0
 11
-195.0
 21
164.499999
 31
0.0
  0
LINE
  8
DETAIL
  6
CONTINUOUS
 62
     5
 10
-165.0
 20
194.999999
 30
0.0
 11
-185.0
 21
194.999999
 31
0.0
  0
LINE
  8
DETAIL
  6
CONTINUOUS
 62
     5
 10
-151.0
 20
133.749999
 30
0.0
 11
-151.0
 21
150.999999
 31
0.0
  0
LINE
  8
DETAIL
  6
CONTINUOUS
 62
     5
 10
-152.0
 20
133.749999
 30
0.0
 11
-152.0
 21
150.999999
 31
0.0
  0
LINE
  8
DETAIL
  6
CONTINUOUS
 62
     5
 10
-152.0
 20
-77.000001
 30
0.0
 11
-152.0
 21
104.999999
 31
0.0
  0
LINE
  8
DETAIL
  6
CONTINUOUS
 62
     5
 10
-137.0
 20
152.999999
 30
0.0
 11
-137.0
 21
151.999999
 31
0.0
  0
LINE
  8
DETAIL
  6
CONTINUOUS
 62
     5
 10
-139.0
 20
152.999999
 30
0.0
 11
-139.0
 21
151.999999
 31
0.0
  0
LINE
  8
DETAIL
  6
CONTINUOUS
 62
     5
 10
-148.0
 20
94.499999
 30
0.0
 11
-148.0
 21
-77.000001
 31
0.0
  0
LINE
  8
DETAIL
  6
CONTINUOUS
 62
     5
 10
-151.0
 20
97.499999
 30
0.0
 11
-151.0
 21
104.999999
 31
0.0
  0
LINE
  8
DETAIL
  6
CONTINUOUS
 62
     5
 10
-148.0
 20
94.499999
 30
0.0
 11
-151.0
 21
97.499999
 31
0.0
  0
LINE
  8
DETAIL
  6
CONTINUOUS
 62
     5
 10
-152.0
 20
97.499999
 30
0.0
 11
-151.0
 21
97.499999
 31
0.0
  0
LINE
  8
DETAIL
  6
CONTINUOUS
 62
     5
 10
-137.0
 20
151.999999
 30
0.0
 11
-150.0
 21
151.999999
 31
0.0
  0
LINE
  8
DETAIL
  6
CONTINUOUS
 62
     5
 10
-137.0
 20
152.999999
 30
0.0
 11
-150.0
 21
152.999999
 31
0.0
  0
ARC
  8
DETAIL
  6
CONTINUOUS
 62
     5
 10
-150.0
 20
150.999999
 30
0.0
 40
2.0
 50
90.0
 51
180.0
  0
ARC
  8
DETAIL
  6
CONTINUOUS
 62
     5
 10
-150.0
 20
150.999999
 30
0.0
 40
1.0
 50
90.0
 51
180.0
  0
LINE
  8
DETAIL
  6
CONTINUOUS
 62
     5
 10
-141.732412
 20
135.934135
 30
0.0
 11
-144.065864
 21
138.267588
 31
0.0
  0
ARC
  8
DETAIL
  6
CONTINUOUS
 62
     5
 10
-138.833274
 20
138.833273
 30
0.0
 40
4.1
 50
225.0
 51
45.0
  0
LINE
  8
DETAIL
  6
CONTINUOUS
 62
     5
 10
-135.934136
 20
141.732411
 30
0.0
 11
-138.267588
 21
144.065863
 31
0.0
  0
ARC
  8
DETAIL
  6
CONTINUOUS
 62
     5
 10
-141.166726
 20
141.166726
 30
0.0
 40
4.1
 50
45.0
 51
225.0
  0
LINE
  8
DETAIL
  6
CONTINUOUS
 62
     5
 10
-149.0
 20
104.999999
 30
0.0
 11
-153.2
 21
104.999999
 31
0.0
  0
LINE
  8
DETAIL
  6
CONTINUOUS
 62
     5
 10
-105.0
 20
153.199999
 30
0.0
 11
-105.0
 21
148.999999
 31
0.0
  0
LINE
  8
DETAIL
  6
CONTINUOUS
 62
     5
 10
-153.2
 20
133.749999
 30
0.0
 11
-146.5
 21
133.749999
 31
0.0
  0
LINE
  8
DETAIL
  6
CONTINUOUS
 62
     5
 10
-146.5
 20
135.749999
 30
0.0
 11
-149.0
 21
135.749999
 31
0.0
  0
LINE
  8
DETAIL
  6
CONTINUOUS
 62
     5
 10
-133.75
 20
146.499999
 30
0.0
 11
-133.75
 21
153.199999
 31
0.0
  0
LINE
  8
DETAIL
  6
CONTINUOUS
 62
     5
 10
-135.75
 20
148.999999
 30
0.0
 11
-135.75
 21
146.499999
 31
0.0
  0
LINE
  8
DETAIL
  6
CONTINUOUS
 62
     5
 10
-147.0
 20
148.999999
 30
0.0
 11
-135.75
 21
148.999999
 31
0.0
  0
LINE
  8
DETAIL
  6
CONTINUOUS
 62
     5
 10
-105.0
 20
153.199999
 30
0.0
 11
-133.75
 21
153.199999
 31
0.0
  0
LINE
  8
DETAIL
  6
CONTINUOUS
 62
     5
 10
-149.0
 20
135.749999
 30
0.0
 11
-149.0
 21
146.999999
 31
0.0
  0
LINE
  8
DETAIL
  6
CONTINUOUS
 62
     5
 10
-153.2
 20
133.749999
 30
0.0
 11
-153.2
 21
104.999999
 31
0.0
  0
LINE
  8
DETAIL
  6
CONTINUOUS
 62
     5
 10
-148.964466
 20
95.464465
 30
0.0
 11
-101.464466
 21
142.964465
 31
0.0
  0
LINE
  8
DETAIL
  6
CONTINUOUS
 62
     5
 10
-147.0
 20
148.999999
 30
0.0
 11
-149.0
 21
146.999999
 31
0.0
  0
CIRCLE
  8
DETAIL
  6
CONTINUOUS
 62
     5
 10
-140.0
 20
139.999999
 30
0.0
 40
4.0
  0
ARC
  8
DETAIL
  6
CONTINUOUS
 62
     5
 10
-146.5
 20
134.749999
 30
0.0
 40
1.0
 50
270.0
 51
90.0
  0
ARC
  8
DETAIL
  6
CONTINUOUS
 62
     5
 10
-134.75
 20
146.499999
 30
0.0
 40
1.0
 50
180.0
 51
0.0
  0
ARC
  8
DETAIL
  6
CONTINUOUS
 62
     5
 10
-138.833274
 20
138.833273
 30
0.0
 40
4.1
 50
225.0
 51
45.0
  0
ARC
  8
DETAIL
  6
CONTINUOUS
 62
     5
 10
-141.166726
 20
141.166726
 30
0.0
 40
4.1
 50
45.0
 51
225.0
  0
LINE
  8
DETAIL
  6
CONTINUOUS
 62
     5
 10
-141.732412
 20
135.934135
 30
0.0
 11
-144.065864
 21
138.267588
 31
0.0
  0
LINE
  8
DETAIL
  6
CONTINUOUS
 62
     5
 10
-135.934136
 20
141.732411
 30
0.0
 11
-138.267588
 21
144.065863
 31
0.0
  0
LINE
  8
DETAIL
  6
CONTINUOUS
 62
     5
 10
-148.5
 20
147.499999
 30
0.0
 11
-147.0
 21
148.999999
 31
0.0
  0
LINE
  8
DETAIL
  6
CONTINUOUS
 62
     5
 10
-148.5
 20
135.749999
 30
0.0
 11
-146.5
 21
135.749999
 31
0.0
  0
LINE
  8
DETAIL
  6
CONTINUOUS
 62
     5
 10
-105.0
 20
148.999999
 30
0.0
 11
-105.0
 21
148.999999
 31
0.0
  0
LINE
  8
DETAIL
  6
CONTINUOUS
 62
     5
 10
-149.5
 20
104.999999
 30
0.0
 11
-149.0
 21
104.999999
 31
0.0
  0
LINE
  8
DETAIL
  6
CONTINUOUS
 62
     5
 10
-133.75
 20
149.499999
 30
0.0
 11
-133.75
 21
148.999999
 31
0.0
  0
LINE
  8
DETAIL
  6
CONTINUOUS
 62
     5
 10
-135.75
 20
146.499999
 30
0.0
 11
-135.75
 21
148.999999
 31
0.0
  0
LINE
  8
DETAIL
  6
CONTINUOUS
 62
     5
 10
-146.5
 20
133.749999
 30
0.0
 11
-149.0
 21
133.749999
 31
0.0
  0
LINE
  8
DETAIL
  6
CONTINUOUS
 62
     5
 10
-95.464466
 20
148.964465
 30
0.0
 11
-148.964466
 21
95.464465
 31
0.0
  0
ARC
  8
DETAIL
  6
CONTINUOUS
 62
     5
 10
-134.75
 20
146.499999
 30
0.0
 40
1.0
 50
180.0
 51
0.0
  0
ARC
  8
DETAIL
  6
CONTINUOUS
 62
     5
 10
-146.5
 20
134.749999
 30
0.0
 40
1.0
 50
270.0
 51
90.0
  0
LINE
  8
DETAIL
  6
CONTINUOUS
 62
     5
 10
-135.75
 20
148.999999
 30
0.0
 11
-147.0
 21
148.999999
 31
0.0
  0
LINE
  8
DETAIL
  6
CONTINUOUS
 62
     5
 10
-149.0
 20
133.749999
 30
0.0
 11
-149.5
 21
133.749999
 31
0.0
  0
LINE
  8
DETAIL
  6
CONTINUOUS
 62
     5
 10
-133.75
 20
148.999999
 30
0.0
 11
-133.75
 21
146.499999
 31
0.0
  0
LINE
  8
DETAIL
  6
CONTINUOUS
 62
     5
 10
-105.0
 20
148.999999
 30
0.0
 11
-105.0
 21
149.499999
 31
0.0
  0
CIRCLE
  8
DETAIL
  6
CONTINUOUS
 62
     5
 10
-140.0
 20
139.999999
 30
0.0
 40
4.0
  0
LINE
  8
DETAIL
  6
CONTINUOUS
 62
     5
 10
-122.25
 20
154.499999
 30
0.0
 11
-116.25
 21
154.499999
 31
0.0
  0
LINE
  8
DETAIL
  6
CONTINUOUS
 62
     5
 10
-150.0
 20
151.999999
 30
0.0
 11
-133.75
 21
151.999999
 31
0.0
  0
LINE
  8
DETAIL
  6
CONTINUOUS
 62
     5
 10
-150.0
 20
150.999999
 30
0.0
 11
-133.75
 21
150.999999
 31
0.0
  0
LINE
  8
DETAIL
  6
CONTINUOUS
 62
     5
 10
77.0
 20
147.999999
 30
0.0
 11
-94.5
 21
147.999999
 31
0.0
  0
LINE
  8
DETAIL
  6
CONTINUOUS
 62
     5
 10
-105.0
 20
151.999999
 30
0.0
 11
77.0
 21
151.999999
 31
0.0
  0
LINE
  8
DETAIL
  6
CONTINUOUS
 62
     5
 10
-105.0
 20
150.999999
 30
0.0
 11
-97.5
 21
150.999999
 31
0.0
  0
LINE
  8
DETAIL
  6
CONTINUOUS
 62
     5
 10
-94.5
 20
147.999999
 30
0.0
 11
-97.5
 21
150.999999
 31
0.0
  0
LINE
  8
DETAIL
  6
CONTINUOUS
 62
     5
 10
-97.5
 20
150.999999
 30
0.0
 11
-97.5
 21
154.999999
 31
0.0
  0
LINE
  8
DETAIL
  6
CONTINUOUS
 62
     5
 10
-115.25
 20
153.499999
 30
0.0
 11
-115.25
 21
153.199999
 31
0.0
  0
LINE
  8
DETAIL
  6
CONTINUOUS
 62
     5
 10
-123.25
 20
153.499999
 30
0.0
 11
-123.25
 21
153.199999
 31
0.0
  0
LINE
  8
DETAIL
  6
CONTINUOUS
 62
     5
 10
-148.0
 20
151.999999
 30
0.0
 11
-148.0
 21
150.999999
 31
0.0
  0
LINE
  8
DETAIL
  6
CONTINUOUS
 62
     5
 10
-150.0
 20
151.999999
 30
0.0
 11
-150.0
 21
150.999999
 31
0.0
  0
LINE
  8
DETAIL
  6
CONTINUOUS
 62
     5
 10
-116.25
 20
154.499999
 30
0.0
 11
-115.25
 21
153.499999
 31
0.0
  0
LINE
  8
DETAIL
  6
CONTINUOUS
 62
     5
 10
-122.25
 20
154.499999
 30
0.0
 11
-123.25
 21
153.499999
 31
0.0
  0
LINE
  8
DETAIL
  6
CONTINUOUS
 62
     5
 10
-152.0
 20
75.999999
 30
0.0
 11
-152.8
 21
75.999999
 31
0.0
  0
LINE
  8
DETAIL
  6
CONTINUOUS
 62
     5
 10
-152.8
 20
58.899999
 30
0.0
 11
-152.8
 21
75.999999
 31
0.0
  0
LINE
  8
DETAIL
  6
CONTINUOUS
 62
     5
 10
-152.0
 20
58.899999
 30
0.0
 11
-152.8
 21
58.899999
 31
0.0
  0
LINE
  8
DETAIL
  6
CONTINUOUS
 62
     5
 10
-152.0
 20
58.899999
 30
0.0
 11
-152.0
 21
75.999999
 31
0.0
  0
ARC
  8
DETAIL
  6
CONTINUOUS
 62
     5
 10
-149.2
 20
68.499999
 30
0.0
 40
6.1
 50
129.601965
 51
230.398017
  0
LINE
  8
DETAIL
  6
CONTINUOUS
 62
     5
 10
-152.8
 20
73.199999
 30
0.0
 11
-152.8
 21
63.8
 31
0.0
  0
LINE
  8
DETAIL
  6
CONTINUOUS
 62
     5
 10
-152.8
 20
63.8
 30
0.0
 11
-153.088445
 21
63.8
 31
0.0
  0
LINE
  8
DETAIL
  6
CONTINUOUS
 62
     5
 10
-152.8
 20
73.199999
 30
0.0
 11
-153.088445
 21
73.199999
 31
0.0
  0
LINE
  8
DETAIL
  6
CONTINUOUS
 62
     5
 10
-153.088445
 20
63.8
 30
0.0
 11
-153.088445
 21
73.199999
 31
0.0
  0
LINE
  8
DETAIL
  6
CONTINUOUS
 62
     5
 10
-144.880415
 20
139.429338
 30
0.0
 11
-143.986954
 21
140.3228
 31
0.0
  0
LINE
  8
DETAIL
  6
CONTINUOUS
 62
     5
 10
-139.429339
 20
144.880415
 30
0.0
 11
-140.3228
 21
143.986953
 31
0.0
  0
LINE
  8
DETAIL
  6
CONTINUOUS
 62
     5
 10
-133.75
 20
146.821781
 30
0.0
 11
-135.75
 21
146.821781
 31
0.0
  0
LINE
  8
DETAIL
  6
CONTINUOUS
 62
     5
 10
-146.821782
 20
133.749999
 30
0.0
 11
-146.821782
 21
135.749999
 31
0.0
  0
LINE
  8
NOTE
  6
CONTINUOUS
 62
     4
 10
-180.0
 20
159.999999
 30
0.0
 11
-180.0
 21
199.999999
 31
0.0
  0
LINE
  8
NOTE
  6
CONTINUOUS
 62
     4
 10
-200.0
 20
179.999999
 30
0.0
 11
-160.0
 21
179.999999
 31
0.0
  0
LINE
  8
NOTE
  6
CONTINUOUS
 62
     4
 10
180.0
 20
160.0
 30
0.0
 11
180.0
 21
200.0
 31
0.0
  0
LINE
  8
NOTE
  6
CONTINUOUS
 62
     4
 10
160.0
 20
180.0
 30
0.0
 11
200.0
 21
180.0
 31
0.0
  0
LINE
  8
NOTE
  6
CONTINUOUS
 62
     4
 10
180.0
 20
-200.0
 30
0.0
 11
180.0
 21
-160.0
 31
0.0
  0
LINE
  8
NOTE
  6
CONTINUOUS
 62
     4
 10
160.0
 20
-180.0
 30
0.0
 11
200.0
 21
-180.0
 31
0.0
  0
LINE
  8
NOTE
  6
CONTINUOUS
 62
     4
 10
-180.0
 20
-200.000001
 30
0.0
 11
-180.0
 21
-160.000001
 31
0.0
  0
LINE
  8
NOTE
  6
CONTINUOUS
 62
     4
 10
-200.0
 20
-180.000001
 30
0.0
 11
-160.0
 21
-180.000001
 31
0.0
  0
LINE
  8
DETAIL
  6
CONTINUOUS
 62
     5
 10
77.0
 20
154.999999
 30
0.0
 11
-155.0
 21
154.999999
 31
0.0
  0
LINE
  8
DETAIL
  6
CONTINUOUS
 62
     5
 10
-155.0
 20
154.999999
 30
0.0
 11
-155.0
 21
-77.000001
 31
0.0
  0
LINE
  8
NOTE
  6
CONTINUOUS
 62
     4
 10
-140.0
 20
119.999999
 30
0.0
 11
-140.0
 21
159.999999
 31
0.0
  0
LINE
  8
NOTE
  6
CONTINUOUS
 62
     4
 10
-160.0
 20
139.999999
 30
0.0
 11
-120.0
 21
139.999999
 31
0.0
  0
LINE
  8
NOTE
  6
CONTINUOUS
 62
     4
 10
140.0
 20
120.0
 30
0.0
 11
140.0
 21
160.0
 31
0.0
  0
LINE
  8
NOTE
  6
CONTINUOUS
 62
     4
 10
120.0
 20
140.0
 30
0.0
 11
160.0
 21
140.0
 31
0.0
  0
LINE
  8
NOTE
  6
CONTINUOUS
 62
     4
 10
140.0
 20
-160.0
 30
0.0
 11
140.0
 21
-120.0
 31
0.0
  0
LINE
  8
NOTE
  6
CONTINUOUS
 62
     4
 10
120.0
 20
-140.0
 30
0.0
 11
160.0
 21
-140.0
 31
0.0
  0
LINE
  8
NOTE
  6
CONTINUOUS
 62
     4
 10
-140.0
 20
-160.000001
 30
0.0
 11
-140.0
 21
-120.000001
 31
0.0
  0
LINE
  8
NOTE
  6
CONTINUOUS
 62
     4
 10
-160.0
 20
-140.000001
 30
0.0
 11
-120.0
 21
-140.000001
 31
0.0
  0
TEXT
  8
NOTE
  6
CONTINUOUS
 62
     4
 10
-529.233308
 20
326.59074
 30
0.0
 40
64.0
  1
4-φ10
 41
0.9
  0
LINE
  8
NOTE
  6
CONTINUOUS
 62
     4
 39
50.0
 10
-532.182079
 20
302.847311
 30
0.0
 11
-283.995644
 21
302.847311
 31
0.0
  0
LINE
  8
NOTE
  6
CONTINUOUS
 62
     4
 39
50.0
 10
-283.995644
 20
302.847311
 30
0.0
 11
-180.0
 21
179.999999
 31
0.0
  0
LINE
  8
NOTE
  6
CONTINUOUS
 62
     4
 10
-214.172579
 20
200.790257
 30
0.0
 11
-180.0
 21
179.999999
 31
0.0
  0
LINE
  8
NOTE
  6
CONTINUOUS
 62
     4
 10
-180.0
 20
179.999999
 30
0.0
 11
-199.199193
 21
215.09118
 31
0.0
  0
TEXT
  8
NOTE
  6
CONTINUOUS
 62
     4
 10
264.039876
 20
-43.943873
 30
0.0
 40
64.0
  1
4-M8
 41
0.9
  0
LINE
  8
NOTE
  6
CONTINUOUS
 62
     4
 39
50.0
 10
261.091105
 20
-67.687302
 30
0.0
 11
509.277541
 21
-67.687302
 31
0.0
  0
LINE
  8
NOTE
  6
CONTINUOUS
 62
     4
 10
171.494586
 20
-109.133915
 30
0.0
 11
143.63033
 21
-137.832055
 31
0.0
  0
LINE
  8
NOTE
  6
CONTINUOUS
 62
     4
 10
143.63033
 20
-137.832055
 30
0.0
 11
182.110554
 21
-126.910866
 31
0.0
  0
LINE
  8
NOTE
  6
CONTINUOUS
 62
     4
 39
50.0
 10
261.091105
 20
-67.687302
 30
0.0
 11
143.63033
 21
-137.832055
 31
0.0
  0
CIRCLE
  8
FIX
  6
CONTINUOUS
 62
    11
 39
50.0
 10
-140.0
 20
139.999999
 30
0.0
 40
4.0
  0
CIRCLE
  8
FIX
  6
CONTINUOUS
 62
    11
 39
50.0
 10
140.0
 20
140.0
 30
0.0
 40
4.0
  0
CIRCLE
  8
FIX
  6
CONTINUOUS
 62
    11
 39
50.0
 10
140.0
 20
-140.0
 30
0.0
 40
4.0
  0
CIRCLE
  8
FIX
  6
CONTINUOUS
 62
    11
 39
50.0
 10
-140.0
 20
-140.000001
 30
0.0
 40
4.0
  0
LINE
  8
DETAIL
  6
CONTINUOUS
 62
     5
 10
153.2
 20
113.25
 30
0.0
 11
162.75
 21
113.25
 31
0.0
  0
LINE
  8
DETAIL
  6
CONTINUOUS
 62
     5
 10
153.2
 20
125.25
 30
0.0
 11
162.75
 21
125.25
 31
0.0
  0
LINE
  8
DETAIL
  6
CONTINUOUS
 62
     5
 10
149.5
 20
133.75
 30
0.0
 11
149.5
 21
148.5
 31
0.0
  0
LINE
  8
DETAIL
  6
CONTINUOUS
 62
     5
 10
150.5
 20
133.75
 30
0.0
 11
150.5
 21
148.5
 31
0.0
  0
LINE
  8
DETAIL
  6
CONTINUOUS
 62
     5
 10
133.75
 20
149.5
 30
0.0
 11
147.5
 21
149.5
 31
0.0
  0
LINE
  8
DETAIL
  6
CONTINUOUS
 62
     5
 10
105.0
 20
150.5
 30
0.0
 11
97.0
 21
150.5
 31
0.0
  0
LINE
  8
DETAIL
  6
CONTINUOUS
 62
     5
 10
150.5
 20
97.0
 30
0.0
 11
150.5
 21
105.0
 31
0.0
  0
LINE
  8
DETAIL
  6
CONTINUOUS
 62
     5
 10
149.5
 20
96.0
 30
0.0
 11
149.5
 21
105.0
 31
0.0
  0
LINE
  8
DETAIL
  6
CONTINUOUS
 62
     5
 10
152.0
 20
148.5
 30
0.0
 11
162.75
 21
148.5
 31
0.0
  0
LINE
  8
DETAIL
  6
CONTINUOUS
 62
     5
 10
96.0
 20
149.5
 30
0.0
 11
105.0
 21
149.5
 31
0.0
  0
LINE
  8
DETAIL
  6
CONTINUOUS
 62
     5
 10
147.5
 20
151.0
 30
0.0
 11
147.5
 21
150.5
 31
0.0
  0
LINE
  8
DETAIL
  6
CONTINUOUS
 62
     5
 10
148.5
 20
147.5
 30
0.0
 11
148.5
 21
148.5
 31
0.0
  0
LINE
  8
DETAIL
  6
CONTINUOUS
 62
     5
 10
149.5
 20
135.5
 30
0.0
 11
149.0
 21
135.5
 31
0.0
  0
LINE
  8
DETAIL
  6
CONTINUOUS
 62
     5
 10
149.5
 20
137.5
 30
0.0
 11
149.0
 21
137.5
 31
0.0
  0
LINE
  8
DETAIL
  6
CONTINUOUS
 62
     5
 10
147.5
 20
162.75
 30
0.0
 11
147.5
 21
153.0
 31
0.0
  0
LINE
  8
DETAIL
  6
CONTINUOUS
 62
     5
 10
148.5
 20
135.5
 30
0.0
 11
148.5
 21
135.75
 31
0.0
  0
LINE
  8
DETAIL
  6
CONTINUOUS
 62
     5
 10
150.5
 20
146.5
 30
0.0
 11
149.5
 21
146.5
 31
0.0
  0
LINE
  8
DETAIL
  6
CONTINUOUS
 62
     5
 10
149.5
 20
148.5
 30
0.0
 11
151.0
 21
148.5
 31
0.0
  0
LINE
  8
DETAIL
  6
CONTINUOUS
 62
     5
 10
147.5
 20
150.5
 30
0.0
 11
133.75
 21
150.5
 31
0.0
  0
LINE
  8
DETAIL
  6
CONTINUOUS
 62
     5
 10
162.75
 20
148.5
 30
0.0
 11
162.75
 21
125.25
 31
0.0
  0
LINE
  8
DETAIL
  6
CONTINUOUS
 62
     5
 10
162.75
 20
113.25
 30
0.0
 11
162.75
 21
-77.0
 31
0.0
  0
LINE
  8
DETAIL
  6
CONTINUOUS
 62
     5
 10
-77.0
 20
162.75
 30
0.0
 11
147.5
 21
162.75
 31
0.0
  0
ARC
  8
DETAIL
  6
CONTINUOUS
 62
     5
 10
147.5
 20
148.5
 30
0.0
 40
1.0
 50
0.0
 51
30.0
  0
ARC
  8
DETAIL
  6
CONTINUOUS
 62
     5
 10
147.5
 20
148.5
 30
0.0
 40
2.0
 50
0.0
 51
90.0
  0
LINE
  8
DETAIL
  6
CONTINUOUS
 62
     5
 10
149.0
 20
135.5
 30
0.0
 11
148.5
 21
135.5
 31
0.0
  0
ARC
  8
DETAIL
  6
CONTINUOUS
 62
     5
 10
147.5
 20
148.5
 30
0.0
 40
1.0
 50
30.0
 51
90.0
  0
LINE
  8
DETAIL
  6
CONTINUOUS
 62
     5
 10
95.5
 20
149.0
 30
0.0
 11
105.0
 21
149.0
 31
0.0
  0
LINE
  8
DETAIL
  6
CONTINUOUS
 62
     5
 10
133.75
 20
149.0
 30
0.0
 11
148.366025
 21
149.0
 31
0.0
  0
LINE
  8
DETAIL
  6
CONTINUOUS
 62
     5
 10
149.436492
 20
149.0
 30
0.0
 11
163.0
 21
149.0
 31
0.0
  0
LINE
  8
DETAIL
  6
CONTINUOUS
 62
     5
 10
-77.0
 20
195.0
 30
0.0
 11
185.0
 21
195.0
 31
0.0
  0
ARC
  8
DETAIL
  6
CONTINUOUS
 62
     5
 10
185.0
 20
185.0
 30
0.0
 40
10.0
 50
0.0
 51
90.0
  0
LINE
  8
DETAIL
  6
CONTINUOUS
 62
     5
 10
195.0
 20
185.0
 30
0.0
 11
195.0
 21
165.0
 31
0.0
  0
LINE
  8
DETAIL
  6
CONTINUOUS
 62
     5
 10
-77.0
 20
163.0
 30
0.0
 11
163.0
 21
163.0
 31
0.0
  0
LINE
  8
DETAIL
  6
CONTINUOUS
 62
     5
 10
163.0
 20
149.0
 30
0.0
 11
163.0
 21
165.0
 31
0.0
  0
LINE
  8
DETAIL
  6
CONTINUOUS
 62
     5
 10
163.0
 20
165.0
 30
0.0
 11
165.0
 21
165.0
 31
0.0
  0
LINE
  8
DETAIL
  6
CONTINUOUS
 62
     5
 10
165.0
 20
165.0
 30
0.0
 11
195.0
 21
165.0
 31
0.0
  0
LINE
  8
DETAIL
  6
CONTINUOUS
 62
     5
 10
152.0
 20
149.0
 30
0.0
 11
163.0
 21
149.0
 31
0.0
  0
LINE
  8
DETAIL
  6
CONTINUOUS
 62
     5
 10
149.0
 20
105.0
 30
0.0
 11
149.0
 21
95.5
 31
0.0
  0
LINE
  8
DETAIL
  6
CONTINUOUS
 62
     5
 10
149.0
 20
135.5
 30
0.0
 11
149.0
 21
133.75
 31
0.0
  0
LINE
  8
DETAIL
  6
CONTINUOUS
 62
     5
 10
149.436492
 20
149.0
 30
0.0
 11
151.0
 21
149.0
 31
0.0
  0
LINE
  8
DETAIL
  6
CONTINUOUS
 62
     5
 10
195.0
 20
165.0
 30
0.0
 11
195.0
 21
-77.0
 31
0.0
  0
LINE
  8
DETAIL
  6
CONTINUOUS
 62
     5
 10
165.0
 20
165.0
 30
0.0
 11
165.0
 21
163.5
 31
0.0
  0
ARC
  8
DETAIL
  6
CONTINUOUS
 62
     5
 10
185.0
 20
185.0
 30
0.0
 40
10.0
 50
0.0
 51
90.0
  0
LINE
  8
DETAIL
  6
CONTINUOUS
 62
     5
 10
195.0
 20
185.0
 30
0.0
 11
195.0
 21
165.0
 31
0.0
  0
LINE
  8
DETAIL
  6
CONTINUOUS
 62
     5
 10
163.8
 20
163.5
 30
0.0
 11
163.8
 21
-77.0
 31
0.0
  0
LINE
  8
DETAIL
  6
CONTINUOUS
 62
     5
 10
163.0
 20
149.0
 30
0.0
 11
163.0
 21
-77.0
 31
0.0
  0
LINE
  8
DETAIL
  6
CONTINUOUS
 62
     5
 10
163.0
 20
163.5
 30
0.0
 11
163.0
 21
149.0
 31
0.0
  0
LINE
  8
DETAIL
  6
CONTINUOUS
 62
     5
 10
163.0
 20
163.5
 30
0.0
 11
165.0
 21
163.5
 31
0.0
  0
LINE
  8
DETAIL
  6
CONTINUOUS
 62
     5
 10
165.0
 20
164.5
 30
0.0
 11
195.0
 21
164.5
 31
0.0
  0
LINE
  8
DETAIL
  6
CONTINUOUS
 62
     5
 10
165.0
 20
195.0
 30
0.0
 11
185.0
 21
195.0
 31
0.0
  0
LINE
  8
DETAIL
  6
CONTINUOUS
 62
     5
 10
151.0
 20
133.75
 30
0.0
 11
151.0
 21
151.0
 31
0.0
  0
LINE
  8
DETAIL
  6
CONTINUOUS
 62
     5
 10
152.0
 20
133.75
 30
0.0
 11
152.0
 21
151.0
 31
0.0
  0
LINE
  8
DETAIL
  6
CONTINUOUS
 62
     5
 10
152.0
 20
-77.0
 30
0.0
 11
152.0
 21
105.0
 31
0.0
  0
LINE
  8
DETAIL
  6
CONTINUOUS
 62
     5
 10
137.0
 20
153.0
 30
0.0
 11
137.0
 21
152.0
 31
0.0
  0
LINE
  8
DETAIL
  6
CONTINUOUS
 62
     5
 10
139.0
 20
153.0
 30
0.0
 11
139.0
 21
152.0
 31
0.0
  0
LINE
  8
DETAIL
  6
CONTINUOUS
 62
     5
 10
148.0
 20
94.5
 30
0.0
 11
148.0
 21
-77.0
 31
0.0
  0
LINE
  8
DETAIL
  6
CONTINUOUS
 62
     5
 10
151.0
 20
97.5
 30
0.0
 11
151.0
 21
105.0
 31
0.0
  0
LINE
  8
DETAIL
  6
CONTINUOUS
 62
     5
 10
148.0
 20
94.5
 30
0.0
 11
151.0
 21
97.5
 31
0.0
  0
LINE
  8
DETAIL
  6
CONTINUOUS
 62
     5
 10
152.0
 20
97.5
 30
0.0
 11
151.0
 21
97.5
 31
0.0
  0
LINE
  8
DETAIL
  6
CONTINUOUS
 62
     5
 10
137.0
 20
152.0
 30
0.0
 11
150.0
 21
152.0
 31
0.0
  0
LINE
  8
DETAIL
  6
CONTINUOUS
 62
     5
 10
137.0
 20
153.0
 30
0.0
 11
150.0
 21
153.0
 31
0.0
  0
ARC
  8
DETAIL
  6
CONTINUOUS
 62
     5
 10
150.0
 20
151.0
 30
0.0
 40
2.0
 50
0.0
 51
90.0
  0
ARC
  8
DETAIL
  6
CONTINUOUS
 62
     5
 10
150.0
 20
151.0
 30
0.0
 40
1.0
 50
0.0
 51
90.0
  0
LINE
  8
DETAIL
  6
CONTINUOUS
 62
     5
 10
141.732412
 20
135.934136
 30
0.0
 11
144.065864
 21
138.267588
 31
0.0
  0
ARC
  8
DETAIL
  6
CONTINUOUS
 62
     5
 10
138.833274
 20
138.833274
 30
0.0
 40
4.1
 50
135.0
 51
315.0
  0
LINE
  8
DETAIL
  6
CONTINUOUS
 62
     5
 10
135.934136
 20
141.732411
 30
0.0
 11
138.267588
 21
144.065864
 31
0.0
  0
ARC
  8
DETAIL
  6
CONTINUOUS
 62
     5
 10
141.166726
 20
141.166726
 30
0.0
 40
4.1
 50
315.0
 51
135.0
  0
LINE
  8
DETAIL
  6
CONTINUOUS
 62
     5
 10
149.0
 20
105.0
 30
0.0
 11
153.2
 21
105.0
 31
0.0
  0
LINE
  8
DETAIL
  6
CONTINUOUS
 62
     5
 10
105.0
 20
153.2
 30
0.0
 11
105.0
 21
149.0
 31
0.0
  0
LINE
  8
DETAIL
  6
CONTINUOUS
 62
     5
 10
153.2
 20
133.75
 30
0.0
 11
146.5
 21
133.75
 31
0.0
  0
LINE
  8
DETAIL
  6
CONTINUOUS
 62
     5
 10
146.5
 20
135.75
 30
0.0
 11
149.0
 21
135.75
 31
0.0
  0
LINE
  8
DETAIL
  6
CONTINUOUS
 62
     5
 10
133.75
 20
146.5
 30
0.0
 11
133.75
 21
153.2
 31
0.0
  0
LINE
  8
DETAIL
  6
CONTINUOUS
 62
     5
 10
135.75
 20
149.0
 30
0.0
 11
135.75
 21
146.5
 31
0.0
  0
LINE
  8
DETAIL
  6
CONTINUOUS
 62
     5
 10
147.0
 20
149.0
 30
0.0
 11
135.75
 21
149.0
 31
0.0
  0
LINE
  8
DETAIL
  6
CONTINUOUS
 62
     5
 10
105.0
 20
153.2
 30
0.0
 11
133.75
 21
153.2
 31
0.0
  0
LINE
  8
DETAIL
  6
CONTINUOUS
 62
     5
 10
149.0
 20
135.75
 30
0.0
 11
149.0
 21
147.0
 31
0.0
  0
LINE
  8
DETAIL
  6
CONTINUOUS
 62
     5
 10
153.2
 20
133.75
 30
0.0
 11
153.2
 21
105.0
 31
0.0
  0
LINE
  8
DETAIL
  6
CONTINUOUS
 62
     5
 10
142.964466
 20
101.464466
 30
0.0
 11
101.464466
 21
142.964466
 31
0.0
  0
LINE
  8
DETAIL
  6
CONTINUOUS
 62
     5
 10
147.0
 20
149.0
 30
0.0
 11
149.0
 21
147.0
 31
0.0
  0
CIRCLE
  8
DETAIL
  6
CONTINUOUS
 62
     5
 10
140.0
 20
140.0
 30
0.0
 40
4.0
  0
ARC
  8
DETAIL
  6
CONTINUOUS
 62
     5
 10
146.5
 20
134.75
 30
0.0
 40
1.0
 50
90.0
 51
270.0
  0
ARC
  8
DETAIL
  6
CONTINUOUS
 62
     5
 10
134.75
 20
146.5
 30
0.0
 40
1.0
 50
180.0
 51
0.0
  0
ARC
  8
DETAIL
  6
CONTINUOUS
 62
     5
 10
138.833274
 20
138.833274
 30
0.0
 40
4.1
 50
135.0
 51
315.0
  0
ARC
  8
DETAIL
  6
CONTINUOUS
 62
     5
 10
141.166726
 20
141.166726
 30
0.0
 40
4.1
 50
315.0
 51
135.0
  0
LINE
  8
DETAIL
  6
CONTINUOUS
 62
     5
 10
141.732412
 20
135.934136
 30
0.0
 11
144.065864
 21
138.267588
 31
0.0
  0
LINE
  8
DETAIL
  6
CONTINUOUS
 62
     5
 10
135.934136
 20
141.732411
 30
0.0
 11
138.267588
 21
144.065864
 31
0.0
  0
LINE
  8
DETAIL
  6
CONTINUOUS
 62
     5
 10
148.5
 20
147.5
 30
0.0
 11
147.0
 21
149.0
 31
0.0
  0
LINE
  8
DETAIL
  6
CONTINUOUS
 62
     5
 10
148.5
 20
135.75
 30
0.0
 11
146.5
 21
135.75
 31
0.0
  0
LINE
  8
DETAIL
  6
CONTINUOUS
 62
     5
 10
149.5
 20
105.0
 30
0.0
 11
149.0
 21
105.0
 31
0.0
  0
LINE
  8
DETAIL
  6
CONTINUOUS
 62
     5
 10
133.75
 20
149.5
 30
0.0
 11
133.75
 21
149.0
 31
0.0
  0
LINE
  8
DETAIL
  6
CONTINUOUS
 62
     5
 10
135.75
 20
146.5
 30
0.0
 11
135.75
 21
149.0
 31
0.0
  0
LINE
  8
DETAIL
  6
CONTINUOUS
 62
     5
 10
148.3
 20
131.75
 30
0.0
 11
149.5
 21
131.75
 31
0.0
  0
LINE
  8
DETAIL
  6
CONTINUOUS
 62
     5
 10
146.5
 20
133.75
 30
0.0
 11
149.0
 21
133.75
 31
0.0
  0
LINE
  8
DETAIL
  6
CONTINUOUS
 62
     5
 10
95.464466
 20
148.964466
 30
0.0
 11
148.964466
 21
95.464466
 31
0.0
  0
ARC
  8
DETAIL
  6
CONTINUOUS
 62
     5
 10
134.75
 20
146.5
 30
0.0
 40
1.0
 50
180.0
 51
0.0
  0
ARC
  8
DETAIL
  6
CONTINUOUS
 62
     5
 10
146.5
 20
134.75
 30
0.0
 40
1.0
 50
90.0
 51
270.0
  0
LINE
  8
DETAIL
  6
CONTINUOUS
 62
     5
 10
135.75
 20
149.0
 30
0.0
 11
147.0
 21
149.0
 31
0.0
  0
LINE
  8
DETAIL
  6
CONTINUOUS
 62
     5
 10
149.0
 20
105.0
 30
0.0
 11
149.0
 21
105.0
 31
0.0
  0
LINE
  8
DETAIL
  6
CONTINUOUS
 62
     5
 10
149.0
 20
133.75
 30
0.0
 11
149.5
 21
133.75
 31
0.0
  0
LINE
  8
DETAIL
  6
CONTINUOUS
 62
     5
 10
133.75
 20
149.0
 30
0.0
 11
133.75
 21
146.5
 31
0.0
  0
LINE
  8
DETAIL
  6
CONTINUOUS
 62
     5
 10
105.0
 20
149.0
 30
0.0
 11
105.0
 21
149.5
 31
0.0
  0
CIRCLE
  8
DETAIL
  6
CONTINUOUS
 62
     5
 10
140.0
 20
140.0
 30
0.0
 40
4.0
  0
LINE
  8
DETAIL
  6
CONTINUOUS
 62
     5
 10
122.25
 20
154.5
 30
0.0
 11
116.25
 21
154.5
 31
0.0
  0
LINE
  8
DETAIL
  6
CONTINUOUS
 62
     5
 10
150.0
 20
152.0
 30
0.0
 11
133.75
 21
152.0
 31
0.0
  0
LINE
  8
DETAIL
  6
CONTINUOUS
 62
     5
 10
150.0
 20
151.0
 30
0.0
 11
133.75
 21
151.0
 31
0.0
  0
LINE
  8
DETAIL
  6
CONTINUOUS
 62
     5
 10
-77.0
 20
148.0
 30
0.0
 11
94.5
 21
148.0
 31
0.0
  0
LINE
  8
DETAIL
  6
CONTINUOUS
 62
     5
 10
105.0
 20
152.0
 30
0.0
 11
-77.0
 21
152.0
 31
0.0
  0
LINE
  8
DETAIL
  6
CONTINUOUS
 62
     5
 10
105.0
 20
151.0
 30
0.0
 11
97.5
 21
151.0
 31
0.0
  0
LINE
  8
DETAIL
  6
CONTINUOUS
 62
     5
 10
94.5
 20
148.0
 30
0.0
 11
97.5
 21
151.0
 31
0.0
  0
LINE
  8
DETAIL
  6
CONTINUOUS
 62
     5
 10
97.5
 20
151.0
 30
0.0
 11
97.5
 21
155.0
 31
0.0
  0
LINE
  8
DETAIL
  6
CONTINUOUS
 62
     5
 10
115.25
 20
153.5
 30
0.0
 11
115.25
 21
153.2
 31
0.0
  0
LINE
  8
DETAIL
  6
CONTINUOUS
 62
     5
 10
123.25
 20
153.5
 30
0.0
 11
123.25
 21
153.2
 31
0.0
  0
LINE
  8
DETAIL
  6
CONTINUOUS
 62
     5
 10
148.0
 20
152.0
 30
0.0
 11
148.0
 21
151.0
 31
0.0
  0
LINE
  8
DETAIL
  6
CONTINUOUS
 62
     5
 10
150.0
 20
152.0
 30
0.0
 11
150.0
 21
151.0
 31
0.0
  0
LINE
  8
DETAIL
  6
CONTINUOUS
 62
     5
 10
116.25
 20
154.5
 30
0.0
 11
115.25
 21
153.5
 31
0.0
  0
LINE
  8
DETAIL
  6
CONTINUOUS
 62
     5
 10
122.25
 20
154.5
 30
0.0
 11
123.25
 21
153.5
 31
0.0
  0
LINE
  8
DETAIL
  6
CONTINUOUS
 62
     5
 10
152.0
 20
76.0
 30
0.0
 11
152.8
 21
76.0
 31
0.0
  0
LINE
  8
DETAIL
  6
CONTINUOUS
 62
     5
 10
152.8
 20
58.9
 30
0.0
 11
152.8
 21
76.0
 31
0.0
  0
LINE
  8
DETAIL
  6
CONTINUOUS
 62
     5
 10
152.0
 20
58.9
 30
0.0
 11
152.8
 21
58.9
 31
0.0
  0
LINE
  8
DETAIL
  6
CONTINUOUS
 62
     5
 10
152.0
 20
58.9
 30
0.0
 11
152.0
 21
76.0
 31
0.0
  0
ARC
  8
DETAIL
  6
CONTINUOUS
 62
     5
 10
149.2
 20
68.5
 30
0.0
 40
6.1
 50
309.601983
 51
50.398035
  0
LINE
  8
DETAIL
  6
CONTINUOUS
 62
     5
 10
152.8
 20
73.199999
 30
0.0
 11
152.8
 21
63.8
 31
0.0
  0
LINE
  8
DETAIL
  6
CONTINUOUS
 62
     5
 10
152.8
 20
63.8
 30
0.0
 11
153.088445
 21
63.8
 31
0.0
  0
LINE
  8
DETAIL
  6
CONTINUOUS
 62
     5
 10
152.8
 20
73.199999
 30
0.0
 11
153.088445
 21
73.199999
 31
0.0
  0
LINE
  8
DETAIL
  6
CONTINUOUS
 62
     5
 10
153.088445
 20
63.8
 30
0.0
 11
153.088445
 21
73.199999
 31
0.0
  0
LINE
  8
DETAIL
  6
CONTINUOUS
 62
     5
 10
144.880415
 20
139.429339
 30
0.0
 11
143.986954
 21
140.3228
 31
0.0
  0
LINE
  8
DETAIL
  6
CONTINUOUS
 62
     5
 10
139.429339
 20
144.880415
 30
0.0
 11
140.3228
 21
143.986953
 31
0.0
  0
LINE
  8
DETAIL
  6
CONTINUOUS
 62
     5
 10
133.75
 20
146.821782
 30
0.0
 11
135.75
 21
146.821782
 31
0.0
  0
LINE
  8
DETAIL
  6
CONTINUOUS
 62
     5
 10
146.821782
 20
133.75
 30
0.0
 11
146.821782
 21
135.75
 31
0.0
  0
LINE
  8
DETAIL
  6
CONTINUOUS
 62
     5
 10
-77.0
 20
155.0
 30
0.0
 11
155.0
 21
155.0
 31
0.0
  0
LINE
  8
DETAIL
  6
CONTINUOUS
 62
     5
 10
155.0
 20
155.0
 30
0.0
 11
155.0
 21
-77.0
 31
0.0
  0
LINE
  8
DETAIL
  6
CONTINUOUS
 62
     5
 10
-153.2
 20
-113.250001
 30
0.0
 11
-162.75
 21
-113.250001
 31
0.0
  0
LINE
  8
DETAIL
  6
CONTINUOUS
 62
     5
 10
-153.2
 20
-125.250001
 30
0.0
 11
-162.75
 21
-125.250001
 31
0.0
  0
LINE
  8
DETAIL
  6
CONTINUOUS
 62
     5
 10
-149.5
 20
-133.750001
 30
0.0
 11
-149.5
 21
-148.500001
 31
0.0
  0
LINE
  8
DETAIL
  6
CONTINUOUS
 62
     5
 10
-150.5
 20
-133.750001
 30
0.0
 11
-150.5
 21
-148.500001
 31
0.0
  0
LINE
  8
DETAIL
  6
CONTINUOUS
 62
     5
 10
-133.75
 20
-149.500001
 30
0.0
 11
-147.5
 21
-149.500001
 31
0.0
  0
LINE
  8
DETAIL
  6
CONTINUOUS
 62
     5
 10
-105.0
 20
-150.500001
 30
0.0
 11
-97.0
 21
-150.500001
 31
0.0
  0
LINE
  8
DETAIL
  6
CONTINUOUS
 62
     5
 10
-150.5
 20
-97.000001
 30
0.0
 11
-150.5
 21
-105.000001
 31
0.0
  0
LINE
  8
DETAIL
  6
CONTINUOUS
 62
     5
 10
-149.5
 20
-96.000001
 30
0.0
 11
-149.5
 21
-105.000001
 31
0.0
  0
LINE
  8
DETAIL
  6
CONTINUOUS
 62
     5
 10
-152.0
 20
-148.500001
 30
0.0
 11
-162.75
 21
-148.500001
 31
0.0
  0
LINE
  8
DETAIL
  6
CONTINUOUS
 62
     5
 10
-96.0
 20
-149.500001
 30
0.0
 11
-105.0
 21
-149.500001
 31
0.0
  0
LINE
  8
DETAIL
  6
CONTINUOUS
 62
     5
 10
-147.5
 20
-151.000001
 30
0.0
 11
-147.5
 21
-150.500001
 31
0.0
  0
LINE
  8
DETAIL
  6
CONTINUOUS
 62
     5
 10
-148.5
 20
-147.500001
 30
0.0
 11
-148.5
 21
-148.500001
 31
0.0
  0
LINE
  8
DETAIL
  6
CONTINUOUS
 62
     5
 10
-149.5
 20
-135.500001
 30
0.0
 11
-149.0
 21
-135.500001
 31
0.0
  0
LINE
  8
DETAIL
  6
CONTINUOUS
 62
     5
 10
-149.5
 20
-137.500001
 30
0.0
 11
-149.0
 21
-137.500001
 31
0.0
  0
LINE
  8
DETAIL
  6
CONTINUOUS
 62
     5
 10
-147.5
 20
-162.750001
 30
0.0
 11
-147.5
 21
-153.000001
 31
0.0
  0
LINE
  8
DETAIL
  6
CONTINUOUS
 62
     5
 10
-148.5
 20
-135.500001
 30
0.0
 11
-148.5
 21
-135.750001
 31
0.0
  0
LINE
  8
DETAIL
  6
CONTINUOUS
 62
     5
 10
-150.5
 20
-146.500001
 30
0.0
 11
-149.5
 21
-146.500001
 31
0.0
  0
LINE
  8
DETAIL
  6
CONTINUOUS
 62
     5
 10
-149.5
 20
-148.500001
 30
0.0
 11
-151.0
 21
-148.500001
 31
0.0
  0
LINE
  8
DETAIL
  6
CONTINUOUS
 62
     5
 10
-147.5
 20
-150.500001
 30
0.0
 11
-133.75
 21
-150.500001
 31
0.0
  0
LINE
  8
DETAIL
  6
CONTINUOUS
 62
     5
 10
-162.75
 20
-148.500001
 30
0.0
 11
-162.75
 21
-125.250001
 31
0.0
  0
LINE
  8
DETAIL
  6
CONTINUOUS
 62
     5
 10
-162.75
 20
-113.250001
 30
0.0
 11
-162.75
 21
76.999999
 31
0.0
  0
LINE
  8
DETAIL
  6
CONTINUOUS
 62
     5
 10
77.0
 20
-162.750001
 30
0.0
 11
-147.5
 21
-162.750001
 31
0.0
  0
ARC
  8
DETAIL
  6
CONTINUOUS
 62
     5
 10
-147.5
 20
-148.500001
 30
0.0
 40
1.0
 50
180.0
 51
210.0
  0
ARC
  8
DETAIL
  6
CONTINUOUS
 62
     5
 10
-147.5
 20
-148.500001
 30
0.0
 40
2.0
 50
180.0
 51
270.0
  0
LINE
  8
DETAIL
  6
CONTINUOUS
 62
     5
 10
-149.0
 20
-135.500001
 30
0.0
 11
-148.5
 21
-135.500001
 31
0.0
  0
ARC
  8
DETAIL
  6
CONTINUOUS
 62
     5
 10
-147.5
 20
-148.500001
 30
0.0
 40
1.0
 50
210.0
 51
270.0
  0
LINE
  8
DETAIL
  6
CONTINUOUS
 62
     5
 10
-95.5
 20
-149.000001
 30
0.0
 11
-105.0
 21
-149.000001
 31
0.0
  0
LINE
  8
DETAIL
  6
CONTINUOUS
 62
     5
 10
-133.75
 20
-149.000001
 30
0.0
 11
-148.366025
 21
-149.000001
 31
0.0
  0
LINE
  8
DETAIL
  6
CONTINUOUS
 62
     5
 10
-149.436492
 20
-149.000001
 30
0.0
 11
-163.0
 21
-149.000001
 31
0.0
  0
LINE
  8
DETAIL
  6
CONTINUOUS
 62
     5
 10
77.0
 20
-195.000001
 30
0.0
 11
-185.0
 21
-195.000001
 31
0.0
  0
ARC
  8
DETAIL
  6
CONTINUOUS
 62
     5
 10
-185.0
 20
-185.000001
 30
0.0
 40
10.0
 50
180.0
 51
270.0
  0
LINE
  8
DETAIL
  6
CONTINUOUS
 62
     5
 10
-195.0
 20
-185.000001
 30
0.0
 11
-195.0
 21
-165.000001
 31
0.0
  0
LINE
  8
DETAIL
  6
CONTINUOUS
 62
     5
 10
77.0
 20
-163.000001
 30
0.0
 11
-163.0
 21
-163.000001
 31
0.0
  0
LINE
  8
DETAIL
  6
CONTINUOUS
 62
     5
 10
-163.0
 20
-149.000001
 30
0.0
 11
-163.0
 21
-165.000001
 31
0.0
  0
LINE
  8
DETAIL
  6
CONTINUOUS
 62
     5
 10
-163.0
 20
-165.000001
 30
0.0
 11
-165.0
 21
-165.000001
 31
0.0
  0
LINE
  8
DETAIL
  6
CONTINUOUS
 62
     5
 10
-165.0
 20
-165.000001
 30
0.0
 11
-195.0
 21
-165.000001
 31
0.0
  0
LINE
  8
DETAIL
  6
CONTINUOUS
 62
     5
 10
-152.0
 20
-149.000001
 30
0.0
 11
-163.0
 21
-149.000001
 31
0.0
  0
LINE
  8
DETAIL
  6
CONTINUOUS
 62
     5
 10
-149.0
 20
-105.000001
 30
0.0
 11
-149.0
 21
-95.500001
 31
0.0
  0
LINE
  8
DETAIL
  6
CONTINUOUS
 62
     5
 10
-149.0
 20
-135.500001
 30
0.0
 11
-149.0
 21
-133.750001
 31
0.0
  0
LINE
  8
DETAIL
  6
CONTINUOUS
 62
     5
 10
-149.436492
 20
-149.000001
 30
0.0
 11
-151.0
 21
-149.000001
 31
0.0
  0
LINE
  8
DETAIL
  6
CONTINUOUS
 62
     5
 10
-195.0
 20
-165.000001
 30
0.0
 11
-195.0
 21
76.999999
 31
0.0
  0
LINE
  8
DETAIL
  6
CONTINUOUS
 62
     5
 10
-165.0
 20
-165.000001
 30
0.0
 11
-165.0
 21
-163.500001
 31
0.0
  0
ARC
  8
DETAIL
  6
CONTINUOUS
 62
     5
 10
-185.0
 20
-185.000001
 30
0.0
 40
10.0
 50
180.0
 51
270.0
  0
LINE
  8
DETAIL
  6
CONTINUOUS
 62
     5
 10
-195.0
 20
-185.000001
 30
0.0
 11
-195.0
 21
-165.000001
 31
0.0
  0
LINE
  8
DETAIL
  6
CONTINUOUS
 62
     5
 10
-163.8
 20
-163.500001
 30
0.0
 11
-163.8
 21
76.999999
 31
0.0
  0
LINE
  8
DETAIL
  6
CONTINUOUS
 62
     5
 10
-163.0
 20
-149.000001
 30
0.0
 11
-163.0
 21
76.999999
 31
0.0
  0
LINE
  8
DETAIL
  6
CONTINUOUS
 62
     5
 10
-163.0
 20
-163.500001
 30
0.0
 11
-163.0
 21
-149.000001
 31
0.0
  0
LINE
  8
DETAIL
  6
CONTINUOUS
 62
     5
 10
-163.0
 20
-163.500001
 30
0.0
 11
-165.0
 21
-163.500001
 31
0.0
  0
LINE
  8
DETAIL
  6
CONTINUOUS
 62
     5
 10
-165.0
 20
-164.500001
 30
0.0
 11
-195.0
 21
-164.500001
 31
0.0
  0
LINE
  8
DETAIL
  6
CONTINUOUS
 62
     5
 10
-165.0
 20
-195.000001
 30
0.0
 11
-185.0
 21
-195.000001
 31
0.0
  0
LINE
  8
DETAIL
  6
CONTINUOUS
 62
     5
 10
-151.0
 20
-133.750001
 30
0.0
 11
-151.0
 21
-151.000001
 31
0.0
  0
LINE
  8
DETAIL
  6
CONTINUOUS
 62
     5
 10
-152.0
 20
-133.750001
 30
0.0
 11
-152.0
 21
-151.000001
 31
0.0
  0
LINE
  8
DETAIL
  6
CONTINUOUS
 62
     5
 10
-152.0
 20
76.999999
 30
0.0
 11
-152.0
 21
-105.000001
 31
0.0
  0
LINE
  8
DETAIL
  6
CONTINUOUS
 62
     5
 10
-137.0
 20
-153.000001
 30
0.0
 11
-137.0
 21
-152.000001
 31
0.0
  0
LINE
  8
DETAIL
  6
CONTINUOUS
 62
     5
 10
-139.0
 20
-153.000001
 30
0.0
 11
-139.0
 21
-152.000001
 31
0.0
  0
LINE
  8
DETAIL
  6
CONTINUOUS
 62
     5
 10
-148.0
 20
-94.500001
 30
0.0
 11
-148.0
 21
76.999999
 31
0.0
  0
LINE
  8
DETAIL
  6
CONTINUOUS
 62
     5
 10
-151.0
 20
-97.500001
 30
0.0
 11
-151.0
 21
-105.000001
 31
0.0
  0
LINE
  8
DETAIL
  6
CONTINUOUS
 62
     5
 10
-148.0
 20
-94.500001
 30
0.0
 11
-151.0
 21
-97.500001
 31
0.0
  0
LINE
  8
DETAIL
  6
CONTINUOUS
 62
     5
 10
-152.0
 20
-97.500001
 30
0.0
 11
-151.0
 21
-97.500001
 31
0.0
  0
LINE
  8
DETAIL
  6
CONTINUOUS
 62
     5
 10
-137.0
 20
-152.000001
 30
0.0
 11
-150.0
 21
-152.000001
 31
0.0
  0
LINE
  8
DETAIL
  6
CONTINUOUS
 62
     5
 10
-137.0
 20
-153.000001
 30
0.0
 11
-150.0
 21
-153.000001
 31
0.0
  0
ARC
  8
DETAIL
  6
CONTINUOUS
 62
     5
 10
-150.0
 20
-151.000001
 30
0.0
 40
2.0
 50
180.0
 51
270.0
  0
ARC
  8
DETAIL
  6
CONTINUOUS
 62
     5
 10
-150.0
 20
-151.000001
 30
0.0
 40
1.0
 50
180.0
 51
270.0
  0
LINE
  8
DETAIL
  6
CONTINUOUS
 62
     5
 10
-141.732412
 20
-135.934137
 30
0.0
 11
-144.065864
 21
-138.267589
 31
0.0
  0
ARC
  8
DETAIL
  6
CONTINUOUS
 62
     5
 10
-138.833274
 20
-138.833274
 30
0.0
 40
4.1
 50
315.0
 51
135.0
  0
LINE
  8
DETAIL
  6
CONTINUOUS
 62
     5
 10
-135.934136
 20
-141.732412
 30
0.0
 11
-138.267588
 21
-144.065865
 31
0.0
  0
ARC
  8
DETAIL
  6
CONTINUOUS
 62
     5
 10
-141.166726
 20
-141.166727
 30
0.0
 40
4.1
 50
135.0
 51
315.0
  0
LINE
  8
DETAIL
  6
CONTINUOUS
 62
     5
 10
-149.0
 20
-105.000001
 30
0.0
 11
-153.2
 21
-105.000001
 31
0.0
  0
LINE
  8
DETAIL
  6
CONTINUOUS
 62
     5
 10
-105.0
 20
-153.200001
 30
0.0
 11
-105.0
 21
-149.000001
 31
0.0
  0
LINE
  8
DETAIL
  6
CONTINUOUS
 62
     5
 10
-153.2
 20
-133.750001
 30
0.0
 11
-146.5
 21
-133.750001
 31
0.0
  0
LINE
  8
DETAIL
  6
CONTINUOUS
 62
     5
 10
-146.5
 20
-135.750001
 30
0.0
 11
-149.0
 21
-135.750001
 31
0.0
  0
LINE
  8
DETAIL
  6
CONTINUOUS
 62
     5
 10
-133.75
 20
-146.500001
 30
0.0
 11
-133.75
 21
-153.200001
 31
0.0
  0
LINE
  8
DETAIL
  6
CONTINUOUS
 62
     5
 10
-135.75
 20
-149.000001
 30
0.0
 11
-135.75
 21
-146.500001
 31
0.0
  0
LINE
  8
DETAIL
  6
CONTINUOUS
 62
     5
 10
-147.0
 20
-149.000001
 30
0.0
 11
-135.75
 21
-149.000001
 31
0.0
  0
LINE
  8
DETAIL
  6
CONTINUOUS
 62
     5
 10
-105.0
 20
-153.200001
 30
0.0
 11
-133.75
 21
-153.200001
 31
0.0
  0
LINE
  8
DETAIL
  6
CONTINUOUS
 62
     5
 10
-149.0
 20
-135.750001
 30
0.0
 11
-149.0
 21
-147.000001
 31
0.0
  0
LINE
  8
DETAIL
  6
CONTINUOUS
 62
     5
 10
-153.2
 20
-133.750001
 30
0.0
 11
-153.2
 21
-105.000001
 31
0.0
  0
LINE
  8
DETAIL
  6
CONTINUOUS
 62
     5
 10
-148.964466
 20
-95.464467
 30
0.0
 11
-101.464466
 21
-142.964467
 31
0.0
  0
LINE
  8
DETAIL
  6
CONTINUOUS
 62
     5
 10
-147.0
 20
-149.000001
 30
0.0
 11
-149.0
 21
-147.000001
 31
0.0
  0
CIRCLE
  8
DETAIL
  6
CONTINUOUS
 62
     5
 10
-140.0
 20
-140.000001
 30
0.0
 40
4.0
  0
ARC
  8
DETAIL
  6
CONTINUOUS
 62
     5
 10
-146.5
 20
-134.750001
 30
0.0
 40
1.0
 50
270.0
 51
90.0
  0
ARC
  8
DETAIL
  6
CONTINUOUS
 62
     5
 10
-134.75
 20
-146.500001
 30
0.0
 40
1.0
 50
0.0
 51
180.0
  0
ARC
  8
DETAIL
  6
CONTINUOUS
 62
     5
 10
-138.833274
 20
-138.833274
 30
0.0
 40
4.1
 50
315.0
 51
135.0
  0
ARC
  8
DETAIL
  6
CONTINUOUS
 62
     5
 10
-141.166726
 20
-141.166727
 30
0.0
 40
4.1
 50
135.0
 51
315.0
  0
LINE
  8
DETAIL
  6
CONTINUOUS
 62
     5
 10
-141.732412
 20
-135.934137
 30
0.0
 11
-144.065864
 21
-138.267589
 31
0.0
  0
LINE
  8
DETAIL
  6
CONTINUOUS
 62
     5
 10
-135.934136
 20
-141.732412
 30
0.0
 11
-138.267588
 21
-144.065865
 31
0.0
  0
LINE
  8
DETAIL
  6
CONTINUOUS
 62
     5
 10
-148.5
 20
-147.500001
 30
0.0
 11
-147.0
 21
-149.000001
 31
0.0
  0
LINE
  8
DETAIL
  6
CONTINUOUS
 62
     5
 10
-148.5
 20
-135.750001
 30
0.0
 11
-146.5
 21
-135.750001
 31
0.0
  0
LINE
  8
DETAIL
  6
CONTINUOUS
 62
     5
 10
-149.5
 20
-105.000001
 30
0.0
 11
-149.0
 21
-105.000001
 31
0.0
  0
LINE
  8
DETAIL
  6
CONTINUOUS
 62
     5
 10
-133.75
 20
-149.500001
 30
0.0
 11
-133.75
 21
-149.000001
 31
0.0
  0
LINE
  8
DETAIL
  6
CONTINUOUS
 62
     5
 10
-135.75
 20
-146.500001
 30
0.0
 11
-135.75
 21
-149.000001
 31
0.0
  0
LINE
  8
DETAIL
  6
CONTINUOUS
 62
     5
 10
-146.5
 20
-133.750001
 30
0.0
 11
-149.0
 21
-133.750001
 31
0.0
  0
LINE
  8
DETAIL
  6
CONTINUOUS
 62
     5
 10
-95.464466
 20
-148.964467
 30
0.0
 11
-148.964466
 21
-95.464467
 31
0.0
  0
ARC
  8
DETAIL
  6
CONTINUOUS
 62
     5
 10
-134.75
 20
-146.500001
 30
0.0
 40
1.0
 50
0.0
 51
180.0
  0
ARC
  8
DETAIL
  6
CONTINUOUS
 62
     5
 10
-146.5
 20
-134.750001
 30
0.0
 40
1.0
 50
270.0
 51
90.0
  0
LINE
  8
DETAIL
  6
CONTINUOUS
 62
     5
 10
-135.75
 20
-149.000001
 30
0.0
 11
-147.0
 21
-149.000001
 31
0.0
  0
LINE
  8
DETAIL
  6
CONTINUOUS
 62
     5
 10
-149.0
 20
-133.750001
 30
0.0
 11
-149.5
 21
-133.750001
 31
0.0
  0
LINE
  8
DETAIL
  6
CONTINUOUS
 62
     5
 10
-133.75
 20
-149.000001
 30
0.0
 11
-133.75
 21
-146.500001
 31
0.0
  0
LINE
  8
DETAIL
  6
CONTINUOUS
 62
     5
 10
-105.0
 20
-149.000001
 30
0.0
 11
-105.0
 21
-149.500001
 31
0.0
  0
CIRCLE
  8
DETAIL
  6
CONTINUOUS
 62
     5
 10
-140.0
 20
-140.000001
 30
0.0
 40
4.0
  0
LINE
  8
DETAIL
  6
CONTINUOUS
 62
     5
 10
-122.25
 20
-154.500001
 30
0.0
 11
-116.25
 21
-154.500001
 31
0.0
  0
LINE
  8
DETAIL
  6
CONTINUOUS
 62
     5
 10
-150.0
 20
-152.000001
 30
0.0
 11
-133.75
 21
-152.000001
 31
0.0
  0
LINE
  8
DETAIL
  6
CONTINUOUS
 62
     5
 10
-150.0
 20
-151.000001
 30
0.0
 11
-133.75
 21
-151.000001
 31
0.0
  0
LINE
  8
DETAIL
  6
CONTINUOUS
 62
     5
 10
77.0
 20
-148.000001
 30
0.0
 11
-94.5
 21
-148.000001
 31
0.0
  0
LINE
  8
DETAIL
  6
CONTINUOUS
 62
     5
 10
-105.0
 20
-152.000001
 30
0.0
 11
77.0
 21
-152.000001
 31
0.0
  0
LINE
  8
DETAIL
  6
CONTINUOUS
 62
     5
 10
-105.0
 20
-151.000001
 30
0.0
 11
-97.5
 21
-151.000001
 31
0.0
  0
LINE
  8
DETAIL
  6
CONTINUOUS
 62
     5
 10
-94.5
 20
-148.000001
 30
0.0
 11
-97.5
 21
-151.000001
 31
0.0
  0
LINE
  8
DETAIL
  6
CONTINUOUS
 62
     5
 10
-97.5
 20
-151.000001
 30
0.0
 11
-97.5
 21
-152.000001
 31
0.0
  0
LINE
  8
DETAIL
  6
CONTINUOUS
 62
     5
 10
-115.25
 20
-153.500001
 30
0.0
 11
-115.25
 21
-153.200001
 31
0.0
  0
LINE
  8
DETAIL
  6
CONTINUOUS
 62
     5
 10
-123.25
 20
-153.500001
 30
0.0
 11
-123.25
 21
-153.200001
 31
0.0
  0
LINE
  8
DETAIL
  6
CONTINUOUS
 62
     5
 10
-148.0
 20
-152.000001
 30
0.0
 11
-148.0
 21
-151.000001
 31
0.0
  0
LINE
  8
DETAIL
  6
CONTINUOUS
 62
     5
 10
-150.0
 20
-152.000001
 30
0.0
 11
-150.0
 21
-151.000001
 31
0.0
  0
LINE
  8
DETAIL
  6
CONTINUOUS
 62
     5
 10
-116.25
 20
-154.500001
 30
0.0
 11
-115.25
 21
-153.500001
 31
0.0
  0
LINE
  8
DETAIL
  6
CONTINUOUS
 62
     5
 10
-122.25
 20
-154.500001
 30
0.0
 11
-123.25
 21
-153.500001
 31
0.0
  0
LINE
  8
DETAIL
  6
CONTINUOUS
 62
     5
 10
-152.0
 20
-76.000001
 30
0.0
 11
-152.8
 21
-76.000001
 31
0.0
  0
LINE
  8
DETAIL
  6
CONTINUOUS
 62
     5
 10
-152.8
 20
-58.900001
 30
0.0
 11
-152.8
 21
-76.000001
 31
0.0
  0
LINE
  8
DETAIL
  6
CONTINUOUS
 62
     5
 10
-152.0
 20
-58.900001
 30
0.0
 11
-152.8
 21
-58.900001
 31
0.0
  0
LINE
  8
DETAIL
  6
CONTINUOUS
 62
     5
 10
-152.0
 20
-58.900001
 30
0.0
 11
-152.0
 21
-76.000001
 31
0.0
  0
ARC
  8
DETAIL
  6
CONTINUOUS
 62
     5
 10
-149.2
 20
-68.500001
 30
0.0
 40
6.1
 50
129.601983
 51
230.398035
  0
LINE
  8
DETAIL
  6
CONTINUOUS
 62
     5
 10
-152.8
 20
-73.2
 30
0.0
 11
-152.8
 21
-63.800001
 31
0.0
  0
LINE
  8
DETAIL
  6
CONTINUOUS
 62
     5
 10
-152.8
 20
-63.800001
 30
0.0
 11
-153.088445
 21
-63.800001
 31
0.0
  0
LINE
  8
DETAIL
  6
CONTINUOUS
 62
     5
 10
-152.8
 20
-73.2
 30
0.0
 11
-153.088445
 21
-73.2
 31
0.0
  0
LINE
  8
DETAIL
  6
CONTINUOUS
 62
     5
 10
-153.088445
 20
-63.800001
 30
0.0
 11
-153.088445
 21
-73.2
 31
0.0
  0
LINE
  8
DETAIL
  6
CONTINUOUS
 62
     5
 10
-144.880415
 20
-139.42934
 30
0.0
 11
-143.986954
 21
-140.322801
 31
0.0
  0
LINE
  8
DETAIL
  6
CONTINUOUS
 62
     5
 10
-139.429339
 20
-144.880416
 30
0.0
 11
-140.3228
 21
-143.986954
 31
0.0
  0
LINE
  8
DETAIL
  6
CONTINUOUS
 62
     5
 10
-133.75
 20
-146.821782
 30
0.0
 11
-135.75
 21
-146.821782
 31
0.0
  0
LINE
  8
DETAIL
  6
CONTINUOUS
 62
     5
 10
-146.821782
 20
-133.750001
 30
0.0
 11
-146.821782
 21
-135.750001
 31
0.0
  0
LINE
  8
DETAIL
  6
CONTINUOUS
 62
     5
 10
77.0
 20
-155.000001
 30
0.0
 11
-155.0
 21
-155.000001
 31
0.0
  0
LINE
  8
DETAIL
  6
CONTINUOUS
 62
     5
 10
-155.0
 20
-155.000001
 30
0.0
 11
-155.0
 21
76.999999
 31
0.0
  0
LINE
  8
DETAIL
  6
CONTINUOUS
 62
     5
 10
153.2
 20
-113.25
 30
0.0
 11
162.75
 21
-113.25
 31
0.0
  0
LINE
  8
DETAIL
  6
CONTINUOUS
 62
     5
 10
153.2
 20
-125.25
 30
0.0
 11
162.75
 21
-125.25
 31
0.0
  0
LINE
  8
DETAIL
  6
CONTINUOUS
 62
     5
 10
149.5
 20
-133.75
 30
0.0
 11
149.5
 21
-148.5
 31
0.0
  0
LINE
  8
DETAIL
  6
CONTINUOUS
 62
     5
 10
150.5
 20
-133.75
 30
0.0
 11
150.5
 21
-148.5
 31
0.0
  0
LINE
  8
DETAIL
  6
CONTINUOUS
 62
     5
 10
133.75
 20
-149.5
 30
0.0
 11
147.5
 21
-149.5
 31
0.0
  0
LINE
  8
DETAIL
  6
CONTINUOUS
 62
     5
 10
105.0
 20
-150.5
 30
0.0
 11
97.0
 21
-150.5
 31
0.0
  0
LINE
  8
DETAIL
  6
CONTINUOUS
 62
     5
 10
150.5
 20
-97.0
 30
0.0
 11
150.5
 21
-105.0
 31
0.0
  0
LINE
  8
DETAIL
  6
CONTINUOUS
 62
     5
 10
149.5
 20
-96.0
 30
0.0
 11
149.5
 21
-105.0
 31
0.0
  0
LINE
  8
DETAIL
  6
CONTINUOUS
 62
     5
 10
152.0
 20
-148.5
 30
0.0
 11
162.75
 21
-148.5
 31
0.0
  0
LINE
  8
DETAIL
  6
CONTINUOUS
 62
     5
 10
96.0
 20
-149.5
 30
0.0
 11
105.0
 21
-149.5
 31
0.0
  0
LINE
  8
DETAIL
  6
CONTINUOUS
 62
     5
 10
147.5
 20
-151.0
 30
0.0
 11
147.5
 21
-150.5
 31
0.0
  0
LINE
  8
DETAIL
  6
CONTINUOUS
 62
     5
 10
148.5
 20
-147.5
 30
0.0
 11
148.5
 21
-148.5
 31
0.0
  0
LINE
  8
DETAIL
  6
CONTINUOUS
 62
     5
 10
149.5
 20
-135.5
 30
0.0
 11
149.0
 21
-135.5
 31
0.0
  0
LINE
  8
DETAIL
  6
CONTINUOUS
 62
     5
 10
149.5
 20
-137.5
 30
0.0
 11
149.0
 21
-137.5
 31
0.0
  0
LINE
  8
DETAIL
  6
CONTINUOUS
 62
     5
 10
147.5
 20
-162.75
 30
0.0
 11
147.5
 21
-153.0
 31
0.0
  0
LINE
  8
DETAIL
  6
CONTINUOUS
 62
     5
 10
148.5
 20
-135.5
 30
0.0
 11
148.5
 21
-135.75
 31
0.0
  0
LINE
  8
DETAIL
  6
CONTINUOUS
 62
     5
 10
150.5
 20
-146.5
 30
0.0
 11
149.5
 21
-146.5
 31
0.0
  0
LINE
  8
DETAIL
  6
CONTINUOUS
 62
     5
 10
149.5
 20
-148.5
 30
0.0
 11
151.0
 21
-148.5
 31
0.0
  0
LINE
  8
DETAIL
  6
CONTINUOUS
 62
     5
 10
147.5
 20
-150.5
 30
0.0
 11
133.75
 21
-150.5
 31
0.0
  0
LINE
  8
DETAIL
  6
CONTINUOUS
 62
     5
 10
162.75
 20
-148.5
 30
0.0
 11
162.75
 21
-125.25
 31
0.0
  0
LINE
  8
DETAIL
  6
CONTINUOUS
 62
     5
 10
162.75
 20
-113.25
 30
0.0
 11
162.75
 21
77.0
 31
0.0
  0
LINE
  8
DETAIL
  6
CONTINUOUS
 62
     5
 10
-77.0
 20
-162.75
 30
0.0
 11
147.5
 21
-162.75
 31
0.0
  0
ARC
  8
DETAIL
  6
CONTINUOUS
 62
     5
 10
147.5
 20
-148.5
 30
0.0
 40
1.0
 50
330.0
 51
0.0
  0
ARC
  8
DETAIL
  6
CONTINUOUS
 62
     5
 10
147.5
 20
-148.5
 30
0.0
 40
2.0
 50
270.0
 51
0.0
  0
LINE
  8
DETAIL
  6
CONTINUOUS
 62
     5
 10
149.0
 20
-135.5
 30
0.0
 11
148.5
 21
-135.5
 31
0.0
  0
ARC
  8
DETAIL
  6
CONTINUOUS
 62
     5
 10
147.5
 20
-148.5
 30
0.0
 40
1.0
 50
270.0
 51
330.0
  0
LINE
  8
DETAIL
  6
CONTINUOUS
 62
     5
 10
95.5
 20
-149.0
 30
0.0
 11
105.0
 21
-149.0
 31
0.0
  0
LINE
  8
DETAIL
  6
CONTINUOUS
 62
     5
 10
133.75
 20
-149.0
 30
0.0
 11
148.366025
 21
-149.0
 31
0.0
  0
LINE
  8
DETAIL
  6
CONTINUOUS
 62
     5
 10
149.436492
 20
-149.0
 30
0.0
 11
163.0
 21
-149.0
 31
0.0
  0
LINE
  8
DETAIL
  6
CONTINUOUS
 62
     5
 10
-77.0
 20
-195.0
 30
0.0
 11
185.0
 21
-195.0
 31
0.0
  0
ARC
  8
DETAIL
  6
CONTINUOUS
 62
     5
 10
185.0
 20
-185.0
 30
0.0
 40
10.0
 50
270.0
 51
0.0
  0
LINE
  8
DETAIL
  6
CONTINUOUS
 62
     5
 10
195.0
 20
-185.0
 30
0.0
 11
195.0
 21
-165.0
 31
0.0
  0
LINE
  8
DETAIL
  6
CONTINUOUS
 62
     5
 10
-77.0
 20
-163.0
 30
0.0
 11
163.0
 21
-163.0
 31
0.0
  0
LINE
  8
DETAIL
  6
CONTINUOUS
 62
     5
 10
163.0
 20
-149.0
 30
0.0
 11
163.0
 21
-165.0
 31
0.0
  0
LINE
  8
DETAIL
  6
CONTINUOUS
 62
     5
 10
163.0
 20
-165.0
 30
0.0
 11
165.0
 21
-165.0
 31
0.0
  0
LINE
  8
DETAIL
  6
CONTINUOUS
 62
     5
 10
165.0
 20
-165.0
 30
0.0
 11
195.0
 21
-165.0
 31
0.0
  0
LINE
  8
DETAIL
  6
CONTINUOUS
 62
     5
 10
152.0
 20
-149.0
 30
0.0
 11
163.0
 21
-149.0
 31
0.0
  0
LINE
  8
DETAIL
  6
CONTINUOUS
 62
     5
 10
149.0
 20
-105.0
 30
0.0
 11
149.0
 21
-95.5
 31
0.0
  0
LINE
  8
DETAIL
  6
CONTINUOUS
 62
     5
 10
149.0
 20
-135.5
 30
0.0
 11
149.0
 21
-133.75
 31
0.0
  0
LINE
  8
DETAIL
  6
CONTINUOUS
 62
     5
 10
149.436492
 20
-149.0
 30
0.0
 11
151.0
 21
-149.0
 31
0.0
  0
LINE
  8
DETAIL
  6
CONTINUOUS
 62
     5
 10
195.0
 20
-165.0
 30
0.0
 11
195.0
 21
77.0
 31
0.0
  0
LINE
  8
DETAIL
  6
CONTINUOUS
 62
     5
 10
165.0
 20
-165.0
 30
0.0
 11
165.0
 21
-163.5
 31
0.0
  0
ARC
  8
DETAIL
  6
CONTINUOUS
 62
     5
 10
185.0
 20
-185.0
 30
0.0
 40
10.0
 50
270.0
 51
0.0
  0
LINE
  8
DETAIL
  6
CONTINUOUS
 62
     5
 10
195.0
 20
-185.0
 30
0.0
 11
195.0
 21
-165.0
 31
0.0
  0
LINE
  8
DETAIL
  6
CONTINUOUS
 62
     5
 10
163.8
 20
-163.5
 30
0.0
 11
163.8
 21
77.0
 31
0.0
  0
LINE
  8
DETAIL
  6
CONTINUOUS
 62
     5
 10
163.0
 20
-149.0
 30
0.0
 11
163.0
 21
77.0
 31
0.0
  0
LINE
  8
DETAIL
  6
CONTINUOUS
 62
     5
 10
163.0
 20
-163.5
 30
0.0
 11
163.0
 21
-149.0
 31
0.0
  0
LINE
  8
DETAIL
  6
CONTINUOUS
 62
     5
 10
163.0
 20
-163.5
 30
0.0
 11
165.0
 21
-163.5
 31
0.0
  0
LINE
  8
DETAIL
  6
CONTINUOUS
 62
     5
 10
165.0
 20
-164.5
 30
0.0
 11
195.0
 21
-164.5
 31
0.0
  0
LINE
  8
DETAIL
  6
CONTINUOUS
 62
     5
 10
165.0
 20
-195.0
 30
0.0
 11
185.0
 21
-195.0
 31
0.0
  0
LINE
  8
DETAIL
  6
CONTINUOUS
 62
     5
 10
151.0
 20
-133.75
 30
0.0
 11
151.0
 21
-151.0
 31
0.0
  0
LINE
  8
DETAIL
  6
CONTINUOUS
 62
     5
 10
152.0
 20
-133.75
 30
0.0
 11
152.0
 21
-151.0
 31
0.0
  0
LINE
  8
DETAIL
  6
CONTINUOUS
 62
     5
 10
152.0
 20
77.0
 30
0.0
 11
152.0
 21
-105.0
 31
0.0
  0
LINE
  8
DETAIL
  6
CONTINUOUS
 62
     5
 10
137.0
 20
-153.0
 30
0.0
 11
137.0
 21
-152.0
 31
0.0
  0
LINE
  8
DETAIL
  6
CONTINUOUS
 62
     5
 10
139.0
 20
-153.0
 30
0.0
 11
139.0
 21
-152.0
 31
0.0
  0
LINE
  8
DETAIL
  6
CONTINUOUS
 62
     5
 10
148.0
 20
-94.5
 30
0.0
 11
148.0
 21
77.0
 31
0.0
  0
LINE
  8
DETAIL
  6
CONTINUOUS
 62
     5
 10
151.0
 20
-97.5
 30
0.0
 11
151.0
 21
-105.0
 31
0.0
  0
LINE
  8
DETAIL
  6
CONTINUOUS
 62
     5
 10
148.0
 20
-94.5
 30
0.0
 11
151.0
 21
-97.5
 31
0.0
  0
LINE
  8
DETAIL
  6
CONTINUOUS
 62
     5
 10
152.0
 20
-97.5
 30
0.0
 11
151.0
 21
-97.5
 31
0.0
  0
LINE
  8
DETAIL
  6
CONTINUOUS
 62
     5
 10
137.0
 20
-152.0
 30
0.0
 11
150.0
 21
-152.0
 31
0.0
  0
LINE
  8
DETAIL
  6
CONTINUOUS
 62
     5
 10
137.0
 20
-153.0
 30
0.0
 11
150.0
 21
-153.0
 31
0.0
  0
ARC
  8
DETAIL
  6
CONTINUOUS
 62
     5
 10
150.0
 20
-151.0
 30
0.0
 40
2.0
 50
270.0
 51
0.0
  0
ARC
  8
DETAIL
  6
CONTINUOUS
 62
     5
 10
150.0
 20
-151.0
 30
0.0
 40
1.0
 50
270.0
 51
0.0
  0
LINE
  8
DETAIL
  6
CONTINUOUS
 62
     5
 10
141.732412
 20
-135.934136
 30
0.0
 11
144.065864
 21
-138.267589
 31
0.0
  0
ARC
  8
DETAIL
  6
CONTINUOUS
 62
     5
 10
138.833274
 20
-138.833274
 30
0.0
 40
4.1
 50
45.0
 51
225.0
  0
LINE
  8
DETAIL
  6
CONTINUOUS
 62
     5
 10
135.934136
 20
-141.732412
 30
0.0
 11
138.267588
 21
-144.065864
 31
0.0
  0
ARC
  8
DETAIL
  6
CONTINUOUS
 62
     5
 10
141.166726
 20
-141.166726
 30
0.0
 40
4.1
 50
225.0
 51
45.0
  0
LINE
  8
DETAIL
  6
CONTINUOUS
 62
     5
 10
149.0
 20
-105.0
 30
0.0
 11
153.2
 21
-105.0
 31
0.0
  0
LINE
  8
DETAIL
  6
CONTINUOUS
 62
     5
 10
105.0
 20
-153.2
 30
0.0
 11
105.0
 21
-149.0
 31
0.0
  0
LINE
  8
DETAIL
  6
CONTINUOUS
 62
     5
 10
153.2
 20
-133.75
 30
0.0
 11
146.5
 21
-133.75
 31
0.0
  0
LINE
  8
DETAIL
  6
CONTINUOUS
 62
     5
 10
146.5
 20
-135.75
 30
0.0
 11
149.0
 21
-135.75
 31
0.0
  0
LINE
  8
DETAIL
  6
CONTINUOUS
 62
     5
 10
133.75
 20
-146.5
 30
0.0
 11
133.75
 21
-153.2
 31
0.0
  0
LINE
  8
DETAIL
  6
CONTINUOUS
 62
     5
 10
135.75
 20
-149.0
 30
0.0
 11
135.75
 21
-146.5
 31
0.0
  0
LINE
  8
DETAIL
  6
CONTINUOUS
 62
     5
 10
147.0
 20
-149.0
 30
0.0
 11
135.75
 21
-149.0
 31
0.0
  0
LINE
  8
DETAIL
  6
CONTINUOUS
 62
     5
 10
105.0
 20
-153.2
 30
0.0
 11
133.75
 21
-153.2
 31
0.0
  0
LINE
  8
DETAIL
  6
CONTINUOUS
 62
     5
 10
149.0
 20
-135.75
 30
0.0
 11
149.0
 21
-147.0
 31
0.0
  0
LINE
  8
DETAIL
  6
CONTINUOUS
 62
     5
 10
153.2
 20
-133.75
 30
0.0
 11
153.2
 21
-105.0
 31
0.0
  0
LINE
  8
DETAIL
  6
CONTINUOUS
 62
     5
 10
148.964466
 20
-95.464466
 30
0.0
 11
101.464466
 21
-142.964466
 31
0.0
  0
LINE
  8
DETAIL
  6
CONTINUOUS
 62
     5
 10
147.0
 20
-149.0
 30
0.0
 11
149.0
 21
-147.0
 31
0.0
  0
CIRCLE
  8
DETAIL
  6
CONTINUOUS
 62
     5
 10
140.0
 20
-140.0
 30
0.0
 40
4.0
  0
ARC
  8
DETAIL
  6
CONTINUOUS
 62
     5
 10
146.5
 20
-134.75
 30
0.0
 40
1.0
 50
90.0
 51
270.0
  0
ARC
  8
DETAIL
  6
CONTINUOUS
 62
     5
 10
134.75
 20
-146.5
 30
0.0
 40
1.0
 50
0.0
 51
180.0
  0
ARC
  8
DETAIL
  6
CONTINUOUS
 62
     5
 10
138.833274
 20
-138.833274
 30
0.0
 40
4.1
 50
45.0
 51
225.0
  0
ARC
  8
DETAIL
  6
CONTINUOUS
 62
     5
 10
141.166726
 20
-141.166726
 30
0.0
 40
4.1
 50
225.0
 51
45.0
  0
LINE
  8
DETAIL
  6
CONTINUOUS
 62
     5
 10
141.732412
 20
-135.934136
 30
0.0
 11
144.065864
 21
-138.267589
 31
0.0
  0
LINE
  8
DETAIL
  6
CONTINUOUS
 62
     5
 10
135.934136
 20
-141.732412
 30
0.0
 11
138.267588
 21
-144.065864
 31
0.0
  0
LINE
  8
DETAIL
  6
CONTINUOUS
 62
     5
 10
148.5
 20
-147.5
 30
0.0
 11
147.0
 21
-149.0
 31
0.0
  0
LINE
  8
DETAIL
  6
CONTINUOUS
 62
     5
 10
148.5
 20
-135.75
 30
0.0
 11
146.5
 21
-135.75
 31
0.0
  0
LINE
  8
DETAIL
  6
CONTINUOUS
 62
     5
 10
105.0
 20
-149.0
 30
0.0
 11
105.0
 21
-149.0
 31
0.0
  0
LINE
  8
DETAIL
  6
CONTINUOUS
 62
     5
 10
149.5
 20
-105.0
 30
0.0
 11
149.0
 21
-105.0
 31
0.0
  0
LINE
  8
DETAIL
  6
CONTINUOUS
 62
     5
 10
133.75
 20
-149.5
 30
0.0
 11
133.75
 21
-149.0
 31
0.0
  0
LINE
  8
DETAIL
  6
CONTINUOUS
 62
     5
 10
135.75
 20
-146.5
 30
0.0
 11
135.75
 21
-149.0
 31
0.0
  0
LINE
  8
DETAIL
  6
CONTINUOUS
 62
     5
 10
148.3
 20
-131.75
 30
0.0
 11
149.5
 21
-131.75
 31
0.0
  0
LINE
  8
DETAIL
  6
CONTINUOUS
 62
     5
 10
146.5
 20
-133.75
 30
0.0
 11
149.0
 21
-133.75
 31
0.0
  0
LINE
  8
DETAIL
  6
CONTINUOUS
 62
     5
 10
95.464466
 20
-148.964466
 30
0.0
 11
148.964466
 21
-95.464466
 31
0.0
  0
ARC
  8
DETAIL
  6
CONTINUOUS
 62
     5
 10
134.75
 20
-146.5
 30
0.0
 40
1.0
 50
0.0
 51
180.0
  0
ARC
  8
DETAIL
  6
CONTINUOUS
 62
     5
 10
146.5
 20
-134.75
 30
0.0
 40
1.0
 50
90.0
 51
270.0
  0
LINE
  8
DETAIL
  6
CONTINUOUS
 62
     5
 10
135.75
 20
-149.0
 30
0.0
 11
147.0
 21
-149.0
 31
0.0
  0
LINE
  8
DETAIL
  6
CONTINUOUS
 62
     5
 10
149.0
 20
-105.0
 30
0.0
 11
149.0
 21
-105.0
 31
0.0
  0
LINE
  8
DETAIL
  6
CONTINUOUS
 62
     5
 10
149.0
 20
-133.75
 30
0.0
 11
149.5
 21
-133.75
 31
0.0
  0
LINE
  8
DETAIL
  6
CONTINUOUS
 62
     5
 10
133.75
 20
-149.0
 30
0.0
 11
133.75
 21
-146.5
 31
0.0
  0
LINE
  8
DETAIL
  6
CONTINUOUS
 62
     5
 10
105.0
 20
-149.0
 30
0.0
 11
105.0
 21
-149.5
 31
0.0
  0
CIRCLE
  8
DETAIL
  6
CONTINUOUS
 62
     5
 10
140.0
 20
-140.0
 30
0.0
 40
4.0
  0
LINE
  8
DETAIL
  6
CONTINUOUS
 62
     5
 10
122.25
 20
-154.5
 30
0.0
 11
116.25
 21
-154.5
 31
0.0
  0
LINE
  8
DETAIL
  6
CONTINUOUS
 62
     5
 10
150.0
 20
-152.0
 30
0.0
 11
133.75
 21
-152.0
 31
0.0
  0
LINE
  8
DETAIL
  6
CONTINUOUS
 62
     5
 10
150.0
 20
-151.0
 30
0.0
 11
133.75
 21
-151.0
 31
0.0
  0
LINE
  8
DETAIL
  6
CONTINUOUS
 62
     5
 10
-77.0
 20
-148.0
 30
0.0
 11
94.5
 21
-148.0
 31
0.0
  0
LINE
  8
DETAIL
  6
CONTINUOUS
 62
     5
 10
105.0
 20
-152.0
 30
0.0
 11
-77.0
 21
-152.0
 31
0.0
  0
LINE
  8
DETAIL
  6
CONTINUOUS
 62
     5
 10
105.0
 20
-151.0
 30
0.0
 11
97.5
 21
-151.0
 31
0.0
  0
LINE
  8
DETAIL
  6
CONTINUOUS
 62
     5
 10
94.5
 20
-148.0
 30
0.0
 11
97.5
 21
-151.0
 31
0.0
  0
LINE
  8
DETAIL
  6
CONTINUOUS
 62
     5
 10
97.5
 20
-151.0
 30
0.0
 11
97.5
 21
-152.0
 31
0.0
  0
LINE
  8
DETAIL
  6
CONTINUOUS
 62
     5
 10
115.25
 20
-153.5
 30
0.0
 11
115.25
 21
-153.2
 31
0.0
  0
LINE
  8
DETAIL
  6
CONTINUOUS
 62
     5
 10
123.25
 20
-153.5
 30
0.0
 11
123.25
 21
-153.2
 31
0.0
  0
LINE
  8
DETAIL
  6
CONTINUOUS
 62
     5
 10
148.0
 20
-152.0
 30
0.0
 11
148.0
 21
-151.0
 31
0.0
  0
LINE
  8
DETAIL
  6
CONTINUOUS
 62
     5
 10
150.0
 20
-152.0
 30
0.0
 11
150.0
 21
-151.0
 31
0.0
  0
LINE
  8
DETAIL
  6
CONTINUOUS
 62
     5
 10
116.25
 20
-154.5
 30
0.0
 11
115.25
 21
-153.5
 31
0.0
  0
LINE
  8
DETAIL
  6
CONTINUOUS
 62
     5
 10
122.25
 20
-154.5
 30
0.0
 11
123.25
 21
-153.5
 31
0.0
  0
LINE
  8
DETAIL
  6
CONTINUOUS
 62
     5
 10
152.0
 20
-76.0
 30
0.0
 11
152.8
 21
-76.0
 31
0.0
  0
LINE
  8
DETAIL
  6
CONTINUOUS
 62
     5
 10
152.8
 20
-58.9
 30
0.0
 11
152.8
 21
-76.0
 31
0.0
  0
LINE
  8
DETAIL
  6
CONTINUOUS
 62
     5
 10
152.0
 20
-58.9
 30
0.0
 11
152.8
 21
-58.9
 31
0.0
  0
LINE
  8
DETAIL
  6
CONTINUOUS
 62
     5
 10
152.0
 20
-58.9
 30
0.0
 11
152.0
 21
-76.0
 31
0.0
  0
ARC
  8
DETAIL
  6
CONTINUOUS
 62
     5
 10
149.2
 20
-68.5
 30
0.0
 40
6.1
 50
309.601965
 51
50.398017
  0
LINE
  8
DETAIL
  6
CONTINUOUS
 62
     5
 10
152.8
 20
-73.2
 30
0.0
 11
152.8
 21
-63.800001
 31
0.0
  0
LINE
  8
DETAIL
  6
CONTINUOUS
 62
     5
 10
152.8
 20
-63.800001
 30
0.0
 11
153.088445
 21
-63.800001
 31
0.0
  0
LINE
  8
DETAIL
  6
CONTINUOUS
 62
     5
 10
152.8
 20
-73.2
 30
0.0
 11
153.088445
 21
-73.2
 31
0.0
  0
LINE
  8
DETAIL
  6
CONTINUOUS
 62
     5
 10
153.088445
 20
-63.800001
 30
0.0
 11
153.088445
 21
-73.2
 31
0.0
  0
LINE
  8
DETAIL
  6
CONTINUOUS
 62
     5
 10
144.880415
 20
-139.429339
 30
0.0
 11
143.986954
 21
-140.322801
 31
0.0
  0
LINE
  8
DETAIL
  6
CONTINUOUS
 62
     5
 10
139.429339
 20
-144.880415
 30
0.0
 11
140.3228
 21
-143.986954
 31
0.0
  0
LINE
  8
DETAIL
  6
CONTINUOUS
 62
     5
 10
133.75
 20
-146.821782
 30
0.0
 11
135.75
 21
-146.821782
 31
0.0
  0
LINE
  8
DETAIL
  6
CONTINUOUS
 62
     5
 10
146.821782
 20
-133.75
 30
0.0
 11
146.821782
 21
-135.75
 31
0.0
  0
LINE
  8
DETAIL
  6
CONTINUOUS
 62
     5
 10
-77.0
 20
-155.0
 30
0.0
 11
155.0
 21
-155.0
 31
0.0
  0
LINE
  8
DETAIL
  6
CONTINUOUS
 62
     5
 10
155.0
 20
-155.0
 30
0.0
 11
155.0
 21
77.0
 31
0.0
  0
LINE
  8
OUTLINE
  6
CONTINUOUS
 62
     3
 10
77.0
 20
194.999999
 30
0.0
 11
-185.0
 21
194.999999
 31
0.0
  0
ARC
  8
OUTLINE
  6
CONTINUOUS
 62
     3
 10
-185.0
 20
184.999999
 30
0.0
 40
10.0
 50
90.0
 51
180.0
  0
LINE
  8
OUTLINE
  6
CONTINUOUS
 62
     3
 10
-195.0
 20
184.999999
 30
0.0
 11
-195.0
 21
164.999999
 31
0.0
  0
LINE
  8
OUTLINE
  6
CONTINUOUS
 62
     3
 10
-195.0
 20
164.999999
 30
0.0
 11
-195.0
 21
-77.000001
 31
0.0
  0
ARC
  8
OUTLINE
  6
CONTINUOUS
 62
     3
 10
-185.0
 20
184.999999
 30
0.0
 40
10.0
 50
90.0
 51
180.0
  0
LINE
  8
OUTLINE
  6
CONTINUOUS
 62
     3
 10
-195.0
 20
184.999999
 30
0.0
 11
-195.0
 21
164.999999
 31
0.0
  0
LINE
  8
OUTLINE
  6
CONTINUOUS
 62
     3
 10
-165.0
 20
194.999999
 30
0.0
 11
-185.0
 21
194.999999
 31
0.0
  0
LINE
  8
OUTLINE
  6
CONTINUOUS
 62
     3
 10
-77.0
 20
195.0
 30
0.0
 11
185.0
 21
195.0
 31
0.0
  0
ARC
  8
OUTLINE
  6
CONTINUOUS
 62
     3
 10
185.0
 20
185.0
 30
0.0
 40
10.0
 50
0.0
 51
90.0
  0
LINE
  8
OUTLINE
  6
CONTINUOUS
 62
     3
 10
195.0
 20
185.0
 30
0.0
 11
195.0
 21
165.0
 31
0.0
  0
LINE
  8
OUTLINE
  6
CONTINUOUS
 62
     3
 10
195.0
 20
165.0
 30
0.0
 11
195.0
 21
-77.0
 31
0.0
  0
ARC
  8
OUTLINE
  6
CONTINUOUS
 62
     3
 10
185.0
 20
185.0
 30
0.0
 40
10.0
 50
0.0
 51
90.0
  0
LINE
  8
OUTLINE
  6
CONTINUOUS
 62
     3
 10
195.0
 20
185.0
 30
0.0
 11
195.0
 21
165.0
 31
0.0
  0
LINE
  8
OUTLINE
  6
CONTINUOUS
 62
     3
 10
165.0
 20
195.0
 30
0.0
 11
185.0
 21
195.0
 31
0.0
  0
LINE
  8
OUTLINE
  6
CONTINUOUS
 62
     3
 10
77.0
 20
-195.000001
 30
0.0
 11
-185.0
 21
-195.000001
 31
0.0
  0
ARC
  8
OUTLINE
  6
CONTINUOUS
 62
     3
 10
-185.0
 20
-185.000001
 30
0.0
 40
10.0
 50
180.0
 51
270.0
  0
LINE
  8
OUTLINE
  6
CONTINUOUS
 62
     3
 10
-195.0
 20
-185.000001
 30
0.0
 11
-195.0
 21
-165.000001
 31
0.0
  0
LINE
  8
OUTLINE
  6
CONTINUOUS
 62
     3
 10
-195.0
 20
-165.000001
 30
0.0
 11
-195.0
 21
76.999999
 31
0.0
  0
ARC
  8
OUTLINE
  6
CONTINUOUS
 62
     3
 10
-185.0
 20
-185.000001
 30
0.0
 40
10.0
 50
180.0
 51
270.0
  0
LINE
  8
OUTLINE
  6
CONTINUOUS
 62
     3
 10
-195.0
 20
-185.000001
 30
0.0
 11
-195.0
 21
-165.000001
 31
0.0
  0
LINE
  8
OUTLINE
  6
CONTINUOUS
 62
     3
 10
-165.0
 20
-195.000001
 30
0.0
 11
-185.0
 21
-195.000001
 31
0.0
  0
LINE
  8
OUTLINE
  6
CONTINUOUS
 62
     3
 10
-77.0
 20
-195.0
 30
0.0
 11
185.0
 21
-195.0
 31
0.0
  0
ARC
  8
OUTLINE
  6
CONTINUOUS
 62
     3
 10
185.0
 20
-185.0
 30
0.0
 40
10.0
 50
270.0
 51
0.0
  0
LINE
  8
OUTLINE
  6
CONTINUOUS
 62
     3
 10
195.0
 20
-185.0
 30
0.0
 11
195.0
 21
-165.0
 31
0.0
  0
LINE
  8
OUTLINE
  6
CONTINUOUS
 62
     3
 10
195.0
 20
-165.0
 30
0.0
 11
195.0
 21
77.0
 31
0.0
  0
ARC
  8
OUTLINE
  6
CONTINUOUS
 62
     3
 10
185.0
 20
-185.0
 30
0.0
 40
10.0
 50
270.0
 51
0.0
  0
LINE
  8
OUTLINE
  6
CONTINUOUS
 62
     3
 10
195.0
 20
-185.0
 30
0.0
 11
195.0
 21
-165.0
 31
0.0
  0
LINE
  8
OUTLINE
  6
CONTINUOUS
 62
     3
 10
165.0
 20
-195.0
 30
0.0
 11
185.0
 21
-195.0
 31
0.0
  0
CIRCLE
  8
DETAIL
  6
CONTINUOUS
 62
     5
 39
31.25
 10
180.0
 20
180.0
 30
0.0
 40
5.0
  0
CIRCLE
  8
DETAIL
  6
CONTINUOUS
 62
     5
 39
31.25
 10
-180.0
 20
179.999999
 30
0.0
 40
5.0
  0
CIRCLE
  8
DETAIL
  6
CONTINUOUS
 62
     5
 39
31.25
 10
-180.0
 20
-180.000001
 30
0.0
 40
5.0
  0
CIRCLE
  8
DETAIL
  6
CONTINUOUS
 62
     5
 39
31.25
 10
180.0
 20
-180.0
 30
0.0
 40
5.0
  0
CIRCLE
  8
FIX
  6
CONTINUOUS
 62
    11
 39
31.25
 10
180.0
 20
-180.0
 30
0.0
 40
5.0
  0
CIRCLE
  8
FIX
  6
CONTINUOUS
 62
    11
 39
31.25
 10
180.0
 20
180.0
 30
0.0
 40
5.0
  0
CIRCLE
  8
FIX
  6
CONTINUOUS
 62
    11
 39
31.25
 10
-180.0
 20
179.999999
 30
0.0
 40
5.0
  0
CIRCLE
  8
FIX
  6
CONTINUOUS
 62
    11
 39
31.25
 10
-180.0
 20
-180.000001
 30
0.0
 40
5.0
  0
LINE
  8
SIZE
  6
CONTINUOUS
 62
    30
 10
-195.0
 20
184.499999
 30
0.0
 11
-195.0
 21
617.045422
 31
0.0
  0
LINE
  8
SIZE
  6
CONTINUOUS
 62
    30
 10
195.0
 20
184.499999
 30
0.0
 11
195.0
 21
617.045422
 31
0.0
  0
LINE
  8
SIZE
  6
CONTINUOUS
 62
    30
 10
-183.0
 20
597.045422
 30
0.0
 11
183.0
 21
597.045422
 31
0.0
  0
CIRCLE
  8
SIZE
  6
CONTINUOUS
 62
    30
 10
-195.0
 20
597.045422
 30
0.0
 40
6.0
  0
LINE
  8
SIZE
  6
CONTINUOUS
 62
    30
 10
-195.0
 20
597.045422
 30
0.0
 11
-183.0
 21
597.045422
 31
0.0
  0
CIRCLE
  8
SIZE
  6
CONTINUOUS
 62
    30
 10
195.0
 20
597.045422
 30
0.0
 40
6.0
  0
LINE
  8
SIZE
  6
CONTINUOUS
 62
    30
 10
195.0
 20
597.045422
 30
0.0
 11
183.0
 21
597.045422
 31
0.0
  0
TEXT
  8
SIZE
  6
CONTINUOUS
 62
    30
 10
-80.928
 20
622.045422
 30
0.0
 40
64.0
  1
390
 50
0.0
 41
0.9
 51
0.0
  7
STANDARD
 71
     0
 72
     1
 11
0.0
 21
622.045422
 31
0.0
210
0.0
220
0.0
230
1.0
  0
POINT
  8
DEFPOINTS
  6
CONTINUOUS
 62
    30
 10
-195.0
 20
164.499999
 30
0.0
  0
POINT
  8
DEFPOINTS
  6
CONTINUOUS
 62
    30
 10
195.0
 20
164.499999
 30
0.0
  0
POINT
  8
DEFPOINTS
  6
CONTINUOUS
 62
    30
 10
195.0
 20
597.045422
 30
0.0
  0
LINE
  8
SIZE
  6
CONTINUOUS
 62
    30
 10
-180.0
 20
219.999999
 30
0.0
 11
-180.0
 21
517.236306
 31
0.0
  0
LINE
  8
SIZE
  6
CONTINUOUS
 62
    30
 10
180.0
 20
220.0
 30
0.0
 11
180.0
 21
517.236306
 31
0.0
  0
LINE
  8
SIZE
  6
CONTINUOUS
 62
    30
 10
-168.0
 20
497.236306
 30
0.0
 11
168.0
 21
497.236306
 31
0.0
  0
CIRCLE
  8
SIZE
  6
CONTINUOUS
 62
    30
 10
-180.0
 20
497.236306
 30
0.0
 40
6.0
  0
LINE
  8
SIZE
  6
CONTINUOUS
 62
    30
 10
-180.0
 20
497.236306
 30
0.0
 11
-168.0
 21
497.236306
 31
0.0
  0
CIRCLE
  8
SIZE
  6
CONTINUOUS
 62
    30
 10
180.0
 20
497.236306
 30
0.0
 40
6.0
  0
LINE
  8
SIZE
  6
CONTINUOUS
 62
    30
 10
180.0
 20
497.236306
 30
0.0
 11
168.0
 21
497.236306
 31
0.0
  0
TEXT
  8
SIZE
  6
CONTINUOUS
 62
    30
 10
-80.928
 20
522.236306
 30
0.0
 40
64.0
  1
360
 50
0.0
 41
0.9
 51
0.0
  7
STANDARD
 71
     0
 72
     1
 11
0.0
 21
522.236306
 31
0.0
210
0.0
220
0.0
230
1.0
  0
POINT
  8
DEFPOINTS
  6
CONTINUOUS
 62
    30
 10
-180.0
 20
199.999999
 30
0.0
  0
POINT
  8
DEFPOINTS
  6
CONTINUOUS
 62
    30
 10
180.0
 20
200.0
 30
0.0
  0
POINT
  8
DEFPOINTS
  6
CONTINUOUS
 62
    30
 10
180.0
 20
497.236306
 30
0.0
  0
LINE
  8
SIZE
  6
CONTINUOUS
 62
    30
 10
-140.0
 20
179.999999
 30
0.0
 11
-140.0
 21
294.495207
 31
0.0
  0
LINE
  8
SIZE
  6
CONTINUOUS
 62
    30
 10
140.0
 20
179.999999
 30
0.0
 11
140.0
 21
294.495207
 31
0.0
  0
LINE
  8
SIZE
  6
CONTINUOUS
 62
    30
 10
-128.0
 20
274.495207
 30
0.0
 11
128.0
 21
274.495207
 31
0.0
  0
CIRCLE
  8
SIZE
  6
CONTINUOUS
 62
    30
 10
-140.0
 20
274.495207
 30
0.0
 40
6.0
  0
LINE
  8
SIZE
  6
CONTINUOUS
 62
    30
 10
-140.0
 20
274.495207
 30
0.0
 11
-128.0
 21
274.495207
 31
0.0
  0
CIRCLE
  8
SIZE
  6
CONTINUOUS
 62
    30
 10
140.0
 20
274.495207
 30
0.0
 40
6.0
  0
LINE
  8
SIZE
  6
CONTINUOUS
 62
    30
 10
140.0
 20
274.495207
 30
0.0
 11
128.0
 21
274.495207
 31
0.0
  0
TEXT
  8
SIZE
  6
CONTINUOUS
 62
    30
 10
-80.928
 20
299.495207
 30
0.0
 40
64.0
  1
280
 50
0.0
 41
0.9
 51
0.0
  7
STANDARD
 71
     0
 72
     1
 11
0.0
 21
299.495207
 31
0.0
210
0.0
220
0.0
230
1.0
  0
POINT
  8
DEFPOINTS
  6
CONTINUOUS
 62
    30
 10
-140.0
 20
159.999999
 30
0.0
  0
POINT
  8
DEFPOINTS
  6
CONTINUOUS
 62
    30
 10
140.0
 20
159.999999
 30
0.0
  0
POINT
  8
DEFPOINTS
  6
CONTINUOUS
 62
    30
 10
140.0
 20
274.495207
 30
0.0
  0
LINE
  8
SIZE
  6
CONTINUOUS
 62
    30
 10
-175.0
 20
139.999999
 30
0.0
 11
-296.074763
 21
139.999999
 31
0.0
  0
LINE
  8
SIZE
  6
CONTINUOUS
 62
    30
 10
-175.0
 20
-140.000001
 30
0.0
 11
-296.074763
 21
-140.000001
 31
0.0
  0
LINE
  8
SIZE
  6
CONTINUOUS
 62
    30
 10
-276.074763
 20
127.999999
 30
0.0
 11
-276.074763
 21
-128.000001
 31
0.0
  0
CIRCLE
  8
SIZE
  6
CONTINUOUS
 62
    30
 10
-276.074763
 20
139.999999
 30
0.0
 40
6.0
  0
LINE
  8
SIZE
  6
CONTINUOUS
 62
    30
 10
-276.074763
 20
139.999999
 30
0.0
 11
-276.074763
 21
127.999999
 31
0.0
  0
CIRCLE
  8
SIZE
  6
CONTINUOUS
 62
    30
 10
-276.074763
 20
-140.000001
 30
0.0
 40
6.0
  0
LINE
  8
SIZE
  6
CONTINUOUS
 62
    30
 10
-276.074763
 20
-140.000001
 30
0.0
 11
-276.074763
 21
-128.000001
 31
0.0
  0
TEXT
  8
SIZE
  6
CONTINUOUS
 62
    30
 10
-301.074763
 20
-80.928001
 30
0.0
 40
64.0
  1
280
 50
90.0
 41
0.9
 51
0.0
  7
STANDARD
 71
     0
 72
     1
 11
-301.074763
 21
-0.000001
 31
0.0
210
0.0
220
0.0
230
1.0
  0
POINT
  8
DEFPOINTS
  6
CONTINUOUS
 62
    30
 10
-155.0
 20
139.999999
 30
0.0
  0
POINT
  8
DEFPOINTS
  6
CONTINUOUS
 62
    30
 10
-155.0
 20
-140.000001
 30
0.0
  0
POINT
  8
DEFPOINTS
  6
CONTINUOUS
 62
    30
 10
-276.074763
 20
-140.000001
 30
0.0
  0
LINE
  8
SIZE
  6
CONTINUOUS
 62
    30
 10
-215.0
 20
179.999999
 30
0.0
 11
-426.385423
 21
179.999999
 31
0.0
  0
LINE
  8
SIZE
  6
CONTINUOUS
 62
    30
 10
-220.0
 20
-180.000001
 30
0.0
 11
-426.385423
 21
-180.000001
 31
0.0
  0
LINE
  8
SIZE
  6
CONTINUOUS
 62
    30
 10
-406.385423
 20
167.999999
 30
0.0
 11
-406.385423
 21
-168.000001
 31
0.0
  0
CIRCLE
  8
SIZE
  6
CONTINUOUS
 62
    30
 10
-406.385423
 20
179.999999
 30
0.0
 40
6.0
  0
LINE
  8
SIZE
  6
CONTINUOUS
 62
    30
 10
-406.385423
 20
179.999999
 30
0.0
 11
-406.385423
 21
167.999999
 31
0.0
  0
CIRCLE
  8
SIZE
  6
CONTINUOUS
 62
    30
 10
-406.385423
 20
-180.000001
 30
0.0
 40
6.0
  0
LINE
  8
SIZE
  6
CONTINUOUS
 62
    30
 10
-406.385423
 20
-180.000001
 30
0.0
 11
-406.385423
 21
-168.000001
 31
0.0
  0
TEXT
  8
SIZE
  6
CONTINUOUS
 62
    30
 10
-431.385423
 20
-80.928001
 30
0.0
 40
64.0
  1
360
 50
90.0
 41
0.9
 51
0.0
  7
STANDARD
 71
     0
 72
     1
 11
-431.385423
 21
-0.000001
 31
0.0
210
0.0
220
0.0
230
1.0
  0
POINT
  8
DEFPOINTS
  6
CONTINUOUS
 62
    30
 10
-195.0
 20
179.999999
 30
0.0
  0
POINT
  8
DEFPOINTS
  6
CONTINUOUS
 62
    30
 10
-200.0
 20
-180.000001
 30
0.0
  0
POINT
  8
DEFPOINTS
  6
CONTINUOUS
 62
    30
 10
-406.385423
 20
-180.000001
 30
0.0
  0
LINE
  8
SIZE
  6
CONTINUOUS
 62
    30
 10
-195.0
 20
194.999999
 30
0.0
 11
-570.925249
 21
194.999999
 31
0.0
  0
LINE
  8
SIZE
  6
CONTINUOUS
 62
    30
 10
-195.0
 20
-195.000001
 30
0.0
 11
-570.925249
 21
-195.000001
 31
0.0
  0
LINE
  8
SIZE
  6
CONTINUOUS
 62
    30
 10
-550.925249
 20
182.999999
 30
0.0
 11
-550.925249
 21
-183.000001
 31
0.0
  0
CIRCLE
  8
SIZE
  6
CONTINUOUS
 62
    30
 10
-550.925249
 20
194.999999
 30
0.0
 40
6.0
  0
LINE
  8
SIZE
  6
CONTINUOUS
 62
    30
 10
-550.925249
 20
194.999999
 30
0.0
 11
-550.925249
 21
182.999999
 31
0.0
  0
CIRCLE
  8
SIZE
  6
CONTINUOUS
 62
    30
 10
-550.925249
 20
-195.000001
 30
0.0
 40
6.0
  0
LINE
  8
SIZE
  6
CONTINUOUS
 62
    30
 10
-550.925249
 20
-195.000001
 30
0.0
 11
-550.925249
 21
-183.000001
 31
0.0
  0
TEXT
  8
SIZE
  6
CONTINUOUS
 62
    30
 10
-575.925249
 20
-80.928001
 30
0.0
 40
64.0
  1
390
 50
90.0
 41
0.9
 51
0.0
  7
STANDARD
 71
     0
 72
     1
 11
-575.925249
 21
-0.000001
 31
0.0
210
0.0
220
0.0
230
1.0
  0
POINT
  8
DEFPOINTS
  6
CONTINUOUS
 62
    30
 10
-175.0
 20
194.999999
 30
0.0
  0
POINT
  8
DEFPOINTS
  6
CONTINUOUS
 62
    30
 10
-175.0
 20
-195.000001
 30
0.0
  0
POINT
  8
DEFPOINTS
  6
CONTINUOUS
 62
    30
 10
-550.925249
 20
-195.000001
 30
0.0
  0
LINE
  8
SIZE
  6
CONTINUOUS
 62
    30
 10
-163.0
 20
182.999999
 30
0.0
 11
-163.0
 21
407.008711
 31
0.0
  0
LINE
  8
SIZE
  6
CONTINUOUS
 62
    30
 10
163.0
 20
183.5
 30
0.0
 11
163.0
 21
407.008711
 31
0.0
  0
LINE
  8
SIZE
  6
CONTINUOUS
 62
    30
 10
-151.0
 20
387.008711
 30
0.0
 11
151.0
 21
387.008711
 31
0.0
  0
CIRCLE
  8
SIZE
  6
CONTINUOUS
 62
    30
 10
-163.0
 20
387.008711
 30
0.0
 40
6.0
  0
LINE
  8
SIZE
  6
CONTINUOUS
 62
    30
 10
-163.0
 20
387.008711
 30
0.0
 11
-151.0
 21
387.008711
 31
0.0
  0
CIRCLE
  8
SIZE
  6
CONTINUOUS
 62
    30
 10
163.0
 20
387.008711
 30
0.0
 40
6.0
  0
LINE
  8
SIZE
  6
CONTINUOUS
 62
    30
 10
163.0
 20
387.008711
 30
0.0
 11
151.0
 21
387.008711
 31
0.0
  0
TEXT
  8
SIZE
  6
CONTINUOUS
 62
    30
 10
-114.912
 20
412.008711
 30
0.0
 40
64.0
  1
□326
 50
0.0
 41
0.9
 51
0.0
  7
STANDARD
 71
     0
 72
     1
 11
0.0
 21
412.008711
 31
0.0
210
0.0
220
0.0
230
1.0
  0
POINT
  8
DEFPOINTS
  6
CONTINUOUS
 62
    30
 10
-163.0
 20
162.999999
 30
0.0
  0
POINT
  8
DEFPOINTS
  6
CONTINUOUS
 62
    30
 10
163.0
 20
163.5
 30
0.0
  0
POINT
  8
DEFPOINTS
  6
CONTINUOUS
 62
    30
 10
163.0
 20
387.008711
 30
0.0
  0
LINE
  8
SIZE
  6
CONTINUOUS
 62
    30
 10
-148.0
 20
-97.000001
 30
0.0
 11
-148.0
 21
-140.0
 31
0.0
  0
LINE
  8
SIZE
  6
CONTINUOUS
 62
    30
 10
148.0
 20
-97.0
 30
0.0
 11
148.0
 21
-140.0
 31
0.0
  0
LINE
  8
SIZE
  6
CONTINUOUS
 62
    30
 10
-136.0
 20
-120.0
 30
0.0
 11
136.0
 21
-120.0
 31
0.0
  0
CIRCLE
  8
SIZE
  6
CONTINUOUS
 62
    30
 10
-148.0
 20
-120.0
 30
0.0
 40
6.0
  0
LINE
  8
SIZE
  6
CONTINUOUS
 62
    30
 10
-148.0
 20
-120.0
 30
0.0
 11
-136.0
 21
-120.0
 31
0.0
  0
CIRCLE
  8
SIZE
  6
CONTINUOUS
 62
    30
 10
148.0
 20
-120.0
 30
0.0
 40
6.0
  0
LINE
  8
SIZE
  6
CONTINUOUS
 62
    30
 10
148.0
 20
-120.0
 30
0.0
 11
136.0
 21
-120.0
 31
0.0
  0
TEXT
  8
SIZE
  6
CONTINUOUS
 62
    30
 10
-80.352
 20
-95.0
 30
0.0
 40
64.0
  1
296
 50
0.0
 41
0.9
 51
0.0
  7
STANDARD
 71
     0
 72
     1
 11
0.0
 21
-95.0
 31
0.0
210
0.0
220
0.0
230
1.0
  0
POINT
  8
DEFPOINTS
  6
CONTINUOUS
 62
    30
 10
-148.0
 20
-77.000001
 30
0.0
  0
POINT
  8
DEFPOINTS
  6
CONTINUOUS
 62
    30
 10
148.0
 20
-77.0
 30
0.0
  0
POINT
  8
DEFPOINTS
  6
CONTINUOUS
 62
    30
 10
148.0
 20
-120.0
 30
0.0
  0
LINE
  8
SIZE
  6
CONTINUOUS
 62
    30
 10
-82.64785
 20
147.999999
 30
0.0
 11
-94.794055
 21
147.999999
 31
0.0
  0
LINE
  8
SIZE
  6
CONTINUOUS
 62
    30
 10
-82.64785
 20
-148.0
 30
0.0
 11
-94.794055
 21
-148.0
 31
0.0
  0
LINE
  8
SIZE
  6
CONTINUOUS
 62
    30
 10
-74.794055
 20
135.999999
 30
0.0
 11
-74.794055
 21
-136.0
 31
0.0
  0
CIRCLE
  8
SIZE
  6
CONTINUOUS
 62
    30
 10
-74.794055
 20
147.999999
 30
0.0
 40
6.0
  0
LINE
  8
SIZE
  6
CONTINUOUS
 62
    30
 10
-74.794055
 20
147.999999
 30
0.0
 11
-74.794055
 21
135.999999
 31
0.0
  0
CIRCLE
  8
SIZE
  6
CONTINUOUS
 62
    30
 10
-74.794055
 20
-148.0
 30
0.0
 40
6.0
  0
LINE
  8
SIZE
  6
CONTINUOUS
 62
    30
 10
-74.794055
 20
-148.0
 30
0.0
 11
-74.794055
 21
-136.0
 31
0.0
  0
TEXT
  8
SIZE
  6
CONTINUOUS
 62
    30
 10
-99.794055
 20
-80.352
 30
0.0
 40
64.0
  1
296
 50
90.0
 41
0.9
 51
0.0
  7
STANDARD
 71
     0
 72
     1
 11
-99.794055
 21
0.0
 31
0.0
210
0.0
220
0.0
230
1.0
  0
POINT
  8
DEFPOINTS
  6
CONTINUOUS
 62
    30
 10
-62.64785
 20
147.999999
 30
0.0
  0
POINT
  8
DEFPOINTS
  6
CONTINUOUS
 62
    30
 10
-62.64785
 20
-148.0
 30
0.0
  0
POINT
  8
DEFPOINTS
  6
CONTINUOUS
 62
    30
 10
-74.794055
 20
-148.0
 30
0.0
  0
ENDSEC
  0
EOF
