  0
SECTION
  2
HEADER
  9
$ACADVER
  1
AC1009
  9
$DWGCODEPAGE
  3
dos932
  9
$INSBASE
 10
0.0
 20
0.0
 30
0.0
  9
$EXTMIN
 10
-186.0
 20
-186.0
 30
0.0
  9
$EXTMAX
 10
663.20444900000007
 20
600.10021800000015
 30
50.0
  9
$LIMMIN
 10
-2970.0
 20
-2100.0
  9
$LIMMAX
 10
2970.0
 20
2100.0
  9
$ORTHOMODE
 70
     1
  9
$REGENMODE
 70
     1
  9
$FILLMODE
 70
     1
  9
$QTEXTMODE
 70
     0
  9
$MIRRTEXT
 70
     0
  9
$LTSCALE
 40
20.0
  9
$ATTMODE
 70
     1
  9
$TEXTSIZE
 40
64.0
  9
$TRACEWID
 40
0.05
  9
$TEXTSTYLE
  7
STANDARD
  9
$CLAYER
  8
SIZE
  9
$CELTYPE
  6
CONTINUOUS
  9
$CECOLOR
 62
     7
  9
$DIMSCALE
 40
1.0
  9
$DIMASZ
 40
12.0
  9
$DIMEXO
 40
20.0
  9
$DIMDLI
 40
200.0
  9
$DIMRND
 40
0.0
  9
$DIMDLE
 40
0.0
  9
$DIMEXE
 40
20.0
  9
$DIMTP
 40
0.0
  9
$DIMTM
 40
0.0
  9
$DIMTXT
 40
64.0
  9
$DIMCEN
 40
0.09
  9
$DIMTSZ
 40
0.0
  9
$DIMTOL
 70
     0
  9
$DIMLIM
 70
     0
  9
$DIMTIH
 70
     0
  9
$DIMTOH
 70
     0
  9
$DIMSE1
 70
     0
  9
$DIMSE2
 70
     0
  9
$DIMTAD
 70
     1
  9
$DIMZIN
 70
     8
  9
$DIMBLK
  1

  9
$DIMASO
 70
     1
  9
$DIMSHO
 70
     0
  9
$DIMPOST
  1

  9
$DIMAPOST
  1

  9
$DIMALT
 70
     0
  9
$DIMALTD
 70
     2
  9
$DIMALTF
 40
25.399999999999999
  9
$DIMLFAC
 40
1.0
  9
$DIMTOFL
 70
     1
  9
$DIMTVP
 40
0.0
  9
$DIMTIX
 70
     1
  9
$DIMSOXD
 70
     0
  9
$DIMSAH
 70
     0
  9
$DIMBLK1
  1

  9
$DIMBLK2
  1

  9
$DIMSTYLE
  2
STANDARD
  9
$DIMCLRD
 70
     7
  9
$DIMCLRE
 70
     7
  9
$DIMCLRT
 70
     7
  9
$DIMTFAC
 40
1.0
  9
$DIMGAP
 40
25.0
  9
$LUNITS
 70
     2
  9
$LUPREC
 70
     4
  9
$SKETCHINC
 40
0.1
  9
$FILLETRAD
 40
3.0
  9
$AUNITS
 70
     1
  9
$AUPREC
 70
     3
  9
$MENU
  1
ACAD
  9
$ELEVATION
 40
0.0
  9
$PELEVATION
 40
0.0
  9
$THICKNESS
 40
50.0
  9
$LIMCHECK
 70
     0
  9
$CHAMFERA
 40
0.0
  9
$CHAMFERB
 40
0.0
  9
$SKPOLY
 70
     0
  9
$TDCREATE
 40
2453019.62301037
  9
$TDUPDATE
 40
2457372.646086667
  9
$TDINDWG
 40
1.7127866319
  9
$TDUSRTIMER
 40
1.7127866319
  9
$USRTIMER
 70
     1
  9
$ANGBASE
 50
0.0
  9
$ANGDIR
 70
     0
  9
$PDMODE
 70
     3
  9
$PDSIZE
 40
-2.0
  9
$PLINEWID
 40
0.0
  9
$SPLFRAME
 70
     0
  9
$SPLINETYPE
 70
     6
  9
$SPLINESEGS
 70
     8
  9
$SURFTAB1
 70
     6
  9
$SURFTAB2
 70
     6
  9
$SURFTYPE
 70
     6
  9
$SURFU
 70
     6
  9
$SURFV
 70
     6
  9
$UCSNAME
  2

  9
$UCSORG
 10
0.0
 20
0.0
 30
0.0
  9
$UCSXDIR
 10
1.0
 20
0.0
 30
0.0
  9
$UCSYDIR
 10
0.0
 20
1.0
 30
0.0
  9
$PUCSNAME
  2

  9
$PUCSORG
 10
0.0
 20
0.0
 30
0.0
  9
$PUCSXDIR
 10
1.0
 20
0.0
 30
0.0
  9
$PUCSYDIR
 10
0.0
 20
1.0
 30
0.0
  9
$USERI1
 70
     0
  9
$USERI2
 70
     0
  9
$USERI3
 70
     0
  9
$USERI4
 70
     0
  9
$USERI5
 70
     0
  9
$USERR1
 40
20.0
  9
$USERR2
 40
0.0
  9
$USERR3
 40
0.0
  9
$USERR4
 40
0.0
  9
$USERR5
 40
0.0
  9
$WORLDVIEW
 70
     1
  9
$SHADEDGE
 70
     3
  9
$SHADEDIF
 70
    70
  9
$TILEMODE
 70
     1
  9
$MAXACTVP
 70
    48
  9
$PINSBASE
 10
0.0
 20
0.0
 30
0.0
  9
$PLIMCHECK
 70
     0
  9
$PEXTMIN
 10
-100000000000000000000.0
 20
-100000000000000000000.0
 30
-100000000000000000000.0
  9
$PEXTMAX
 10
100000000000000000000.0
 20
100000000000000000000.0
 30
100000000000000000000.0
  9
$PLIMMIN
 10
0.0
 20
0.0
  9
$PLIMMAX
 10
12.0
 20
9.0
  9
$UNITMODE
 70
     0
  9
$VISRETAIN
 70
     0
  9
$PLINEGEN
 70
     0
  9
$PSLTSCALE
 70
     0
  9
$TREEDEPTH
 70
  3020
  9
$ATTDIA
 70
     0
  9
$ATTREQ
 70
     1
  9
$BLIPMODE
 70
     1
  9
$COORDS
 70
     1
  9
$DRAGMODE
 70
     2
  9
$OSMODE
 70
     0
  9
$HANDLING
 70
     0
  9
$HANDSEED
  5
E7F0
  0
ENDSEC
  0
SECTION
  2
TABLES
  0
TABLE
  2
LTYPE
 70
     2
  0
LTYPE
  2
CONTINUOUS
 70
     0
  3
実線
 72
    65
 73
     0
 40
0.0
  0
LTYPE
  2
DASHDOT
 70
     0
  3
____ _ ____ _ ____ _ ____ _ ____ _ ____ _ ____
 72
    65
 73
     4
 40
5.5
 49
4.0
 49
-0.6
 49
0.3
 49
-0.6
  0
ENDTAB
  0
TABLE
  2
LAYER
 70
    12
  0
LAYER
  2
0
 70
     0
 62
     7
  6
CONTINUOUS
  0
LAYER
  2
BASIS
 70
     0
 62
     6
  6
DASHDOT
  0
LAYER
  2
OUTLINE
 70
     0
 62
     3
  6
CONTINUOUS
  0
LAYER
  2
DETAIL
 70
     0
 62
     5
  6
CONTINUOUS
  0
LAYER
  2
SIZE
 70
     0
 62
    30
  6
CONTINUOUS
  0
LAYER
  2
ARRANGE
 70
     0
 62
     1
  6
CONTINUOUS
  0
LAYER
  2
DEFPOINTS
 70
     0
 62
     7
  6
CONTINUOUS
  0
LAYER
  2
ETC
 70
     0
 62
    61
  6
CONTINUOUS
  0
LAYER
  2
NOTE
 70
     0
 62
     4
  6
CONTINUOUS
  0
LAYER
  2
FIX
 70
    64
 62
    11
  6
CONTINUOUS
  0
LAYER
  2
SERVICESPACE
 70
    64
 62
     2
  6
DASHDOT
  0
LAYER
  2
SYMBOLLINE
 70
    64
 62
    15
  6
CONTINUOUS
  0
ENDTAB
  0
TABLE
  2
STYLE
 70
     1
  0
STYLE
  2
STANDARD
 70
     0
 40
64.0
 41
0.9
 50
0.0
 71
     0
 42
64.0
  3
SIMPLEX.shx
  4
BIGFONT.shx
  0
ENDTAB
  0
TABLE
  2
APPID
 70
    15
  0
APPID
  2
ACAD
 70
     0
  0
APPID
  2
AUTOCAD_POSTSCRIPT_FIGURE
 70
     0
  0
APPID
  2
ACAD_EXEMPT_FROM_CAD_STANDARDS
 70
     0
  0
APPID
  2
ACAD_PSEXT
 70
     0
  0
APPID
  2
ACAUTHENVIRON
 70
     0
  0
APPID
  2
GENIUS_GENOENT_13
 70
     0
  0
APPID
  2
GENIUS_GENCFG_13
 70
     0
  0
APPID
  2
GENIUS_GENCFG0_13
 70
     0
  0
APPID
  2
GENIUS_GENCFG1_13
 70
     0
  0
APPID
  2
GENIUS_GENCFG2_13
 70
     0
  0
APPID
  2
GENIUS_GENCFG3_13
 70
     0
  0
APPID
  2
GENIUS_GENCFG4_13
 70
     0
  0
APPID
  2
GENIUS_GEVCFG0_13
 70
     0
  0
APPID
  2
CONTENTBLOCKICON
 70
     0
  0
APPID
  2
CONTENTBLOCKDESCRIPTION
 70
     0
  0
ENDTAB
  0
TABLE
  2
DIMSTYLE
 70
     1
  0
DIMSTYLE
  2
STANDARD
 70
     0
  3

  4

  5
_ORIGIN
  6

  7

 40
1.0
 41
12.0
 42
20.0
 43
200.0
 44
20.0
 45
0.0
 46
0.0
 47
0.0
 48
0.0
140
64.0
141
0.09
142
0.0
143
25.399999999999999
144
1.0
145
0.0
146
1.0
147
25.0
 71
     0
 72
     0
 73
     0
 74
     0
 75
     0
 76
     0
 77
     1
 78
     8
170
     0
171
     2
172
     1
173
     0
174
     1
175
     0
176
     7
177
     7
178
     7
  0
ENDTAB
  0
TABLE
  2
VIEW
 70
     1
  0
VIEW
  2
ALL
 70
     0
 40
4282.6198079999986
 10
0.0
 20
41.309904000000003
 41
5940.0
 11
0.0
 21
0.0
 31
1.0
 12
0.0
 22
0.0
 32
0.0
 42
50.0
 43
0.0
 44
0.0
 50
0.0
 71
     0
  0
ENDTAB
  0
TABLE
  2
UCS
 70
     0
  0
ENDTAB
  0
TABLE
  2
VPORT
 70
     1
  0
VPORT
  2
*ACTIVE
 70
     0
 10
0.0
 20
0.0
 11
1.0
 21
1.0
 12
351.17102949209038
 22
245.39139743023861
 13
0.0
 23
0.0
 14
1.0
 24
1.0
 15
0.0
 25
0.0
 16
0.0
 26
0.0
 36
1.0
 17
0.0
 27
0.0
 37
0.0
 40
1296.7108812124579
 41
1.29023746701847
 42
50.0
 43
0.0
 44
0.0
 50
0.0
 51
0.0
 71
     0
 72
  1000
 73
     1
 74
     0
 75
     0
 76
     0
 77
     0
 78
     0
  0
ENDTAB
  0
ENDSEC
  0
SECTION
  2
BLOCKS
  0
BLOCK
  8
0
  2
_ORIGIN
 70
     0
 10
0.0
 20
0.0
 30
0.0
  3
_ORIGIN
  1

  0
CIRCLE
  8
0
  6
CONTINUOUS
 62
     7
 10
0.0
 20
0.0
 30
0.0
 40
0.5
  0
LINE
  8
0
  6
CONTINUOUS
 62
     7
 10
0.0
 20
0.0
 30
0.0
 11
-1.0
 21
0.0
 31
0.0
  0
ENDBLK
  8
0
  0
ENDSEC
  0
SECTION
  2
ENTITIES
  0
TEXT
  8
ETC
  6
CONTINUOUS
 62
    61
 10
224.70395099999999
 20
473.35464200000001
 30
0.0
 40
40.0
  1
PS-25KW3_3
 41
0.9
  0
TEXT
  8
ETC
  6
CONTINUOUS
 62
    61
 10
220.517957
 20
412.65836300000001
 30
0.0
 40
40.0
  1
システム部材
 41
0.9
  0
TEXT
  8
ETC
  6
CONTINUOUS
 62
    61
 10
271.12545999999998
 20
330.78825299999988
 30
0.0
 40
40.0
  1
PS-25KW3
 41
0.9
  0
LINE
  8
BASIS
  6
DASHDOT
 62
     6
 10
0.0
 20
-173.064618
 30
0.0
 11
0.0
 21
173.064618
 31
0.0
  0
LINE
  8
BASIS
  6
DASHDOT
 62
     6
 10
-176.44794400000001
 20
0.0
 30
0.0
 11
176.44794400000001
 21
0.0
 31
0.0
  0
CIRCLE
  8
ARRANGE
  6
CONTINUOUS
 62
     1
 10
0.0
 20
0.0
 30
0.0
 40
40.0
  0
POINT
  8
ARRANGE
  6
CONTINUOUS
 62
     1
 10
0.0
 20
0.0
 30
0.0
 39
50.0
  0
LINE
  8
DETAIL
  6
CONTINUOUS
 62
     5
 10
177.0
 20
0.0
 30
0.0
 11
177.0
 21
152.64823799999999
 31
0.0
  0
LINE
  8
DETAIL
  6
CONTINUOUS
 62
     5
 10
157.0
 20
0.0
 30
0.0
 11
157.0
 21
149.27148099999999
 31
0.0
  0
LINE
  8
DETAIL
  6
CONTINUOUS
 62
     5
 10
153.2896860000001
 20
177.0
 30
0.0
 11
0.0
 21
177.0
 31
0.0
  0
LINE
  8
DETAIL
  6
CONTINUOUS
 62
     5
 10
150.211668
 20
157.0
 30
0.0
 11
0.0
 21
157.0
 31
0.0
  0
LINE
  8
DETAIL
  6
CONTINUOUS
 62
     5
 10
153.2896860000001
 20
177.0
 30
0.0
 11
127.23084399999991
 21
177.0
 31
0.0
  0
LINE
  8
DETAIL
  6
CONTINUOUS
 62
     5
 10
175.33947599999999
 20
178.84416400000001
 30
0.0
 11
127.23084399999991
 21
178.84416400000001
 31
0.0
  0
LINE
  8
DETAIL
  6
CONTINUOUS
 62
     5
 10
127.0814740000001
 20
155.64791500000001
 30
0.0
 11
142.5652620000001
 21
155.64791500000001
 31
0.0
  0
ARC
  8
DETAIL
  6
CONTINUOUS
 62
     5
 10
133.646299
 20
153.49619200000001
 30
0.0
 40
1.857327
 50
270.0
 51
308.35766899999709
  0
LINE
  8
DETAIL
  6
CONTINUOUS
 62
     5
 10
133.19528099999999
 20
151.63886199999999
 30
0.0
 11
141.01293100000001
 21
151.63886199999999
 31
0.0
  0
LINE
  8
DETAIL
  6
CONTINUOUS
 62
     5
 10
141.714517
 20
155.64791500000001
 30
0.0
 11
132.493695
 21
155.64791500000001
 31
0.0
  0
LINE
  8
DETAIL
  6
CONTINUOUS
 62
     5
 10
141.91399899999999
 20
180.0
 30
0.0
 11
132.592952
 21
180.0
 31
0.0
  0
LINE
  8
DETAIL
  6
CONTINUOUS
 62
     5
 10
127.0814740000001
 20
155.64791500000001
 30
0.0
 11
127.0814740000001
 21
156.85063
 31
0.0
  0
LINE
  8
DETAIL
  6
CONTINUOUS
 62
     5
 10
132.09278999999989
 20
156.85063
 30
0.0
 11
132.09278999999989
 21
155.64791500000001
 31
0.0
  0
LINE
  8
DETAIL
  6
CONTINUOUS
 62
     5
 10
132.49369999999999
 20
152.03977399999999
 30
0.0
 11
133.19528500000001
 21
151.638869
 31
0.0
  0
LINE
  8
DETAIL
  6
CONTINUOUS
 62
     5
 10
132.493696
 20
155.64791600000001
 30
0.0
 11
132.493696
 21
152.03976800000001
 31
0.0
  0
LINE
  8
DETAIL
  6
CONTINUOUS
 62
     5
 10
127.23084399999991
 20
178.84416400000001
 30
0.0
 11
127.23084399999991
 21
177.641448
 31
0.0
  0
LINE
  8
DETAIL
  6
CONTINUOUS
 62
     5
 10
132.24216000000001
 20
178.84416400000001
 30
0.0
 11
132.24216000000001
 21
177.0
 31
0.0
  0
LINE
  8
DETAIL
  6
CONTINUOUS
 62
     5
 10
133.494989
 20
178.84416400000001
 30
0.0
 11
132.592952
 21
179.44875500000001
 31
0.0
  0
LINE
  8
DETAIL
  6
CONTINUOUS
 62
     5
 10
132.592952
 20
179.44875500000001
 30
0.0
 11
132.592952
 21
180.0
 31
0.0
  0
LINE
  8
DETAIL
  6
CONTINUOUS
 62
     5
 10
178.54671800000011
 20
127.872292
 30
0.0
 11
178.54671800000011
 21
175.636922
 31
0.0
  0
LINE
  8
DETAIL
  6
CONTINUOUS
 62
     5
 10
155.79728399999999
 20
126.589395
 30
0.0
 11
155.79728399999999
 21
142.41589200000001
 31
0.0
  0
LINE
  8
DETAIL
  6
CONTINUOUS
 62
     5
 10
157.0
 20
126.589395
 30
0.0
 11
157.0
 21
142.073183
 31
0.0
  0
LINE
  8
DETAIL
  6
CONTINUOUS
 62
     5
 10
157.0
 20
126.589395
 30
0.0
 11
155.79728399999999
 21
126.589395
 31
0.0
  0
LINE
  8
DETAIL
  6
CONTINUOUS
 62
     5
 10
178.54671800000011
 20
127.872292
 30
0.0
 11
177.0
 21
127.872292
 31
0.0
  0
LINE
  8
NOTE
  6
DASHDOT
 62
     4
 10
165.0
 20
155.97963100000001
 30
0.0
 11
165.0
 21
174.02036899999999
 31
0.0
  0
LINE
  8
DETAIL
  6
CONTINUOUS
 62
     5
 10
153.2896860000001
 20
162.153773
 30
0.0
 11
153.2896860000001
 21
177.0
 31
0.0
  0
LINE
  8
DETAIL
  6
CONTINUOUS
 62
     5
 10
147.276107
 20
157.0
 30
0.0
 11
147.276107
 21
177.0
 31
0.0
  0
LINE
  8
NOTE
  6
DASHDOT
 62
     4
 10
174.02036899999999
 20
165.0
 30
0.0
 11
155.97963100000001
 21
165.0
 31
0.0
  0
ARC
  8
DETAIL
  6
CONTINUOUS
 62
     5
 10
166.346543
 20
166.346543
 30
0.0
 40
4.1092789999999999
 50
315.0
 51
133.60240300000319
  0
ARC
  8
DETAIL
  6
CONTINUOUS
 62
     5
 10
163.653457
 20
163.653457
 30
0.0
 40
4.1092789999999999
 50
136.3975969999974
 51
315.0
  0
LINE
  8
DETAIL
  6
CONTINUOUS
 62
     5
 10
178.54671800000011
 20
152.64823799999999
 30
0.0
 11
162.4525120000001
 21
152.64823799999999
 31
0.0
  0
CIRCLE
  8
DETAIL
  6
CONTINUOUS
 62
     5
 10
165.0
 20
165.0
 30
0.0
 40
4.0090529999999998
  0
CIRCLE
  8
NOTE
  6
CONTINUOUS
 62
     4
 10
165.0
 20
165.0
 30
0.0
 40
3.0067900000000001
  0
LINE
  8
DETAIL
  6
CONTINUOUS
 62
     5
 10
177.0
 20
146.634659
 30
0.0
 11
157.29873900000001
 21
146.634659
 31
0.0
  0
LINE
  8
DETAIL
  6
CONTINUOUS
 62
     5
 10
155.44501700000001
 20
143.26634100000001
 30
0.0
 11
143.26634100000001
 21
155.44501700000001
 31
0.0
  0
ARC
  8
DETAIL
  6
CONTINUOUS
 62
     5
 10
162.4525120000001
 20
147.636922
 30
0.0
 40
5.0113160000000008
 50
90.0
 51
135.0
  0
LINE
  8
DETAIL
  6
CONTINUOUS
 62
     5
 10
134.59844799999999
 20
151.63886199999999
 30
0.0
 11
134.59844799999999
 21
149.0
 31
0.0
  0
LINE
  8
DETAIL
  6
CONTINUOUS
 62
     5
 10
139.60976400000001
 20
149.0
 30
0.0
 11
139.60976400000001
 21
151.63886199999999
 31
0.0
  0
ARC
  8
DETAIL
  6
CONTINUOUS
 62
     5
 10
140.561913
 20
153.496194
 30
0.0
 40
1.857329
 50
231.64226500000029
 51
270.0
  0
LINE
  8
DETAIL
  6
CONTINUOUS
 62
     5
 10
149.0
 20
134.106369
 30
0.0
 11
151.788231
 21
134.106369
 31
0.0
  0
LINE
  8
DETAIL
  6
CONTINUOUS
 62
     5
 10
151.788231
 20
139.11768500000011
 30
0.0
 11
149.0
 21
139.11768500000011
 31
0.0
  0
LINE
  8
DETAIL
  6
CONTINUOUS
 62
     5
 10
149.0
 20
139.11768500000011
 30
0.0
 11
149.0
 21
134.106369
 31
0.0
  0
LINE
  8
DETAIL
  6
CONTINUOUS
 62
     5
 10
134.59844799999999
 20
149.0
 30
0.0
 11
139.60976400000001
 21
149.0
 31
0.0
  0
LINE
  8
DETAIL
  6
CONTINUOUS
 62
     5
 10
152.18914300000009
 20
141.222433
 30
0.0
 11
151.788239
 21
140.520848
 31
0.0
  0
LINE
  8
DETAIL
  6
CONTINUOUS
 62
     5
 10
155.79728399999999
 20
132.00161600000001
 30
0.0
 11
155.79728399999999
 21
141.22243800000001
 31
0.0
  0
LINE
  8
DETAIL
  6
CONTINUOUS
 62
     5
 10
155.79728399999999
 20
131.60071099999999
 30
0.0
 11
157.0
 21
131.60071099999999
 31
0.0
  0
ARC
  8
DETAIL
  6
CONTINUOUS
 62
     5
 10
153.64556200000001
 20
140.06983399999999
 30
0.0
 40
1.857327
 50
179.99998200000081
 51
218.35766900000169
  0
ARC
  8
DETAIL
  6
CONTINUOUS
 62
     5
 10
158.61614900000001
 20
136.61202700000001
 30
0.0
 40
6.8279160000000001
 50
160.26833000000121
 51
199.73157900000041
  0
ARC
  8
DETAIL
  6
CONTINUOUS
 62
     5
 10
153.64556300000001
 20
133.15422000000001
 30
0.0
 40
1.857329
 50
141.64226500000029
 51
179.99998200000081
  0
LINE
  8
DETAIL
  6
CONTINUOUS
 62
     5
 10
152.1891370000001
 20
138.91723300000001
 30
0.0
 11
155.79728399999999
 21
138.91723300000001
 31
0.0
  0
LINE
  8
DETAIL
  6
CONTINUOUS
 62
     5
 10
152.1891370000001
 20
134.30682200000001
 30
0.0
 11
155.79728399999999
 21
134.30682200000001
 31
0.0
  0
LINE
  8
DETAIL
  6
CONTINUOUS
 62
     5
 10
152.1891370000001
 20
132.00161700000001
 30
0.0
 11
155.79728299999999
 21
132.00161700000001
 31
0.0
  0
LINE
  8
DETAIL
  6
CONTINUOUS
 62
     5
 10
151.788239
 20
132.70320599999999
 30
0.0
 11
152.18914300000009
 21
132.001621
 31
0.0
  0
LINE
  8
DETAIL
  6
CONTINUOUS
 62
     5
 10
151.788231
 20
140.52085199999999
 30
0.0
 11
151.788231
 21
132.703202
 31
0.0
  0
LINE
  8
DETAIL
  6
CONTINUOUS
 62
     5
 10
158.90897699999999
 20
151.18045799999999
 30
0.0
 11
153.36930799999999
 21
145.64078900000001
 31
0.0
  0
ARC
  8
DETAIL
  6
CONTINUOUS
 62
     5
 10
154.59456800000001
 20
142.073183
 30
0.0
 40
2.4054319999999998
 50
0.0
 51
45.0
  0
LINE
  8
DETAIL
  6
CONTINUOUS
 62
     5
 10
156.29546499999989
 20
143.77408
 30
0.0
 11
153.89903200000001
 21
146.170513
 31
0.0
  0
ARC
  8
DETAIL
  6
CONTINUOUS
 62
     5
 10
154.59456800000001
 20
142.41589200000001
 30
0.0
 40
1.2027159999999999
 50
0.0
 51
45.0
  0
LINE
  8
DETAIL
  6
CONTINUOUS
 62
     5
 10
155.79728499999999
 20
141.22243700000001
 30
0.0
 11
152.1891370000001
 21
141.22243700000001
 31
0.0
  0
LINE
  8
DETAIL
  6
CONTINUOUS
 62
     5
 10
151.82190600000001
 20
158.61023800000001
 30
0.0
 11
146.11088199999989
 21
152.899214
 31
0.0
  0
ARC
  8
DETAIL
  6
CONTINUOUS
 62
     5
 10
137.104106
 20
158.46678
 30
0.0
 40
6.8279160000000001
 50
250.26832999999689
 51
289.73157900000081
  0
LINE
  8
DETAIL
  6
CONTINUOUS
 62
     5
 10
134.798901
 20
152.03976800000001
 30
0.0
 11
134.798901
 21
155.64791500000001
 31
0.0
  0
LINE
  8
DETAIL
  6
CONTINUOUS
 62
     5
 10
139.409312
 20
152.03976800000001
 30
0.0
 11
139.409312
 21
155.64791500000001
 31
0.0
  0
LINE
  8
DETAIL
  6
CONTINUOUS
 62
     5
 10
141.714516
 20
152.03976800000001
 30
0.0
 11
141.714516
 21
155.64791399999999
 31
0.0
  0
LINE
  8
DETAIL
  6
CONTINUOUS
 62
     5
 10
141.01292699999999
 20
151.638869
 30
0.0
 11
141.71451200000001
 21
152.03977399999999
 31
0.0
  0
LINE
  8
DETAIL
  6
CONTINUOUS
 62
     5
 10
146.961331
 20
153.749663
 30
0.0
 11
144.41552799999999
 21
156.29546500000001
 31
0.0
  0
ARC
  8
DETAIL
  6
CONTINUOUS
 62
     5
 10
142.71463100000011
 20
154.59456800000001
 30
0.0
 40
2.4054319999999998
 50
45.0
 51
90.0
  0
ARC
  8
DETAIL
  6
CONTINUOUS
 62
     5
 10
142.5652620000001
 20
154.445199
 30
0.0
 40
1.2027159999999999
 50
45.0
 51
90.0
  0
ARC
  8
DETAIL
  6
CONTINUOUS
 62
     5
 10
148.27837099999999
 20
162.153773
 30
0.0
 40
5.0113160000000008
 50
315.0
 51
0.0
  0
LINE
  8
DETAIL
  6
CONTINUOUS
 62
     5
 10
161.8108179999999
 20
171.02401
 30
0.0
 11
158.97599
 21
168.18918199999999
 31
0.0
  0
LINE
  8
DETAIL
  6
CONTINUOUS
 62
     5
 10
163.5125800000001
 20
169.322249
 30
0.0
 11
161.8108179999999
 21
171.02401
 31
0.0
  0
LINE
  8
DETAIL
  6
CONTINUOUS
 62
     5
 10
160.67775099999989
 20
166.48741999999999
 30
0.0
 11
158.97599
 21
168.18918199999999
 31
0.0
  0
LINE
  8
DETAIL
  6
CONTINUOUS
 62
     5
 10
179.44875500000001
 20
133.23439999999999
 30
0.0
 11
179.44875500000001
 21
142.55544800000001
 31
0.0
  0
LINE
  8
DETAIL
  6
CONTINUOUS
 62
     5
 10
178.54671800000011
 20
141.65341100000001
 30
0.0
 11
179.44875500000001
 21
142.55544800000001
 31
0.0
  0
LINE
  8
DETAIL
  6
CONTINUOUS
 62
     5
 10
180.0
 20
133.23439999999999
 30
0.0
 11
180.0
 21
142.55544800000001
 31
0.0
  0
LINE
  8
DETAIL
  6
CONTINUOUS
 62
     5
 10
177.0
 20
132.88360800000001
 30
0.0
 11
178.54671800000011
 21
132.88360800000001
 31
0.0
  0
LINE
  8
DETAIL
  6
CONTINUOUS
 62
     5
 10
178.54671800000011
 20
134.136437
 30
0.0
 11
179.44875500000001
 21
133.23439999999999
 31
0.0
  0
LINE
  8
DETAIL
  6
CONTINUOUS
 62
     5
 10
179.44875500000001
 20
133.23439999999999
 30
0.0
 11
180.0
 21
133.23439999999999
 31
0.0
  0
LINE
  8
DETAIL
  6
CONTINUOUS
 62
     5
 10
179.44875500000001
 20
142.55544800000001
 30
0.0
 11
180.0
 21
142.55544800000001
 31
0.0
  0
LINE
  8
DETAIL
  6
CONTINUOUS
 62
     5
 10
166.559156
 20
160.74775700000001
 30
0.0
 11
169.25224299999999
 21
163.440844
 31
0.0
  0
LINE
  8
DETAIL
  6
CONTINUOUS
 62
     5
 10
169.25224299999999
 20
163.440844
 30
0.0
 11
166.559156
 21
160.74775700000001
 31
0.0
  0
LINE
  8
DETAIL
  6
CONTINUOUS
 62
     5
 10
141.01196200000001
 20
178.84416400000001
 30
0.0
 11
141.91399899999999
 21
179.44875500000001
 31
0.0
  0
LINE
  8
DETAIL
  6
CONTINUOUS
 62
     5
 10
141.91399899999999
 20
179.44875500000001
 30
0.0
 11
141.91399899999999
 21
180.0
 31
0.0
  0
LINE
  8
DETAIL
  6
CONTINUOUS
 62
     5
 10
175.33947599999999
 20
177.14031700000001
 30
0.0
 11
175.33947599999999
 21
178.84416400000001
 31
0.0
  0
LINE
  8
DETAIL
  6
CONTINUOUS
 62
     5
 10
178.54671800000011
 20
175.636922
 30
0.0
 11
176.84287100000009
 21
175.636922
 31
0.0
  0
ARC
  8
DETAIL
  6
CONTINUOUS
 62
     5
 10
176.84287100000009
 20
177.14031700000001
 30
0.0
 40
1.503395
 50
180.0
 51
270.0
  0
LINE
  8
DETAIL
  6
CONTINUOUS
 62
     5
 10
177.34400299999999
 20
177.641448
 30
0.0
 11
175.33947599999999
 21
177.641448
 31
0.0
  0
LINE
  8
DETAIL
  6
CONTINUOUS
 62
     5
 10
177.34400299999999
 20
175.636922
 30
0.0
 11
177.34400299999999
 21
177.641448
 31
0.0
  0
LINE
  8
OUTLINE
  6
CONTINUOUS
 62
     3
 10
177.0
 20
0.0
 30
0.0
 11
177.0
 21
127.872292
 31
0.0
  0
LINE
  8
OUTLINE
  6
CONTINUOUS
 62
     3
 10
127.23084399999991
 20
177.0
 30
0.0
 11
0.0
 21
177.0
 31
0.0
  0
LINE
  8
OUTLINE
  6
CONTINUOUS
 62
     3
 10
127.23084399999991
 20
177.641448
 30
0.0
 11
127.23084399999991
 21
177.641448
 31
0.0
  0
LINE
  8
OUTLINE
  6
CONTINUOUS
 62
     3
 10
175.33947599999999
 20
178.84416400000001
 30
0.0
 11
127.23084399999991
 21
178.84416400000001
 31
0.0
  0
LINE
  8
OUTLINE
  6
CONTINUOUS
 62
     3
 10
127.23084399999991
 20
178.84416400000001
 30
0.0
 11
127.23084399999991
 21
177.0
 31
0.0
  0
LINE
  8
OUTLINE
  6
CONTINUOUS
 62
     3
 10
178.54671800000011
 20
127.872292
 30
0.0
 11
178.54671800000011
 21
175.636922
 31
0.0
  0
LINE
  8
OUTLINE
  6
CONTINUOUS
 62
     3
 10
178.54671800000011
 20
127.872292
 30
0.0
 11
177.0
 21
127.872292
 31
0.0
  0
LINE
  8
OUTLINE
  6
CONTINUOUS
 62
     3
 10
175.33947599999999
 20
177.14031700000001
 30
0.0
 11
175.33947599999999
 21
178.84416400000001
 31
0.0
  0
LINE
  8
OUTLINE
  6
CONTINUOUS
 62
     3
 10
178.54671800000011
 20
175.636922
 30
0.0
 11
176.84287100000009
 21
175.636922
 31
0.0
  0
ARC
  8
OUTLINE
  6
CONTINUOUS
 62
     3
 10
176.84287100000009
 20
177.14031700000001
 30
0.0
 40
1.503395
 50
180.0
 51
270.0
  0
LINE
  8
DETAIL
  6
CONTINUOUS
 62
     5
 39
50.0
 10
132.592952
 20
179.44875500000001
 30
0.0
 11
141.91399899999999
 21
179.44875500000001
 31
0.0
  0
LINE
  8
DETAIL
  6
CONTINUOUS
 62
     5
 10
177.0
 20
0.0
 30
0.0
 11
177.0
 21
-152.64823799999999
 31
0.0
  0
LINE
  8
DETAIL
  6
CONTINUOUS
 62
     5
 10
157.0
 20
0.0
 30
0.0
 11
157.0
 21
-149.27148099999999
 31
0.0
  0
LINE
  8
DETAIL
  6
CONTINUOUS
 62
     5
 10
153.2896860000001
 20
-177.0
 30
0.0
 11
0.0
 21
-177.0
 31
0.0
  0
LINE
  8
DETAIL
  6
CONTINUOUS
 62
     5
 10
150.211668
 20
-157.0
 30
0.0
 11
0.0
 21
-157.0
 31
0.0
  0
LINE
  8
DETAIL
  6
CONTINUOUS
 62
     5
 10
153.2896860000001
 20
-177.0
 30
0.0
 11
127.23084399999991
 21
-177.0
 31
0.0
  0
LINE
  8
DETAIL
  6
CONTINUOUS
 62
     5
 10
175.33947599999999
 20
-178.84416400000001
 30
0.0
 11
127.23084399999991
 21
-178.84416400000001
 31
0.0
  0
LINE
  8
DETAIL
  6
CONTINUOUS
 62
     5
 10
127.0814740000001
 20
-155.64791500000001
 30
0.0
 11
142.5652620000001
 21
-155.64791500000001
 31
0.0
  0
ARC
  8
DETAIL
  6
CONTINUOUS
 62
     5
 10
133.646299
 20
-153.49619200000001
 30
0.0
 40
1.857327
 50
51.642331000002898
 51
90.0
  0
LINE
  8
DETAIL
  6
CONTINUOUS
 62
     5
 10
133.19528099999999
 20
-151.63886199999999
 30
0.0
 11
141.01293100000001
 21
-151.63886199999999
 31
0.0
  0
LINE
  8
DETAIL
  6
CONTINUOUS
 62
     5
 10
141.714517
 20
-155.64791500000001
 30
0.0
 11
132.493695
 21
-155.64791500000001
 31
0.0
  0
LINE
  8
DETAIL
  6
CONTINUOUS
 62
     5
 10
141.91399899999999
 20
-180.0
 30
0.0
 11
132.592952
 21
-180.0
 31
0.0
  0
LINE
  8
DETAIL
  6
CONTINUOUS
 62
     5
 10
127.0814740000001
 20
-155.64791500000001
 30
0.0
 11
127.0814740000001
 21
-156.85063
 31
0.0
  0
LINE
  8
DETAIL
  6
CONTINUOUS
 62
     5
 10
132.09278999999989
 20
-156.85063
 30
0.0
 11
132.09278999999989
 21
-155.64791500000001
 31
0.0
  0
LINE
  8
DETAIL
  6
CONTINUOUS
 62
     5
 10
132.49369999999999
 20
-152.03977399999999
 30
0.0
 11
133.19528500000001
 21
-151.638869
 31
0.0
  0
LINE
  8
DETAIL
  6
CONTINUOUS
 62
     5
 10
132.493696
 20
-155.64791600000001
 30
0.0
 11
132.493696
 21
-152.03976800000001
 31
0.0
  0
LINE
  8
DETAIL
  6
CONTINUOUS
 62
     5
 10
127.23084399999991
 20
-178.84416400000001
 30
0.0
 11
127.23084399999991
 21
-177.641448
 31
0.0
  0
LINE
  8
DETAIL
  6
CONTINUOUS
 62
     5
 10
132.24216000000001
 20
-178.84416400000001
 30
0.0
 11
132.24216000000001
 21
-177.0
 31
0.0
  0
LINE
  8
DETAIL
  6
CONTINUOUS
 62
     5
 10
133.494989
 20
-178.84416400000001
 30
0.0
 11
132.592952
 21
-179.44875500000001
 31
0.0
  0
LINE
  8
DETAIL
  6
CONTINUOUS
 62
     5
 10
132.592952
 20
-179.44875500000001
 30
0.0
 11
132.592952
 21
-180.0
 31
0.0
  0
LINE
  8
DETAIL
  6
CONTINUOUS
 62
     5
 10
178.54671800000011
 20
-127.872292
 30
0.0
 11
178.54671800000011
 21
-175.636922
 31
0.0
  0
LINE
  8
DETAIL
  6
CONTINUOUS
 62
     5
 10
155.79728399999999
 20
-126.589395
 30
0.0
 11
155.79728399999999
 21
-142.41589200000001
 31
0.0
  0
LINE
  8
DETAIL
  6
CONTINUOUS
 62
     5
 10
157.0
 20
-126.589395
 30
0.0
 11
157.0
 21
-142.073183
 31
0.0
  0
LINE
  8
DETAIL
  6
CONTINUOUS
 62
     5
 10
157.0
 20
-126.589395
 30
0.0
 11
155.79728399999999
 21
-126.589395
 31
0.0
  0
LINE
  8
DETAIL
  6
CONTINUOUS
 62
     5
 10
178.54671800000011
 20
-127.872292
 30
0.0
 11
177.0
 21
-127.872292
 31
0.0
  0
LINE
  8
NOTE
  6
DASHDOT
 62
     4
 10
165.0
 20
-155.97963100000001
 30
0.0
 11
165.0
 21
-174.02036899999999
 31
0.0
  0
LINE
  8
DETAIL
  6
CONTINUOUS
 62
     5
 10
153.2896860000001
 20
-162.153773
 30
0.0
 11
153.2896860000001
 21
-177.0
 31
0.0
  0
LINE
  8
DETAIL
  6
CONTINUOUS
 62
     5
 10
147.276107
 20
-157.0
 30
0.0
 11
147.276107
 21
-177.0
 31
0.0
  0
LINE
  8
NOTE
  6
DASHDOT
 62
     4
 10
174.02036899999999
 20
-165.0
 30
0.0
 11
155.97963100000001
 21
-165.0
 31
0.0
  0
ARC
  8
DETAIL
  6
CONTINUOUS
 62
     5
 10
166.346543
 20
-166.346543
 30
0.0
 40
4.1092789999999999
 50
226.39759699999681
 51
45.0
  0
ARC
  8
DETAIL
  6
CONTINUOUS
 62
     5
 10
163.653457
 20
-163.653457
 30
0.0
 40
4.1092789999999999
 50
45.0
 51
223.60240300000149
  0
LINE
  8
DETAIL
  6
CONTINUOUS
 62
     5
 10
178.54671800000011
 20
-152.64823799999999
 30
0.0
 11
162.4525120000001
 21
-152.64823799999999
 31
0.0
  0
CIRCLE
  8
DETAIL
  6
CONTINUOUS
 62
     5
 10
165.0
 20
-165.0
 30
0.0
 40
4.0090529999999998
  0
CIRCLE
  8
NOTE
  6
CONTINUOUS
 62
     4
 10
165.0
 20
-165.0
 30
0.0
 40
3.0067900000000001
  0
LINE
  8
DETAIL
  6
CONTINUOUS
 62
     5
 10
177.0
 20
-146.634659
 30
0.0
 11
157.29873900000001
 21
-146.634659
 31
0.0
  0
LINE
  8
DETAIL
  6
CONTINUOUS
 62
     5
 10
155.44501700000001
 20
-143.26634100000001
 30
0.0
 11
143.26634100000001
 21
-155.44501700000001
 31
0.0
  0
ARC
  8
DETAIL
  6
CONTINUOUS
 62
     5
 10
162.4525120000001
 20
-147.636922
 30
0.0
 40
5.0113160000000008
 50
225.0
 51
270.0
  0
LINE
  8
DETAIL
  6
CONTINUOUS
 62
     5
 10
134.59844799999999
 20
-151.63886199999999
 30
0.0
 11
134.59844799999999
 21
-149.0
 31
0.0
  0
LINE
  8
DETAIL
  6
CONTINUOUS
 62
     5
 10
139.60976400000001
 20
-149.0
 30
0.0
 11
139.60976400000001
 21
-151.63886199999999
 31
0.0
  0
ARC
  8
DETAIL
  6
CONTINUOUS
 62
     5
 10
140.561913
 20
-153.496194
 30
0.0
 40
1.857329
 50
90.0
 51
128.35773499999971
  0
LINE
  8
DETAIL
  6
CONTINUOUS
 62
     5
 10
149.0
 20
-134.106369
 30
0.0
 11
151.788231
 21
-134.106369
 31
0.0
  0
LINE
  8
DETAIL
  6
CONTINUOUS
 62
     5
 10
151.788231
 20
-139.11768499999999
 30
0.0
 11
149.0
 21
-139.11768499999999
 31
0.0
  0
LINE
  8
DETAIL
  6
CONTINUOUS
 62
     5
 10
149.0
 20
-139.11768499999999
 30
0.0
 11
149.0
 21
-134.106369
 31
0.0
  0
LINE
  8
DETAIL
  6
CONTINUOUS
 62
     5
 10
134.59844799999999
 20
-149.0
 30
0.0
 11
139.60976400000001
 21
-149.0
 31
0.0
  0
LINE
  8
DETAIL
  6
CONTINUOUS
 62
     5
 10
152.18914300000009
 20
-141.222433
 30
0.0
 11
151.788239
 21
-140.520848
 31
0.0
  0
LINE
  8
DETAIL
  6
CONTINUOUS
 62
     5
 10
155.79728399999999
 20
-132.00161600000001
 30
0.0
 11
155.79728399999999
 21
-141.22243800000001
 31
0.0
  0
LINE
  8
DETAIL
  6
CONTINUOUS
 62
     5
 10
155.79728399999999
 20
-131.60071099999999
 30
0.0
 11
157.0
 21
-131.60071099999999
 31
0.0
  0
ARC
  8
DETAIL
  6
CONTINUOUS
 62
     5
 10
153.64556200000001
 20
-140.06983399999999
 30
0.0
 40
1.857327
 50
141.64233099999831
 51
180.00001799999919
  0
ARC
  8
DETAIL
  6
CONTINUOUS
 62
     5
 10
158.61614900000001
 20
-136.61202700000001
 30
0.0
 40
6.8279160000000001
 50
160.26842099999959
 51
199.73166999999879
  0
ARC
  8
DETAIL
  6
CONTINUOUS
 62
     5
 10
153.64556300000001
 20
-133.15422000000001
 30
0.0
 40
1.857329
 50
180.00001799999919
 51
218.35773499999971
  0
LINE
  8
DETAIL
  6
CONTINUOUS
 62
     5
 10
152.1891370000001
 20
-138.91723300000001
 30
0.0
 11
155.79728399999999
 21
-138.91723300000001
 31
0.0
  0
LINE
  8
DETAIL
  6
CONTINUOUS
 62
     5
 10
152.1891370000001
 20
-134.30682200000001
 30
0.0
 11
155.79728399999999
 21
-134.30682200000001
 31
0.0
  0
LINE
  8
DETAIL
  6
CONTINUOUS
 62
     5
 10
152.1891370000001
 20
-132.00161700000001
 30
0.0
 11
155.79728299999999
 21
-132.00161700000001
 31
0.0
  0
LINE
  8
DETAIL
  6
CONTINUOUS
 62
     5
 10
151.788239
 20
-132.70320599999999
 30
0.0
 11
152.18914300000009
 21
-132.001621
 31
0.0
  0
LINE
  8
DETAIL
  6
CONTINUOUS
 62
     5
 10
151.788231
 20
-140.52085199999999
 30
0.0
 11
151.788231
 21
-132.703202
 31
0.0
  0
LINE
  8
DETAIL
  6
CONTINUOUS
 62
     5
 10
158.90897699999999
 20
-151.18045799999999
 30
0.0
 11
153.36930799999999
 21
-145.64078900000001
 31
0.0
  0
ARC
  8
DETAIL
  6
CONTINUOUS
 62
     5
 10
154.59456800000001
 20
-142.073183
 30
0.0
 40
2.4054319999999998
 50
315.0
 51
0.0
  0
LINE
  8
DETAIL
  6
CONTINUOUS
 62
     5
 10
156.29546499999989
 20
-143.77408
 30
0.0
 11
153.89903200000001
 21
-146.170513
 31
0.0
  0
ARC
  8
DETAIL
  6
CONTINUOUS
 62
     5
 10
154.59456800000001
 20
-142.41589200000001
 30
0.0
 40
1.2027159999999999
 50
315.0
 51
0.0
  0
LINE
  8
DETAIL
  6
CONTINUOUS
 62
     5
 10
155.79728499999999
 20
-141.22243700000001
 30
0.0
 11
152.1891370000001
 21
-141.22243700000001
 31
0.0
  0
LINE
  8
DETAIL
  6
CONTINUOUS
 62
     5
 10
151.82190600000001
 20
-158.61023800000001
 30
0.0
 11
146.11088199999989
 21
-152.899214
 31
0.0
  0
ARC
  8
DETAIL
  6
CONTINUOUS
 62
     5
 10
137.104106
 20
-158.46678
 30
0.0
 40
6.8279160000000001
 50
70.268420999999165
 51
109.73167000000321
  0
LINE
  8
DETAIL
  6
CONTINUOUS
 62
     5
 10
134.798901
 20
-152.03976800000001
 30
0.0
 11
134.798901
 21
-155.64791500000001
 31
0.0
  0
LINE
  8
DETAIL
  6
CONTINUOUS
 62
     5
 10
139.409312
 20
-152.03976800000001
 30
0.0
 11
139.409312
 21
-155.64791500000001
 31
0.0
  0
LINE
  8
DETAIL
  6
CONTINUOUS
 62
     5
 10
141.714516
 20
-152.03976800000001
 30
0.0
 11
141.714516
 21
-155.64791399999999
 31
0.0
  0
LINE
  8
DETAIL
  6
CONTINUOUS
 62
     5
 10
141.01292699999999
 20
-151.638869
 30
0.0
 11
141.71451200000001
 21
-152.03977399999999
 31
0.0
  0
LINE
  8
DETAIL
  6
CONTINUOUS
 62
     5
 10
146.961331
 20
-153.749663
 30
0.0
 11
144.41552799999999
 21
-156.29546500000001
 31
0.0
  0
ARC
  8
DETAIL
  6
CONTINUOUS
 62
     5
 10
142.71463100000011
 20
-154.59456800000001
 30
0.0
 40
2.4054319999999998
 50
270.0
 51
315.0
  0
ARC
  8
DETAIL
  6
CONTINUOUS
 62
     5
 10
142.5652620000001
 20
-154.445199
 30
0.0
 40
1.2027159999999999
 50
270.0
 51
315.0
  0
ARC
  8
DETAIL
  6
CONTINUOUS
 62
     5
 10
148.27837099999999
 20
-162.153773
 30
0.0
 40
5.0113160000000008
 50
0.0
 51
45.0
  0
LINE
  8
DETAIL
  6
CONTINUOUS
 62
     5
 10
161.8108179999999
 20
-171.02401
 30
0.0
 11
158.97599
 21
-168.18918199999999
 31
0.0
  0
LINE
  8
DETAIL
  6
CONTINUOUS
 62
     5
 10
163.5125800000001
 20
-169.322249
 30
0.0
 11
161.8108179999999
 21
-171.02401
 31
0.0
  0
LINE
  8
DETAIL
  6
CONTINUOUS
 62
     5
 10
160.67775099999989
 20
-166.48741999999999
 30
0.0
 11
158.97599
 21
-168.18918199999999
 31
0.0
  0
LINE
  8
DETAIL
  6
CONTINUOUS
 62
     5
 10
179.44875500000001
 20
-133.23439999999999
 30
0.0
 11
179.44875500000001
 21
-142.55544800000001
 31
0.0
  0
LINE
  8
DETAIL
  6
CONTINUOUS
 62
     5
 10
178.54671800000011
 20
-141.65341100000001
 30
0.0
 11
179.44875500000001
 21
-142.55544800000001
 31
0.0
  0
LINE
  8
DETAIL
  6
CONTINUOUS
 62
     5
 10
180.0
 20
-133.23439999999999
 30
0.0
 11
180.0
 21
-142.55544800000001
 31
0.0
  0
LINE
  8
DETAIL
  6
CONTINUOUS
 62
     5
 10
177.0
 20
-132.88360800000001
 30
0.0
 11
178.54671800000011
 21
-132.88360800000001
 31
0.0
  0
LINE
  8
DETAIL
  6
CONTINUOUS
 62
     5
 10
178.54671800000011
 20
-134.136437
 30
0.0
 11
179.44875500000001
 21
-133.23439999999999
 31
0.0
  0
LINE
  8
DETAIL
  6
CONTINUOUS
 62
     5
 10
179.44875500000001
 20
-133.23439999999999
 30
0.0
 11
180.0
 21
-133.23439999999999
 31
0.0
  0
LINE
  8
DETAIL
  6
CONTINUOUS
 62
     5
 10
179.44875500000001
 20
-142.55544800000001
 30
0.0
 11
180.0
 21
-142.55544800000001
 31
0.0
  0
LINE
  8
DETAIL
  6
CONTINUOUS
 62
     5
 10
166.559156
 20
-160.74775700000001
 30
0.0
 11
169.25224299999999
 21
-163.440844
 31
0.0
  0
LINE
  8
DETAIL
  6
CONTINUOUS
 62
     5
 10
169.25224299999999
 20
-163.440844
 30
0.0
 11
166.559156
 21
-160.74775700000001
 31
0.0
  0
LINE
  8
DETAIL
  6
CONTINUOUS
 62
     5
 10
141.01196200000001
 20
-178.84416400000001
 30
0.0
 11
141.91399899999999
 21
-179.44875500000001
 31
0.0
  0
LINE
  8
DETAIL
  6
CONTINUOUS
 62
     5
 10
141.91399899999999
 20
-179.44875500000001
 30
0.0
 11
141.91399899999999
 21
-180.0
 31
0.0
  0
LINE
  8
DETAIL
  6
CONTINUOUS
 62
     5
 10
175.33947599999999
 20
-177.14031700000001
 30
0.0
 11
175.33947599999999
 21
-178.84416400000001
 31
0.0
  0
LINE
  8
DETAIL
  6
CONTINUOUS
 62
     5
 10
178.54671800000011
 20
-175.636922
 30
0.0
 11
176.84287100000009
 21
-175.636922
 31
0.0
  0
ARC
  8
DETAIL
  6
CONTINUOUS
 62
     5
 10
176.84287100000009
 20
-177.14031700000001
 30
0.0
 40
1.503395
 50
90.0
 51
180.0
  0
LINE
  8
DETAIL
  6
CONTINUOUS
 62
     5
 10
177.34400299999999
 20
-177.641448
 30
0.0
 11
175.33947599999999
 21
-177.641448
 31
0.0
  0
LINE
  8
DETAIL
  6
CONTINUOUS
 62
     5
 10
177.34400299999999
 20
-175.636922
 30
0.0
 11
177.34400299999999
 21
-177.641448
 31
0.0
  0
LINE
  8
OUTLINE
  6
CONTINUOUS
 62
     3
 10
177.0
 20
0.0
 30
0.0
 11
177.0
 21
-127.872292
 31
0.0
  0
LINE
  8
OUTLINE
  6
CONTINUOUS
 62
     3
 10
127.23084399999991
 20
-177.0
 30
0.0
 11
0.0
 21
-177.0
 31
0.0
  0
LINE
  8
OUTLINE
  6
CONTINUOUS
 62
     3
 10
127.23084399999991
 20
-177.641448
 30
0.0
 11
127.23084399999991
 21
-177.641448
 31
0.0
  0
LINE
  8
OUTLINE
  6
CONTINUOUS
 62
     3
 10
175.33947599999999
 20
-178.84416400000001
 30
0.0
 11
127.23084399999991
 21
-178.84416400000001
 31
0.0
  0
LINE
  8
OUTLINE
  6
CONTINUOUS
 62
     3
 10
127.23084399999991
 20
-178.84416400000001
 30
0.0
 11
127.23084399999991
 21
-177.0
 31
0.0
  0
LINE
  8
OUTLINE
  6
CONTINUOUS
 62
     3
 10
178.54671800000011
 20
-127.872292
 30
0.0
 11
178.54671800000011
 21
-175.636922
 31
0.0
  0
LINE
  8
OUTLINE
  6
CONTINUOUS
 62
     3
 10
178.54671800000011
 20
-127.872292
 30
0.0
 11
177.0
 21
-127.872292
 31
0.0
  0
LINE
  8
OUTLINE
  6
CONTINUOUS
 62
     3
 10
175.33947599999999
 20
-177.14031700000001
 30
0.0
 11
175.33947599999999
 21
-178.84416400000001
 31
0.0
  0
LINE
  8
OUTLINE
  6
CONTINUOUS
 62
     3
 10
178.54671800000011
 20
-175.636922
 30
0.0
 11
176.84287100000009
 21
-175.636922
 31
0.0
  0
ARC
  8
OUTLINE
  6
CONTINUOUS
 62
     3
 10
176.84287100000009
 20
-177.14031700000001
 30
0.0
 40
1.503395
 50
90.0
 51
180.0
  0
LINE
  8
DETAIL
  6
CONTINUOUS
 62
     5
 39
50.0
 10
132.592952
 20
-179.44875500000001
 30
0.0
 11
141.91399899999999
 21
-179.44875500000001
 31
0.0
  0
LINE
  8
DETAIL
  6
CONTINUOUS
 62
     5
 10
-177.0
 20
0.0
 30
0.0
 11
-177.0
 21
152.64823799999999
 31
0.0
  0
LINE
  8
DETAIL
  6
CONTINUOUS
 62
     5
 10
-157.0
 20
0.0
 30
0.0
 11
-157.0
 21
149.27148099999999
 31
0.0
  0
LINE
  8
DETAIL
  6
CONTINUOUS
 62
     5
 10
-153.28968599999999
 20
177.0
 30
0.0
 11
0.0
 21
177.0
 31
0.0
  0
LINE
  8
DETAIL
  6
CONTINUOUS
 62
     5
 10
-150.211668
 20
157.0
 30
0.0
 11
0.0
 21
157.0
 31
0.0
  0
LINE
  8
DETAIL
  6
CONTINUOUS
 62
     5
 10
-153.28968599999999
 20
177.0
 30
0.0
 11
-127.230844
 21
177.0
 31
0.0
  0
LINE
  8
DETAIL
  6
CONTINUOUS
 62
     5
 10
-175.33947599999999
 20
178.84416400000001
 30
0.0
 11
-127.230844
 21
178.84416400000001
 31
0.0
  0
LINE
  8
DETAIL
  6
CONTINUOUS
 62
     5
 10
-127.081474
 20
155.64791500000001
 30
0.0
 11
-142.56526199999999
 21
155.64791500000001
 31
0.0
  0
ARC
  8
DETAIL
  6
CONTINUOUS
 62
     5
 10
-133.646299
 20
153.49619200000001
 30
0.0
 40
1.857327
 50
231.64233100000291
 51
270.0
  0
LINE
  8
DETAIL
  6
CONTINUOUS
 62
     5
 10
-133.19528099999999
 20
151.63886199999999
 30
0.0
 11
-141.01293100000001
 21
151.63886199999999
 31
0.0
  0
LINE
  8
DETAIL
  6
CONTINUOUS
 62
     5
 10
-141.714517
 20
155.64791500000001
 30
0.0
 11
-132.493695
 21
155.64791500000001
 31
0.0
  0
LINE
  8
DETAIL
  6
CONTINUOUS
 62
     5
 10
-141.91399899999999
 20
180.0
 30
0.0
 11
-132.592952
 21
180.0
 31
0.0
  0
LINE
  8
DETAIL
  6
CONTINUOUS
 62
     5
 10
-127.081474
 20
155.64791500000001
 30
0.0
 11
-127.081474
 21
156.85063
 31
0.0
  0
LINE
  8
DETAIL
  6
CONTINUOUS
 62
     5
 10
-132.09279000000001
 20
156.85063
 30
0.0
 11
-132.09279000000001
 21
155.64791500000001
 31
0.0
  0
LINE
  8
DETAIL
  6
CONTINUOUS
 62
     5
 10
-132.49369999999999
 20
152.03977399999999
 30
0.0
 11
-133.19528500000001
 21
151.638869
 31
0.0
  0
LINE
  8
DETAIL
  6
CONTINUOUS
 62
     5
 10
-132.493696
 20
155.64791600000001
 30
0.0
 11
-132.493696
 21
152.03976800000001
 31
0.0
  0
LINE
  8
DETAIL
  6
CONTINUOUS
 62
     5
 10
-127.230844
 20
178.84416400000001
 30
0.0
 11
-127.230844
 21
177.641448
 31
0.0
  0
LINE
  8
DETAIL
  6
CONTINUOUS
 62
     5
 10
-132.24216000000001
 20
178.84416400000001
 30
0.0
 11
-132.24216000000001
 21
177.0
 31
0.0
  0
LINE
  8
DETAIL
  6
CONTINUOUS
 62
     5
 10
-133.494989
 20
178.84416400000001
 30
0.0
 11
-132.592952
 21
179.44875500000001
 31
0.0
  0
LINE
  8
DETAIL
  6
CONTINUOUS
 62
     5
 10
-132.592952
 20
179.44875500000001
 30
0.0
 11
-132.592952
 21
180.0
 31
0.0
  0
LINE
  8
DETAIL
  6
CONTINUOUS
 62
     5
 10
-178.546718
 20
127.872292
 30
0.0
 11
-178.546718
 21
175.636922
 31
0.0
  0
LINE
  8
DETAIL
  6
CONTINUOUS
 62
     5
 10
-155.79728399999999
 20
126.589395
 30
0.0
 11
-155.79728399999999
 21
142.41589200000001
 31
0.0
  0
LINE
  8
DETAIL
  6
CONTINUOUS
 62
     5
 10
-157.0
 20
126.589395
 30
0.0
 11
-157.0
 21
142.073183
 31
0.0
  0
LINE
  8
DETAIL
  6
CONTINUOUS
 62
     5
 10
-157.0
 20
126.589395
 30
0.0
 11
-155.79728399999999
 21
126.589395
 31
0.0
  0
LINE
  8
DETAIL
  6
CONTINUOUS
 62
     5
 10
-178.546718
 20
127.872292
 30
0.0
 11
-177.0
 21
127.872292
 31
0.0
  0
LINE
  8
NOTE
  6
DASHDOT
 62
     4
 10
-165.0
 20
155.97963100000001
 30
0.0
 11
-165.0
 21
174.02036899999999
 31
0.0
  0
LINE
  8
DETAIL
  6
CONTINUOUS
 62
     5
 10
-153.28968599999999
 20
162.153773
 30
0.0
 11
-153.28968599999999
 21
177.0
 31
0.0
  0
LINE
  8
DETAIL
  6
CONTINUOUS
 62
     5
 10
-147.276107
 20
157.0
 30
0.0
 11
-147.276107
 21
177.0
 31
0.0
  0
LINE
  8
NOTE
  6
DASHDOT
 62
     4
 10
-174.02036899999999
 20
165.0
 30
0.0
 11
-155.97963100000001
 21
165.0
 31
0.0
  0
ARC
  8
DETAIL
  6
CONTINUOUS
 62
     5
 10
-166.346543
 20
166.346543
 30
0.0
 40
4.1092789999999999
 50
46.397596999996743
 51
225.0
  0
ARC
  8
DETAIL
  6
CONTINUOUS
 62
     5
 10
-163.653457
 20
163.653457
 30
0.0
 40
4.1092789999999999
 50
225.0
 51
43.602403000001438
  0
LINE
  8
DETAIL
  6
CONTINUOUS
 62
     5
 10
-178.546718
 20
152.64823799999999
 30
0.0
 11
-162.45251200000001
 21
152.64823799999999
 31
0.0
  0
CIRCLE
  8
DETAIL
  6
CONTINUOUS
 62
     5
 10
-165.0
 20
165.0
 30
0.0
 40
4.0090529999999998
  0
CIRCLE
  8
NOTE
  6
CONTINUOUS
 62
     4
 10
-165.0
 20
165.0
 30
0.0
 40
3.0067900000000001
  0
LINE
  8
DETAIL
  6
CONTINUOUS
 62
     5
 10
-177.0
 20
146.634659
 30
0.0
 11
-157.29873900000001
 21
146.634659
 31
0.0
  0
LINE
  8
DETAIL
  6
CONTINUOUS
 62
     5
 10
-155.44501700000001
 20
143.26634100000001
 30
0.0
 11
-143.26634100000001
 21
155.44501700000001
 31
0.0
  0
ARC
  8
DETAIL
  6
CONTINUOUS
 62
     5
 10
-162.45251200000001
 20
147.636922
 30
0.0
 40
5.0113160000000008
 50
45.0
 51
90.0
  0
LINE
  8
DETAIL
  6
CONTINUOUS
 62
     5
 10
-134.59844799999999
 20
151.63886199999999
 30
0.0
 11
-134.59844799999999
 21
149.0
 31
0.0
  0
LINE
  8
DETAIL
  6
CONTINUOUS
 62
     5
 10
-139.60976400000001
 20
149.0
 30
0.0
 11
-139.60976400000001
 21
151.63886199999999
 31
0.0
  0
ARC
  8
DETAIL
  6
CONTINUOUS
 62
     5
 10
-140.561913
 20
153.496194
 30
0.0
 40
1.857329
 50
270.0
 51
308.35773499999908
  0
LINE
  8
DETAIL
  6
CONTINUOUS
 62
     5
 10
-149.0
 20
134.106369
 30
0.0
 11
-151.788231
 21
134.106369
 31
0.0
  0
LINE
  8
DETAIL
  6
CONTINUOUS
 62
     5
 10
-151.788231
 20
139.11768500000011
 30
0.0
 11
-149.0
 21
139.11768500000011
 31
0.0
  0
LINE
  8
DETAIL
  6
CONTINUOUS
 62
     5
 10
-149.0
 20
139.11768500000011
 30
0.0
 11
-149.0
 21
134.106369
 31
0.0
  0
LINE
  8
DETAIL
  6
CONTINUOUS
 62
     5
 10
-134.59844799999999
 20
149.0
 30
0.0
 11
-139.60976400000001
 21
149.0
 31
0.0
  0
LINE
  8
DETAIL
  6
CONTINUOUS
 62
     5
 10
-152.189143
 20
141.222433
 30
0.0
 11
-151.788239
 21
140.520848
 31
0.0
  0
LINE
  8
DETAIL
  6
CONTINUOUS
 62
     5
 10
-155.79728399999999
 20
132.00161600000001
 30
0.0
 11
-155.79728399999999
 21
141.22243800000001
 31
0.0
  0
LINE
  8
DETAIL
  6
CONTINUOUS
 62
     5
 10
-155.79728399999999
 20
131.60071099999999
 30
0.0
 11
-157.0
 21
131.60071099999999
 31
0.0
  0
ARC
  8
DETAIL
  6
CONTINUOUS
 62
     5
 10
-153.64556200000001
 20
140.06983399999999
 30
0.0
 40
1.857327
 50
321.64233099999831
 51
0.0000179999992061
  0
ARC
  8
DETAIL
  6
CONTINUOUS
 62
     5
 10
-158.61614900000001
 20
136.61202700000001
 30
0.0
 40
6.8279160000000001
 50
340.26842099999959
 51
19.73166999999879
  0
ARC
  8
DETAIL
  6
CONTINUOUS
 62
     5
 10
-153.64556300000001
 20
133.15422000000001
 30
0.0
 40
1.857329
 50
0.0000179999992061
 51
38.357734999999693
  0
LINE
  8
DETAIL
  6
CONTINUOUS
 62
     5
 10
-152.18913699999999
 20
138.91723300000001
 30
0.0
 11
-155.79728399999999
 21
138.91723300000001
 31
0.0
  0
LINE
  8
DETAIL
  6
CONTINUOUS
 62
     5
 10
-152.18913699999999
 20
134.30682200000001
 30
0.0
 11
-155.79728399999999
 21
134.30682200000001
 31
0.0
  0
LINE
  8
DETAIL
  6
CONTINUOUS
 62
     5
 10
-152.18913699999999
 20
132.00161700000001
 30
0.0
 11
-155.79728299999999
 21
132.00161700000001
 31
0.0
  0
LINE
  8
DETAIL
  6
CONTINUOUS
 62
     5
 10
-151.788239
 20
132.70320599999999
 30
0.0
 11
-152.189143
 21
132.001621
 31
0.0
  0
LINE
  8
DETAIL
  6
CONTINUOUS
 62
     5
 10
-151.788231
 20
140.52085199999999
 30
0.0
 11
-151.788231
 21
132.703202
 31
0.0
  0
LINE
  8
DETAIL
  6
CONTINUOUS
 62
     5
 10
-158.90897699999999
 20
151.18045799999999
 30
0.0
 11
-153.36930799999999
 21
145.64078900000001
 31
0.0
  0
ARC
  8
DETAIL
  6
CONTINUOUS
 62
     5
 10
-154.59456800000001
 20
142.073183
 30
0.0
 40
2.4054319999999998
 50
135.0
 51
180.0
  0
LINE
  8
DETAIL
  6
CONTINUOUS
 62
     5
 10
-156.29546500000001
 20
143.77408
 30
0.0
 11
-153.89903200000001
 21
146.170513
 31
0.0
  0
ARC
  8
DETAIL
  6
CONTINUOUS
 62
     5
 10
-154.59456800000001
 20
142.41589200000001
 30
0.0
 40
1.2027159999999999
 50
135.0
 51
180.0
  0
LINE
  8
DETAIL
  6
CONTINUOUS
 62
     5
 10
-155.79728499999999
 20
141.22243700000001
 30
0.0
 11
-152.18913699999999
 21
141.22243700000001
 31
0.0
  0
LINE
  8
DETAIL
  6
CONTINUOUS
 62
     5
 10
-151.82190600000001
 20
158.61023800000001
 30
0.0
 11
-146.110882
 21
152.899214
 31
0.0
  0
ARC
  8
DETAIL
  6
CONTINUOUS
 62
     5
 10
-137.104106
 20
158.46678
 30
0.0
 40
6.8279160000000001
 50
250.26842099999919
 51
289.73167000000308
  0
LINE
  8
DETAIL
  6
CONTINUOUS
 62
     5
 10
-134.798901
 20
152.03976800000001
 30
0.0
 11
-134.798901
 21
155.64791500000001
 31
0.0
  0
LINE
  8
DETAIL
  6
CONTINUOUS
 62
     5
 10
-139.409312
 20
152.03976800000001
 30
0.0
 11
-139.409312
 21
155.64791500000001
 31
0.0
  0
LINE
  8
DETAIL
  6
CONTINUOUS
 62
     5
 10
-141.714516
 20
152.03976800000001
 30
0.0
 11
-141.714516
 21
155.64791399999999
 31
0.0
  0
LINE
  8
DETAIL
  6
CONTINUOUS
 62
     5
 10
-141.01292699999999
 20
151.638869
 30
0.0
 11
-141.71451200000001
 21
152.03977399999999
 31
0.0
  0
LINE
  8
DETAIL
  6
CONTINUOUS
 62
     5
 10
-146.961331
 20
153.749663
 30
0.0
 11
-144.41552799999999
 21
156.29546500000001
 31
0.0
  0
ARC
  8
DETAIL
  6
CONTINUOUS
 62
     5
 10
-142.714631
 20
154.59456800000001
 30
0.0
 40
2.4054319999999998
 50
90.0
 51
135.0
  0
ARC
  8
DETAIL
  6
CONTINUOUS
 62
     5
 10
-142.56526199999999
 20
154.445199
 30
0.0
 40
1.2027159999999999
 50
90.0
 51
135.0
  0
ARC
  8
DETAIL
  6
CONTINUOUS
 62
     5
 10
-148.27837099999999
 20
162.153773
 30
0.0
 40
5.0113160000000008
 50
180.0
 51
225.0
  0
LINE
  8
DETAIL
  6
CONTINUOUS
 62
     5
 10
-161.81081800000001
 20
171.02401
 30
0.0
 11
-158.97599
 21
168.18918199999999
 31
0.0
  0
LINE
  8
DETAIL
  6
CONTINUOUS
 62
     5
 10
-163.51258000000001
 20
169.322249
 30
0.0
 11
-161.81081800000001
 21
171.02401
 31
0.0
  0
LINE
  8
DETAIL
  6
CONTINUOUS
 62
     5
 10
-160.677751
 20
166.48741999999999
 30
0.0
 11
-158.97599
 21
168.18918199999999
 31
0.0
  0
LINE
  8
DETAIL
  6
CONTINUOUS
 62
     5
 10
-179.44875500000001
 20
133.23439999999999
 30
0.0
 11
-179.44875500000001
 21
142.55544800000001
 31
0.0
  0
LINE
  8
DETAIL
  6
CONTINUOUS
 62
     5
 10
-178.546718
 20
141.65341100000001
 30
0.0
 11
-179.44875500000001
 21
142.55544800000001
 31
0.0
  0
LINE
  8
DETAIL
  6
CONTINUOUS
 62
     5
 10
-180.0
 20
133.23439999999999
 30
0.0
 11
-180.0
 21
142.55544800000001
 31
0.0
  0
LINE
  8
DETAIL
  6
CONTINUOUS
 62
     5
 10
-177.0
 20
132.88360800000001
 30
0.0
 11
-178.546718
 21
132.88360800000001
 31
0.0
  0
LINE
  8
DETAIL
  6
CONTINUOUS
 62
     5
 10
-178.546718
 20
134.136437
 30
0.0
 11
-179.44875500000001
 21
133.23439999999999
 31
0.0
  0
LINE
  8
DETAIL
  6
CONTINUOUS
 62
     5
 10
-179.44875500000001
 20
133.23439999999999
 30
0.0
 11
-180.0
 21
133.23439999999999
 31
0.0
  0
LINE
  8
DETAIL
  6
CONTINUOUS
 62
     5
 10
-179.44875500000001
 20
142.55544800000001
 30
0.0
 11
-180.0
 21
142.55544800000001
 31
0.0
  0
LINE
  8
DETAIL
  6
CONTINUOUS
 62
     5
 10
-166.559156
 20
160.74775700000001
 30
0.0
 11
-169.25224299999999
 21
163.440844
 31
0.0
  0
LINE
  8
DETAIL
  6
CONTINUOUS
 62
     5
 10
-169.25224299999999
 20
163.440844
 30
0.0
 11
-166.559156
 21
160.74775700000001
 31
0.0
  0
LINE
  8
DETAIL
  6
CONTINUOUS
 62
     5
 10
-141.01196200000001
 20
178.84416400000001
 30
0.0
 11
-141.91399899999999
 21
179.44875500000001
 31
0.0
  0
LINE
  8
DETAIL
  6
CONTINUOUS
 62
     5
 10
-141.91399899999999
 20
179.44875500000001
 30
0.0
 11
-141.91399899999999
 21
180.0
 31
0.0
  0
LINE
  8
DETAIL
  6
CONTINUOUS
 62
     5
 10
-175.33947599999999
 20
177.14031700000001
 30
0.0
 11
-175.33947599999999
 21
178.84416400000001
 31
0.0
  0
LINE
  8
DETAIL
  6
CONTINUOUS
 62
     5
 10
-178.546718
 20
175.636922
 30
0.0
 11
-176.842871
 21
175.636922
 31
0.0
  0
ARC
  8
DETAIL
  6
CONTINUOUS
 62
     5
 10
-176.842871
 20
177.14031700000001
 30
0.0
 40
1.503395
 50
270.0
 51
0.0
  0
LINE
  8
DETAIL
  6
CONTINUOUS
 62
     5
 10
-177.34400299999999
 20
177.641448
 30
0.0
 11
-175.33947599999999
 21
177.641448
 31
0.0
  0
LINE
  8
DETAIL
  6
CONTINUOUS
 62
     5
 10
-177.34400299999999
 20
175.636922
 30
0.0
 11
-177.34400299999999
 21
177.641448
 31
0.0
  0
LINE
  8
OUTLINE
  6
CONTINUOUS
 62
     3
 10
-177.0
 20
0.0
 30
0.0
 11
-177.0
 21
127.872292
 31
0.0
  0
LINE
  8
OUTLINE
  6
CONTINUOUS
 62
     3
 10
-127.230844
 20
177.0
 30
0.0
 11
0.0
 21
177.0
 31
0.0
  0
LINE
  8
OUTLINE
  6
CONTINUOUS
 62
     3
 10
-127.230844
 20
177.641448
 30
0.0
 11
-127.230844
 21
177.641448
 31
0.0
  0
LINE
  8
OUTLINE
  6
CONTINUOUS
 62
     3
 10
-175.33947599999999
 20
178.84416400000001
 30
0.0
 11
-127.230844
 21
178.84416400000001
 31
0.0
  0
LINE
  8
OUTLINE
  6
CONTINUOUS
 62
     3
 10
-127.230844
 20
178.84416400000001
 30
0.0
 11
-127.230844
 21
177.0
 31
0.0
  0
LINE
  8
OUTLINE
  6
CONTINUOUS
 62
     3
 10
-178.546718
 20
127.872292
 30
0.0
 11
-178.546718
 21
175.636922
 31
0.0
  0
LINE
  8
OUTLINE
  6
CONTINUOUS
 62
     3
 10
-178.546718
 20
127.872292
 30
0.0
 11
-177.0
 21
127.872292
 31
0.0
  0
LINE
  8
OUTLINE
  6
CONTINUOUS
 62
     3
 10
-175.33947599999999
 20
177.14031700000001
 30
0.0
 11
-175.33947599999999
 21
178.84416400000001
 31
0.0
  0
LINE
  8
OUTLINE
  6
CONTINUOUS
 62
     3
 10
-178.546718
 20
175.636922
 30
0.0
 11
-176.842871
 21
175.636922
 31
0.0
  0
ARC
  8
OUTLINE
  6
CONTINUOUS
 62
     3
 10
-176.842871
 20
177.14031700000001
 30
0.0
 40
1.503395
 50
270.0
 51
0.0
  0
LINE
  8
DETAIL
  6
CONTINUOUS
 62
     5
 39
50.0
 10
-132.592952
 20
179.44875500000001
 30
0.0
 11
-141.91399899999999
 21
179.44875500000001
 31
0.0
  0
LINE
  8
DETAIL
  6
CONTINUOUS
 62
     5
 10
-177.0
 20
0.0
 30
0.0
 11
-177.0
 21
-152.64823799999999
 31
0.0
  0
LINE
  8
DETAIL
  6
CONTINUOUS
 62
     5
 10
-157.0
 20
0.0
 30
0.0
 11
-157.0
 21
-149.27148099999999
 31
0.0
  0
LINE
  8
DETAIL
  6
CONTINUOUS
 62
     5
 10
-153.28968599999999
 20
-177.0
 30
0.0
 11
0.0
 21
-177.0
 31
0.0
  0
LINE
  8
DETAIL
  6
CONTINUOUS
 62
     5
 10
-150.211668
 20
-157.0
 30
0.0
 11
0.0
 21
-157.0
 31
0.0
  0
LINE
  8
DETAIL
  6
CONTINUOUS
 62
     5
 10
-153.28968599999999
 20
-177.0
 30
0.0
 11
-127.230844
 21
-177.0
 31
0.0
  0
LINE
  8
DETAIL
  6
CONTINUOUS
 62
     5
 10
-175.33947599999999
 20
-178.84416400000001
 30
0.0
 11
-127.230844
 21
-178.84416400000001
 31
0.0
  0
LINE
  8
DETAIL
  6
CONTINUOUS
 62
     5
 10
-127.081474
 20
-155.64791500000001
 30
0.0
 11
-142.56526199999999
 21
-155.64791500000001
 31
0.0
  0
ARC
  8
DETAIL
  6
CONTINUOUS
 62
     5
 10
-133.646299
 20
-153.49619200000001
 30
0.0
 40
1.857327
 50
90.0
 51
128.35766899999709
  0
LINE
  8
DETAIL
  6
CONTINUOUS
 62
     5
 10
-133.19528099999999
 20
-151.63886199999999
 30
0.0
 11
-141.01293100000001
 21
-151.63886199999999
 31
0.0
  0
LINE
  8
DETAIL
  6
CONTINUOUS
 62
     5
 10
-141.714517
 20
-155.64791500000001
 30
0.0
 11
-132.493695
 21
-155.64791500000001
 31
0.0
  0
LINE
  8
DETAIL
  6
CONTINUOUS
 62
     5
 10
-141.91399899999999
 20
-180.0
 30
0.0
 11
-132.592952
 21
-180.0
 31
0.0
  0
LINE
  8
DETAIL
  6
CONTINUOUS
 62
     5
 10
-127.081474
 20
-155.64791500000001
 30
0.0
 11
-127.081474
 21
-156.85063
 31
0.0
  0
LINE
  8
DETAIL
  6
CONTINUOUS
 62
     5
 10
-132.09279000000001
 20
-156.85063
 30
0.0
 11
-132.09279000000001
 21
-155.64791500000001
 31
0.0
  0
LINE
  8
DETAIL
  6
CONTINUOUS
 62
     5
 10
-132.49369999999999
 20
-152.03977399999999
 30
0.0
 11
-133.19528500000001
 21
-151.638869
 31
0.0
  0
LINE
  8
DETAIL
  6
CONTINUOUS
 62
     5
 10
-132.493696
 20
-155.64791600000001
 30
0.0
 11
-132.493696
 21
-152.03976800000001
 31
0.0
  0
LINE
  8
DETAIL
  6
CONTINUOUS
 62
     5
 10
-127.230844
 20
-178.84416400000001
 30
0.0
 11
-127.230844
 21
-177.641448
 31
0.0
  0
LINE
  8
DETAIL
  6
CONTINUOUS
 62
     5
 10
-132.24216000000001
 20
-178.84416400000001
 30
0.0
 11
-132.24216000000001
 21
-177.0
 31
0.0
  0
LINE
  8
DETAIL
  6
CONTINUOUS
 62
     5
 10
-133.494989
 20
-178.84416400000001
 30
0.0
 11
-132.592952
 21
-179.44875500000001
 31
0.0
  0
LINE
  8
DETAIL
  6
CONTINUOUS
 62
     5
 10
-132.592952
 20
-179.44875500000001
 30
0.0
 11
-132.592952
 21
-180.0
 31
0.0
  0
LINE
  8
DETAIL
  6
CONTINUOUS
 62
     5
 10
-178.546718
 20
-127.872292
 30
0.0
 11
-178.546718
 21
-175.636922
 31
0.0
  0
LINE
  8
DETAIL
  6
CONTINUOUS
 62
     5
 10
-155.79728399999999
 20
-126.589395
 30
0.0
 11
-155.79728399999999
 21
-142.41589200000001
 31
0.0
  0
LINE
  8
DETAIL
  6
CONTINUOUS
 62
     5
 10
-157.0
 20
-126.589395
 30
0.0
 11
-157.0
 21
-142.073183
 31
0.0
  0
LINE
  8
DETAIL
  6
CONTINUOUS
 62
     5
 10
-157.0
 20
-126.589395
 30
0.0
 11
-155.79728399999999
 21
-126.589395
 31
0.0
  0
LINE
  8
DETAIL
  6
CONTINUOUS
 62
     5
 10
-178.546718
 20
-127.872292
 30
0.0
 11
-177.0
 21
-127.872292
 31
0.0
  0
LINE
  8
NOTE
  6
DASHDOT
 62
     4
 10
-165.0
 20
-155.97963100000001
 30
0.0
 11
-165.0
 21
-174.02036899999999
 31
0.0
  0
LINE
  8
DETAIL
  6
CONTINUOUS
 62
     5
 10
-153.28968599999999
 20
-162.153773
 30
0.0
 11
-153.28968599999999
 21
-177.0
 31
0.0
  0
LINE
  8
DETAIL
  6
CONTINUOUS
 62
     5
 10
-147.276107
 20
-157.0
 30
0.0
 11
-147.276107
 21
-177.0
 31
0.0
  0
LINE
  8
NOTE
  6
DASHDOT
 62
     4
 10
-174.02036899999999
 20
-165.0
 30
0.0
 11
-155.97963100000001
 21
-165.0
 31
0.0
  0
ARC
  8
DETAIL
  6
CONTINUOUS
 62
     5
 10
-166.346543
 20
-166.346543
 30
0.0
 40
4.1092789999999999
 50
135.0
 51
313.60240300000328
  0
ARC
  8
DETAIL
  6
CONTINUOUS
 62
     5
 10
-163.653457
 20
-163.653457
 30
0.0
 40
4.1092789999999999
 50
316.39759699999729
 51
135.0
  0
LINE
  8
DETAIL
  6
CONTINUOUS
 62
     5
 10
-178.546718
 20
-152.64823799999999
 30
0.0
 11
-162.45251200000001
 21
-152.64823799999999
 31
0.0
  0
CIRCLE
  8
DETAIL
  6
CONTINUOUS
 62
     5
 10
-165.0
 20
-165.0
 30
0.0
 40
4.0090529999999998
  0
CIRCLE
  8
NOTE
  6
CONTINUOUS
 62
     4
 10
-165.0
 20
-165.0
 30
0.0
 40
3.0067900000000001
  0
LINE
  8
DETAIL
  6
CONTINUOUS
 62
     5
 10
-177.0
 20
-146.634659
 30
0.0
 11
-157.29873900000001
 21
-146.634659
 31
0.0
  0
LINE
  8
DETAIL
  6
CONTINUOUS
 62
     5
 10
-155.44501700000001
 20
-143.26634100000001
 30
0.0
 11
-143.26634100000001
 21
-155.44501700000001
 31
0.0
  0
ARC
  8
DETAIL
  6
CONTINUOUS
 62
     5
 10
-162.45251200000001
 20
-147.636922
 30
0.0
 40
5.0113160000000008
 50
270.0
 51
315.0
  0
LINE
  8
DETAIL
  6
CONTINUOUS
 62
     5
 10
-134.59844799999999
 20
-151.63886199999999
 30
0.0
 11
-134.59844799999999
 21
-149.0
 31
0.0
  0
LINE
  8
DETAIL
  6
CONTINUOUS
 62
     5
 10
-139.60976400000001
 20
-149.0
 30
0.0
 11
-139.60976400000001
 21
-151.63886199999999
 31
0.0
  0
ARC
  8
DETAIL
  6
CONTINUOUS
 62
     5
 10
-140.561913
 20
-153.496194
 30
0.0
 40
1.857329
 50
51.6422650000003
 51
90.0
  0
LINE
  8
DETAIL
  6
CONTINUOUS
 62
     5
 10
-149.0
 20
-134.106369
 30
0.0
 11
-151.788231
 21
-134.106369
 31
0.0
  0
LINE
  8
DETAIL
  6
CONTINUOUS
 62
     5
 10
-151.788231
 20
-139.11768499999999
 30
0.0
 11
-149.0
 21
-139.11768499999999
 31
0.0
  0
LINE
  8
DETAIL
  6
CONTINUOUS
 62
     5
 10
-149.0
 20
-139.11768499999999
 30
0.0
 11
-149.0
 21
-134.106369
 31
0.0
  0
LINE
  8
DETAIL
  6
CONTINUOUS
 62
     5
 10
-134.59844799999999
 20
-149.0
 30
0.0
 11
-139.60976400000001
 21
-149.0
 31
0.0
  0
LINE
  8
DETAIL
  6
CONTINUOUS
 62
     5
 10
-152.189143
 20
-141.222433
 30
0.0
 11
-151.788239
 21
-140.520848
 31
0.0
  0
LINE
  8
DETAIL
  6
CONTINUOUS
 62
     5
 10
-155.79728399999999
 20
-132.00161600000001
 30
0.0
 11
-155.79728399999999
 21
-141.22243800000001
 31
0.0
  0
LINE
  8
DETAIL
  6
CONTINUOUS
 62
     5
 10
-155.79728399999999
 20
-131.60071099999999
 30
0.0
 11
-157.0
 21
-131.60071099999999
 31
0.0
  0
ARC
  8
DETAIL
  6
CONTINUOUS
 62
     5
 10
-153.64556200000001
 20
-140.06983399999999
 30
0.0
 40
1.857327
 50
359.99998199999908
 51
38.357669000001678
  0
ARC
  8
DETAIL
  6
CONTINUOUS
 62
     5
 10
-158.61614900000001
 20
-136.61202700000001
 30
0.0
 40
6.8279160000000001
 50
340.26833000000039
 51
19.731579000000401
  0
ARC
  8
DETAIL
  6
CONTINUOUS
 62
     5
 10
-153.64556300000001
 20
-133.15422000000001
 30
0.0
 40
1.857329
 50
321.64226500000041
 51
359.99998199999908
  0
LINE
  8
DETAIL
  6
CONTINUOUS
 62
     5
 10
-152.18913699999999
 20
-138.91723300000001
 30
0.0
 11
-155.79728399999999
 21
-138.91723300000001
 31
0.0
  0
LINE
  8
DETAIL
  6
CONTINUOUS
 62
     5
 10
-152.18913699999999
 20
-134.30682200000001
 30
0.0
 11
-155.79728399999999
 21
-134.30682200000001
 31
0.0
  0
LINE
  8
DETAIL
  6
CONTINUOUS
 62
     5
 10
-152.18913699999999
 20
-132.00161700000001
 30
0.0
 11
-155.79728299999999
 21
-132.00161700000001
 31
0.0
  0
LINE
  8
DETAIL
  6
CONTINUOUS
 62
     5
 10
-151.788239
 20
-132.70320599999999
 30
0.0
 11
-152.189143
 21
-132.001621
 31
0.0
  0
LINE
  8
DETAIL
  6
CONTINUOUS
 62
     5
 10
-151.788231
 20
-140.52085199999999
 30
0.0
 11
-151.788231
 21
-132.703202
 31
0.0
  0
LINE
  8
DETAIL
  6
CONTINUOUS
 62
     5
 10
-158.90897699999999
 20
-151.18045799999999
 30
0.0
 11
-153.36930799999999
 21
-145.64078900000001
 31
0.0
  0
ARC
  8
DETAIL
  6
CONTINUOUS
 62
     5
 10
-154.59456800000001
 20
-142.073183
 30
0.0
 40
2.4054319999999998
 50
180.0
 51
225.0
  0
LINE
  8
DETAIL
  6
CONTINUOUS
 62
     5
 10
-156.29546500000001
 20
-143.77408
 30
0.0
 11
-153.89903200000001
 21
-146.170513
 31
0.0
  0
ARC
  8
DETAIL
  6
CONTINUOUS
 62
     5
 10
-154.59456800000001
 20
-142.41589200000001
 30
0.0
 40
1.2027159999999999
 50
180.0
 51
225.0
  0
LINE
  8
DETAIL
  6
CONTINUOUS
 62
     5
 10
-155.79728499999999
 20
-141.22243700000001
 30
0.0
 11
-152.18913699999999
 21
-141.22243700000001
 31
0.0
  0
LINE
  8
DETAIL
  6
CONTINUOUS
 62
     5
 10
-151.82190600000001
 20
-158.61023800000001
 30
0.0
 11
-146.110882
 21
-152.899214
 31
0.0
  0
ARC
  8
DETAIL
  6
CONTINUOUS
 62
     5
 10
-137.104106
 20
-158.46678
 30
0.0
 40
6.8279160000000001
 50
70.268329999996837
 51
109.73157900000081
  0
LINE
  8
DETAIL
  6
CONTINUOUS
 62
     5
 10
-134.798901
 20
-152.03976800000001
 30
0.0
 11
-134.798901
 21
-155.64791500000001
 31
0.0
  0
LINE
  8
DETAIL
  6
CONTINUOUS
 62
     5
 10
-139.409312
 20
-152.03976800000001
 30
0.0
 11
-139.409312
 21
-155.64791500000001
 31
0.0
  0
LINE
  8
DETAIL
  6
CONTINUOUS
 62
     5
 10
-141.714516
 20
-152.03976800000001
 30
0.0
 11
-141.714516
 21
-155.64791399999999
 31
0.0
  0
LINE
  8
DETAIL
  6
CONTINUOUS
 62
     5
 10
-141.01292699999999
 20
-151.638869
 30
0.0
 11
-141.71451200000001
 21
-152.03977399999999
 31
0.0
  0
LINE
  8
DETAIL
  6
CONTINUOUS
 62
     5
 10
-146.961331
 20
-153.749663
 30
0.0
 11
-144.41552799999999
 21
-156.29546500000001
 31
0.0
  0
ARC
  8
DETAIL
  6
CONTINUOUS
 62
     5
 10
-142.714631
 20
-154.59456800000001
 30
0.0
 40
2.4054319999999998
 50
225.0
 51
270.0
  0
ARC
  8
DETAIL
  6
CONTINUOUS
 62
     5
 10
-142.56526199999999
 20
-154.445199
 30
0.0
 40
1.2027159999999999
 50
225.0
 51
270.0
  0
ARC
  8
DETAIL
  6
CONTINUOUS
 62
     5
 10
-148.27837099999999
 20
-162.153773
 30
0.0
 40
5.0113160000000008
 50
135.0
 51
180.0
  0
LINE
  8
DETAIL
  6
CONTINUOUS
 62
     5
 10
-161.81081800000001
 20
-171.02401
 30
0.0
 11
-158.97599
 21
-168.18918199999999
 31
0.0
  0
LINE
  8
DETAIL
  6
CONTINUOUS
 62
     5
 10
-163.51258000000001
 20
-169.322249
 30
0.0
 11
-161.81081800000001
 21
-171.02401
 31
0.0
  0
LINE
  8
DETAIL
  6
CONTINUOUS
 62
     5
 10
-160.677751
 20
-166.48741999999999
 30
0.0
 11
-158.97599
 21
-168.18918199999999
 31
0.0
  0
LINE
  8
DETAIL
  6
CONTINUOUS
 62
     5
 10
-179.44875500000001
 20
-133.23439999999999
 30
0.0
 11
-179.44875500000001
 21
-142.55544800000001
 31
0.0
  0
LINE
  8
DETAIL
  6
CONTINUOUS
 62
     5
 10
-178.546718
 20
-141.65341100000001
 30
0.0
 11
-179.44875500000001
 21
-142.55544800000001
 31
0.0
  0
LINE
  8
DETAIL
  6
CONTINUOUS
 62
     5
 10
-180.0
 20
-133.23439999999999
 30
0.0
 11
-180.0
 21
-142.55544800000001
 31
0.0
  0
LINE
  8
DETAIL
  6
CONTINUOUS
 62
     5
 10
-177.0
 20
-132.88360800000001
 30
0.0
 11
-178.546718
 21
-132.88360800000001
 31
0.0
  0
LINE
  8
DETAIL
  6
CONTINUOUS
 62
     5
 10
-178.546718
 20
-134.136437
 30
0.0
 11
-179.44875500000001
 21
-133.23439999999999
 31
0.0
  0
LINE
  8
DETAIL
  6
CONTINUOUS
 62
     5
 10
-179.44875500000001
 20
-133.23439999999999
 30
0.0
 11
-180.0
 21
-133.23439999999999
 31
0.0
  0
LINE
  8
DETAIL
  6
CONTINUOUS
 62
     5
 10
-179.44875500000001
 20
-142.55544800000001
 30
0.0
 11
-180.0
 21
-142.55544800000001
 31
0.0
  0
LINE
  8
DETAIL
  6
CONTINUOUS
 62
     5
 10
-166.559156
 20
-160.74775700000001
 30
0.0
 11
-169.25224299999999
 21
-163.440844
 31
0.0
  0
LINE
  8
DETAIL
  6
CONTINUOUS
 62
     5
 10
-169.25224299999999
 20
-163.440844
 30
0.0
 11
-166.559156
 21
-160.74775700000001
 31
0.0
  0
LINE
  8
DETAIL
  6
CONTINUOUS
 62
     5
 10
-141.01196200000001
 20
-178.84416400000001
 30
0.0
 11
-141.91399899999999
 21
-179.44875500000001
 31
0.0
  0
LINE
  8
DETAIL
  6
CONTINUOUS
 62
     5
 10
-141.91399899999999
 20
-179.44875500000001
 30
0.0
 11
-141.91399899999999
 21
-180.0
 31
0.0
  0
LINE
  8
DETAIL
  6
CONTINUOUS
 62
     5
 10
-175.33947599999999
 20
-177.14031700000001
 30
0.0
 11
-175.33947599999999
 21
-178.84416400000001
 31
0.0
  0
LINE
  8
DETAIL
  6
CONTINUOUS
 62
     5
 10
-178.546718
 20
-175.636922
 30
0.0
 11
-176.842871
 21
-175.636922
 31
0.0
  0
ARC
  8
DETAIL
  6
CONTINUOUS
 62
     5
 10
-176.842871
 20
-177.14031700000001
 30
0.0
 40
1.503395
 50
0.0
 51
90.0
  0
LINE
  8
DETAIL
  6
CONTINUOUS
 62
     5
 10
-177.34400299999999
 20
-177.641448
 30
0.0
 11
-175.33947599999999
 21
-177.641448
 31
0.0
  0
LINE
  8
DETAIL
  6
CONTINUOUS
 62
     5
 10
-177.34400299999999
 20
-175.636922
 30
0.0
 11
-177.34400299999999
 21
-177.641448
 31
0.0
  0
LINE
  8
OUTLINE
  6
CONTINUOUS
 62
     3
 10
-177.0
 20
0.0
 30
0.0
 11
-177.0
 21
-127.872292
 31
0.0
  0
LINE
  8
OUTLINE
  6
CONTINUOUS
 62
     3
 10
-127.230844
 20
-177.0
 30
0.0
 11
0.0
 21
-177.0
 31
0.0
  0
LINE
  8
OUTLINE
  6
CONTINUOUS
 62
     3
 10
-127.230844
 20
-177.641448
 30
0.0
 11
-127.230844
 21
-177.641448
 31
0.0
  0
LINE
  8
OUTLINE
  6
CONTINUOUS
 62
     3
 10
-175.33947599999999
 20
-178.84416400000001
 30
0.0
 11
-127.230844
 21
-178.84416400000001
 31
0.0
  0
LINE
  8
OUTLINE
  6
CONTINUOUS
 62
     3
 10
-127.230844
 20
-178.84416400000001
 30
0.0
 11
-127.230844
 21
-177.0
 31
0.0
  0
LINE
  8
OUTLINE
  6
CONTINUOUS
 62
     3
 10
-178.546718
 20
-127.872292
 30
0.0
 11
-178.546718
 21
-175.636922
 31
0.0
  0
LINE
  8
OUTLINE
  6
CONTINUOUS
 62
     3
 10
-178.546718
 20
-127.872292
 30
0.0
 11
-177.0
 21
-127.872292
 31
0.0
  0
LINE
  8
OUTLINE
  6
CONTINUOUS
 62
     3
 10
-175.33947599999999
 20
-177.14031700000001
 30
0.0
 11
-175.33947599999999
 21
-178.84416400000001
 31
0.0
  0
LINE
  8
OUTLINE
  6
CONTINUOUS
 62
     3
 10
-178.546718
 20
-175.636922
 30
0.0
 11
-176.842871
 21
-175.636922
 31
0.0
  0
ARC
  8
OUTLINE
  6
CONTINUOUS
 62
     3
 10
-176.842871
 20
-177.14031700000001
 30
0.0
 40
1.503395
 50
0.0
 51
90.0
  0
LINE
  8
DETAIL
  6
CONTINUOUS
 62
     5
 39
50.0
 10
-132.592952
 20
-179.44875500000001
 30
0.0
 11
-141.91399899999999
 21
-179.44875500000001
 31
0.0
  0
LINE
  8
SIZE
  6
CONTINUOUS
 62
    30
 10
157.25347500000001
 20
180.0
 30
0.0
 11
663.20444900000007
 21
180.0
 31
0.0
  0
LINE
  8
SIZE
  6
CONTINUOUS
 62
    30
 10
161.91399899999999
 20
-180.0
 30
0.0
 11
663.20444900000007
 21
-180.0
 31
0.0
  0
LINE
  8
SIZE
  6
CONTINUOUS
 62
    30
 10
643.20444900000007
 20
168.0
 30
0.0
 11
643.20444900000007
 21
-168.0
 31
0.0
  0
CIRCLE
  8
SIZE
  6
CONTINUOUS
 62
    30
 10
643.20444900000007
 20
180.0
 30
0.0
 40
6.0
  0
LINE
  8
SIZE
  6
CONTINUOUS
 62
    30
 10
643.20444900000007
 20
180.0
 30
0.0
 11
643.20444900000007
 21
168.0
 31
0.0
  0
CIRCLE
  8
SIZE
  6
CONTINUOUS
 62
    30
 10
643.20444900000007
 20
-180.0
 30
0.0
 40
6.0
  0
LINE
  8
SIZE
  6
CONTINUOUS
 62
    30
 10
643.20444900000007
 20
-180.0
 30
0.0
 11
643.20444900000007
 21
-168.0
 31
0.0
  0
TEXT
  8
SIZE
  6
CONTINUOUS
 62
    30
 10
618.20444900000007
 20
-74.05714285714285
 30
0.0
 40
64.0
  1
360
 50
90.0
 41
0.9
 72
     1
 11
618.20444900000007
 21
0.0
 31
0.0
  0
POINT
  8
DEFPOINTS
  6
CONTINUOUS
 62
    30
 10
137.25347500000001
 20
180.0
 30
0.0
  0
POINT
  8
DEFPOINTS
  6
CONTINUOUS
 62
    30
 10
141.91399899999999
 20
-180.0
 30
0.0
  0
POINT
  8
DEFPOINTS
  6
CONTINUOUS
 62
    30
 10
643.20444900000007
 20
-180.0
 30
0.0
  0
LINE
  8
SIZE
  6
CONTINUOUS
 62
    30
 10
194.02036799999999
 20
165.0
 30
0.0
 11
503.06579800000009
 21
165.0
 31
0.0
  0
LINE
  8
SIZE
  6
CONTINUOUS
 62
    30
 10
190.228939
 20
-165.0
 30
0.0
 11
503.06579800000009
 21
-165.0
 31
0.0
  0
LINE
  8
SIZE
  6
CONTINUOUS
 62
    30
 10
483.06579800000009
 20
153.0
 30
0.0
 11
483.06579800000009
 21
-153.0
 31
0.0
  0
CIRCLE
  8
SIZE
  6
CONTINUOUS
 62
    30
 10
483.06579800000009
 20
165.0
 30
0.0
 40
6.0
  0
LINE
  8
SIZE
  6
CONTINUOUS
 62
    30
 10
483.06579800000009
 20
165.0
 30
0.0
 11
483.06579800000009
 21
153.0
 31
0.0
  0
CIRCLE
  8
SIZE
  6
CONTINUOUS
 62
    30
 10
483.06579800000009
 20
-165.0
 30
0.0
 40
6.0
  0
LINE
  8
SIZE
  6
CONTINUOUS
 62
    30
 10
483.06579800000009
 20
-165.0
 30
0.0
 11
483.06579800000009
 21
-153.0
 31
0.0
  0
TEXT
  8
SIZE
  6
CONTINUOUS
 62
    30
 10
458.06579800000009
 20
-74.057142857142864
 30
0.0
 40
64.0
  1
330
 50
90.0
 41
0.9
 72
     1
 11
458.06579800000009
 21
0.0
 31
0.0
  0
POINT
  8
DEFPOINTS
  6
CONTINUOUS
 62
    30
 10
174.02036799999999
 20
165.0
 30
0.0
  0
POINT
  8
DEFPOINTS
  6
CONTINUOUS
 62
    30
 10
170.228939
 20
-165.0
 30
0.0
  0
POINT
  8
DEFPOINTS
  6
CONTINUOUS
 62
    30
 10
483.06579800000009
 20
-165.0
 30
0.0
  0
LINE
  8
SIZE
  6
CONTINUOUS
 62
    30
 10
165.0
 20
194.02036799999999
 30
0.0
 11
165.0
 21
408.82270399999987
 31
0.0
  0
LINE
  8
SIZE
  6
CONTINUOUS
 62
    30
 10
-165.0
 20
194.02036799999999
 30
0.0
 11
-165.0
 21
408.82270399999987
 31
0.0
  0
LINE
  8
SIZE
  6
CONTINUOUS
 62
    30
 10
153.0
 20
388.82270399999987
 30
0.0
 11
-153.0
 21
388.82270399999987
 31
0.0
  0
CIRCLE
  8
SIZE
  6
CONTINUOUS
 62
    30
 10
165.0
 20
388.82270399999987
 30
0.0
 40
6.0
  0
LINE
  8
SIZE
  6
CONTINUOUS
 62
    30
 10
165.0
 20
388.82270399999987
 30
0.0
 11
153.0
 21
388.82270399999987
 31
0.0
  0
CIRCLE
  8
SIZE
  6
CONTINUOUS
 62
    30
 10
-165.0
 20
388.82270399999987
 30
0.0
 40
6.0
  0
LINE
  8
SIZE
  6
CONTINUOUS
 62
    30
 10
-165.0
 20
388.82270399999987
 30
0.0
 11
-153.0
 21
388.82270399999987
 31
0.0
  0
TEXT
  8
SIZE
  6
CONTINUOUS
 62
    30
 10
-74.057142857142864
 20
413.82270399999987
 30
0.0
 40
64.0
  1
330
 41
0.9
 72
     1
 11
0.0
 21
413.82270399999987
 31
0.0
  0
POINT
  8
DEFPOINTS
  6
CONTINUOUS
 62
    30
 10
165.0
 20
174.02036799999999
 30
0.0
  0
POINT
  8
DEFPOINTS
  6
CONTINUOUS
 62
    30
 10
-165.0
 20
174.02036799999999
 30
0.0
  0
POINT
  8
DEFPOINTS
  6
CONTINUOUS
 62
    30
 10
-165.0
 20
388.82270399999987
 30
0.0
  0
LINE
  8
SIZE
  6
CONTINUOUS
 62
    30
 10
180.0
 20
162.55544800000001
 30
0.0
 11
180.0
 21
531.10021799999993
 31
0.0
  0
LINE
  8
SIZE
  6
CONTINUOUS
 62
    30
 10
-180.0
 20
162.55544800000001
 30
0.0
 11
-180.0
 21
531.10021799999993
 31
0.0
  0
LINE
  8
SIZE
  6
CONTINUOUS
 62
    30
 10
168.0
 20
511.10021799999998
 30
0.0
 11
-168.0
 21
511.10021799999998
 31
0.0
  0
CIRCLE
  8
SIZE
  6
CONTINUOUS
 62
    30
 10
180.0
 20
511.10021799999998
 30
0.0
 40
6.0
  0
LINE
  8
SIZE
  6
CONTINUOUS
 62
    30
 10
180.0
 20
511.10021799999998
 30
0.0
 11
168.0
 21
511.10021799999998
 31
0.0
  0
CIRCLE
  8
SIZE
  6
CONTINUOUS
 62
    30
 10
-180.0
 20
511.10021799999998
 30
0.0
 40
6.0
  0
LINE
  8
SIZE
  6
CONTINUOUS
 62
    30
 10
-180.0
 20
511.10021799999998
 30
0.0
 11
-168.0
 21
511.10021799999998
 31
0.0
  0
TEXT
  8
SIZE
  6
CONTINUOUS
 62
    30
 10
-74.05714285714285
 20
536.10021799999993
 30
0.0
 40
64.0
  1
360
 41
0.9
 72
     1
 11
0.0
 21
536.10021799999993
 31
0.0
  0
POINT
  8
DEFPOINTS
  6
CONTINUOUS
 62
    30
 10
180.0
 20
142.55544800000001
 30
0.0
  0
POINT
  8
DEFPOINTS
  6
CONTINUOUS
 62
    30
 10
-180.0
 20
142.55544800000001
 30
0.0
  0
POINT
  8
DEFPOINTS
  6
CONTINUOUS
 62
    30
 10
-180.0
 20
511.10021799999998
 30
0.0
  0
POINT
  8
DEFPOINTS
  6
CONTINUOUS
 62
    30
 10
-48.229352999999954
 20
149.0
 30
0.0
  0
LINE
  8
SIZE
  6
CONTINUOUS
 62
    30
 10
47.214259999999967
 20
157.0
 30
0.0
 11
53.214259999999967
 21
157.0
 31
0.0
  0
LINE
  8
SIZE
  6
CONTINUOUS
 62
    30
 10
33.214259999999967
 20
-145.0
 30
0.0
 11
33.214259999999967
 21
145.0
 31
0.0
  0
LINE
  8
SIZE
  6
CONTINUOUS
 62
    30
 10
33.214259999999967
 20
157.0
 30
0.0
 11
33.214259999999967
 21
356.50961999999998
 31
0.0
  0
CIRCLE
  8
SIZE
  6
CONTINUOUS
 62
    30
 10
33.214259999999967
 20
-157.0
 30
0.0
 40
6.0
  0
LINE
  8
SIZE
  6
CONTINUOUS
 62
    30
 10
33.214259999999967
 20
-157.0
 30
0.0
 11
33.214259999999967
 21
-145.0
 31
0.0
  0
CIRCLE
  8
SIZE
  6
CONTINUOUS
 62
    30
 10
33.214259999999967
 20
157.0
 30
0.0
 40
6.0
  0
LINE
  8
SIZE
  6
CONTINUOUS
 62
    30
 10
33.214259999999967
 20
157.0
 30
0.0
 11
33.214259999999967
 21
145.0
 31
0.0
  0
TEXT
  8
SIZE
  6
CONTINUOUS
 62
    30
 10
23.21425999999996
 20
206.62390585714289
 30
0.0
 40
64.0
  1
314
 50
90.0
 41
0.9
 72
     1
 11
23.214259999999971
 21
276.56676299999998
 31
0.0
  0
POINT
  8
DEFPOINTS
  6
CONTINUOUS
 62
    30
 10
27.214259999999971
 20
157.0
 30
0.0
  0
POINT
  8
DEFPOINTS
  6
CONTINUOUS
 62
    30
 10
33.214259999999967
 20
-157.0
 30
0.0
  0
POINT
  8
DEFPOINTS
  6
CONTINUOUS
 62
    30
 10
33.214259999999967
 20
-157.0
 30
0.0
  0
LINE
  8
SIZE
  6
CONTINUOUS
 62
    30
 10
108.276107
 20
177.0
 30
0.0
 11
107.23084299999999
 21
177.0
 31
0.0
  0
LINE
  8
SIZE
  6
CONTINUOUS
 62
    30
 10
127.23084299999999
 20
-165.0
 30
0.0
 11
127.23084299999999
 21
165.0
 31
0.0
  0
LINE
  8
SIZE
  6
CONTINUOUS
 62
    30
 10
127.23084299999999
 20
177.0
 30
0.0
 11
127.23084299999999
 21
359.85714300000001
 31
0.0
  0
CIRCLE
  8
SIZE
  6
CONTINUOUS
 62
    30
 10
127.23084299999999
 20
-177.0
 30
0.0
 40
6.0
  0
LINE
  8
SIZE
  6
CONTINUOUS
 62
    30
 10
127.23084299999999
 20
-177.0
 30
0.0
 11
127.23084299999999
 21
-165.0
 31
0.0
  0
CIRCLE
  8
SIZE
  6
CONTINUOUS
 62
    30
 10
127.23084299999999
 20
177.0
 30
0.0
 40
6.0
  0
LINE
  8
SIZE
  6
CONTINUOUS
 62
    30
 10
127.23084299999999
 20
177.0
 30
0.0
 11
127.23084299999999
 21
165.0
 31
0.0
  0
TEXT
  8
SIZE
  6
CONTINUOUS
 62
    30
 10
117.23084299999999
 20
198.99999957142859
 30
0.0
 40
64.0
  1
354
 50
90.0
 41
0.9
 72
     1
 11
117.23084299999999
 21
274.42857099999998
 31
0.0
  0
POINT
  8
DEFPOINTS
  6
CONTINUOUS
 62
    30
 10
127.23084299999999
 20
-177.0
 30
0.0
  0
POINT
  8
DEFPOINTS
  6
CONTINUOUS
 62
    30
 10
128.276107
 20
177.0
 30
0.0
  0
POINT
  8
DEFPOINTS
  6
CONTINUOUS
 62
    30
 10
127.23084299999999
 20
177.0
 30
0.0
  0
POINT
  8
DEFPOINTS
  6
CONTINUOUS
 62
    30
 10
-149.0
 20
48.187832000000007
 30
0.0
  0
POINT
  8
DEFPOINTS
  6
CONTINUOUS
 62
    30
 10
149.0
 20
48.187832000000007
 30
0.0
  0
POINT
  8
DEFPOINTS
  6
CONTINUOUS
 62
    30
 10
149.0
 20
48.187832000000007
 30
0.0
  0
LINE
  8
SIZE
  6
CONTINUOUS
 62
    30
 10
-145.0
 20
-39.468223999999992
 30
0.0
 11
145.0
 21
-39.468223999999992
 31
0.0
  0
LINE
  8
SIZE
  6
CONTINUOUS
 62
    30
 10
157.0
 20
-39.468223999999992
 30
0.0
 11
358.35968800000001
 21
-39.468223999999992
 31
0.0
  0
CIRCLE
  8
SIZE
  6
CONTINUOUS
 62
    30
 10
-157.0
 20
-39.468223999999992
 30
0.0
 40
6.0
  0
LINE
  8
SIZE
  6
CONTINUOUS
 62
    30
 10
-157.0
 20
-39.468223999999992
 30
0.0
 11
-145.0
 21
-39.468223999999992
 31
0.0
  0
CIRCLE
  8
SIZE
  6
CONTINUOUS
 62
    30
 10
157.0
 20
-39.468223999999992
 30
0.0
 40
6.0
  0
LINE
  8
SIZE
  6
CONTINUOUS
 62
    30
 10
157.0
 20
-39.468223999999992
 30
0.0
 11
145.0
 21
-39.468223999999992
 31
0.0
  0
TEXT
  8
SIZE
  6
CONTINUOUS
 62
    30
 10
208.47397385714291
 20
-29.468223999999989
 30
0.0
 40
64.0
  1
314
 41
0.9
 72
     1
 11
278.416831
 21
-29.468223999999989
 31
0.0
  0
POINT
  8
DEFPOINTS
  6
CONTINUOUS
 62
    30
 10
-157.0
 20
-39.468223999999992
 30
0.0
  0
POINT
  8
DEFPOINTS
  6
CONTINUOUS
 62
    30
 10
157.0
 20
-39.468223999999992
 30
0.0
  0
POINT
  8
DEFPOINTS
  6
CONTINUOUS
 62
    30
 10
157.0
 20
-39.468223999999992
 30
0.0
  0
LINE
  8
SIZE
  6
CONTINUOUS
 62
    30
 10
-165.0
 20
-127.64823800000001
 30
0.0
 11
165.0
 21
-127.64823800000001
 31
0.0
  0
LINE
  8
SIZE
  6
CONTINUOUS
 62
    30
 10
177.0
 20
-127.64823800000001
 30
0.0
 11
374.60345000000012
 21
-127.64823800000001
 31
0.0
  0
CIRCLE
  8
SIZE
  6
CONTINUOUS
 62
    30
 10
-177.0
 20
-127.64823800000001
 30
0.0
 40
6.0
  0
LINE
  8
SIZE
  6
CONTINUOUS
 62
    30
 10
-177.0
 20
-127.64823800000001
 30
0.0
 11
-165.0
 21
-127.64823800000001
 31
0.0
  0
CIRCLE
  8
SIZE
  6
CONTINUOUS
 62
    30
 10
177.0
 20
-127.64823800000001
 30
0.0
 40
6.0
  0
LINE
  8
SIZE
  6
CONTINUOUS
 62
    30
 10
177.0
 20
-127.64823800000001
 30
0.0
 11
165.0
 21
-127.64823800000001
 31
0.0
  0
TEXT
  8
SIZE
  6
CONTINUOUS
 62
    30
 10
213.74630657142859
 20
-117.64823800000001
 30
0.0
 40
64.0
  1
354
 41
0.9
 72
     1
 11
289.17487799999998
 21
-117.64823800000001
 31
0.0
  0
POINT
  8
DEFPOINTS
  6
CONTINUOUS
 62
    30
 10
-177.0
 20
-127.64823800000001
 30
0.0
  0
POINT
  8
DEFPOINTS
  6
CONTINUOUS
 62
    30
 10
177.0
 20
-127.64823800000001
 30
0.0
  0
POINT
  8
DEFPOINTS
  6
CONTINUOUS
 62
    30
 10
177.0
 20
-127.64823800000001
 30
0.0
  0
TEXT
  8
NOTE
  6
CONTINUOUS
 62
     4
 10
229.12634800000001
 20
229.50315699999999
 30
0.0
 40
40.0
  1
4-M8ボルト
 41
0.9
  0
LINE
  8
NOTE
  6
CONTINUOUS
 62
     4
 39
50.0
 10
226.07175499999991
 20
219.123513
 30
0.0
 11
499.43621600000012
 21
219.123513
 31
0.0
  0
LINE
  8
NOTE
  6
CONTINUOUS
 62
     4
 39
50.0
 10
226.07175499999991
 20
219.123513
 30
0.0
 11
165.0
 21
165.0
 31
0.0
  0
LINE
  8
NOTE
  6
CONTINUOUS
 62
     4
 10
187.62456499999999
 20
197.98680100000001
 30
0.0
 11
165.0
 21
165.0
 31
0.0
  0
LINE
  8
NOTE
  6
CONTINUOUS
 62
     4
 10
165.0
 20
165.0
 30
0.0
 11
201.086849
 21
182.25512499999999
 31
0.0
  0
LINE
  8
SIZE
  6
CONTINUOUS
 62
    30
 10
-114.598448
 20
149.0
 30
0.0
 11
-32.278810363238307
 21
149.0
 31
0.0
  0
LINE
  8
SIZE
  6
CONTINUOUS
 62
    30
 10
-114.598448
 20
-149.0
 30
0.0
 11
-32.278810363238392
 21
-149.0
 31
0.0
  0
LINE
  8
SIZE
  6
CONTINUOUS
 62
    30
 10
-52.278810363238378
 20
-137.0
 30
0.0
 11
-52.278810363238321
 21
137.0
 31
0.0
  0
LINE
  8
SIZE
  6
CONTINUOUS
 62
    30
 10
-52.278810363238307
 20
149.0
 30
0.0
 11
-52.278810363238271
 21
359.11428571428559
 31
0.0
  0
CIRCLE
  8
SIZE
  6
CONTINUOUS
 62
    30
 10
-52.278810363238392
 20
-149.0
 30
0.0
 40
6.0
  0
LINE
  8
SIZE
  6
CONTINUOUS
 62
    30
 10
-52.278810363238392
 20
-149.0
 30
0.0
 11
-52.278810363238392
 21
-137.0
 31
0.0
  0
CIRCLE
  8
SIZE
  6
CONTINUOUS
 62
    30
 10
-52.278810363238307
 20
149.0
 30
0.0
 40
6.0
  0
LINE
  8
SIZE
  6
CONTINUOUS
 62
    30
 10
-52.278810363238307
 20
149.0
 30
0.0
 11
-52.278810363238307
 21
137.0
 31
0.0
  0
TEXT
  8
SIZE
  6
CONTINUOUS
 62
    30
 10
-77.278810363238307
 20
179.70514285714282
 30
0.0
 40
64.0
  1
298
 50
90.0
 41
0.9
 51
0.0
  7
STANDARD
 71
     0
 72
     1
 11
-77.278810363238307
 21
260.05714285714282
 31
0.0
210
0.0
220
0.0
230
1.0
  0
POINT
  8
DEFPOINTS
  6
CONTINUOUS
 62
    30
 10
-134.59844799999999
 20
149.0
 30
0.0
  0
POINT
  8
DEFPOINTS
  6
CONTINUOUS
 62
    30
 10
-134.59844799999999
 20
-149.0
 30
0.0
  0
POINT
  8
DEFPOINTS
  6
CONTINUOUS
 62
    30
 10
-52.278810363238392
 20
-149.0
 30
0.0
  0
LINE
  8
SIZE
  6
CONTINUOUS
 62
    30
 10
-149.0
 20
114.106369
 30
0.0
 11
-149.0
 21
39.209947522607308
 31
0.0
  0
LINE
  8
SIZE
  6
CONTINUOUS
 62
    30
 10
149.0
 20
114.106369
 30
0.0
 11
149.0
 21
39.209947522607308
 31
0.0
  0
LINE
  8
SIZE
  6
CONTINUOUS
 62
    30
 10
-137.0
 20
59.209947522607308
 30
0.0
 11
137.0
 21
59.209947522607308
 31
0.0
  0
LINE
  8
SIZE
  6
CONTINUOUS
 62
    30
 10
149.0
 20
59.209947522607308
 30
0.0
 11
359.11428571428559
 21
59.209947522607308
 31
0.0
  0
CIRCLE
  8
SIZE
  6
CONTINUOUS
 62
    30
 10
-149.0
 20
59.209947522607308
 30
0.0
 40
6.0
  0
LINE
  8
SIZE
  6
CONTINUOUS
 62
    30
 10
-149.0
 20
59.209947522607308
 30
0.0
 11
-137.0
 21
59.209947522607308
 31
0.0
  0
CIRCLE
  8
SIZE
  6
CONTINUOUS
 62
    30
 10
149.0
 20
59.209947522607308
 30
0.0
 40
6.0
  0
LINE
  8
SIZE
  6
CONTINUOUS
 62
    30
 10
149.0
 20
59.209947522607308
 30
0.0
 11
137.0
 21
59.209947522607308
 31
0.0
  0
TEXT
  8
SIZE
  6
CONTINUOUS
 62
    30
 10
179.70514285714282
 20
84.209947522607308
 30
0.0
 40
64.0
  1
298
 50
0.0
 41
0.9
 51
0.0
  7
STANDARD
 71
     0
 72
     1
 11
260.05714285714282
 21
84.209947522607308
 31
0.0
210
0.0
220
0.0
230
1.0
  0
POINT
  8
DEFPOINTS
  6
CONTINUOUS
 62
    30
 10
-149.0
 20
134.106369
 30
0.0
  0
POINT
  8
DEFPOINTS
  6
CONTINUOUS
 62
    30
 10
149.0
 20
134.106369
 30
0.0
  0
POINT
  8
DEFPOINTS
  6
CONTINUOUS
 62
    30
 10
149.0
 20
59.209947522607308
 30
0.0
  0
ENDSEC
  0
EOF
