  0
SECTION
  2
HEADER
  9
$ACADVER
  1
AC1009
  9
$DWGCODEPAGE
  3
dos932
  9
$INSBASE
 10
0.0
 20
0.0
 30
0.0
  9
$EXTMIN
 10
-702.60565399999996
 20
-301.42857142857179
 30
0.0
  9
$EXTMAX
 10
990.63356685714302
 20
671.50092000000075
 30
50.0
  9
$LIMMIN
 10
-2970.0
 20
-2100.0
  9
$LIMMAX
 10
2970.0
 20
2100.0
  9
$ORTHOMODE
 70
     1
  9
$REGENMODE
 70
     1
  9
$FILLMODE
 70
     1
  9
$QTEXTMODE
 70
     0
  9
$MIRRTEXT
 70
     0
  9
$LTSCALE
 40
20.0
  9
$ATTMODE
 70
     1
  9
$TEXTSIZE
 40
64.0
  9
$TRACEWID
 40
0.05
  9
$TEXTSTYLE
  7
STANDARD
  9
$CLAYER
  8
SIZE
  9
$CELTYPE
  6
CONTINUOUS
  9
$CECOLOR
 62
     7
  9
$DIMSCALE
 40
1.0
  9
$DIMASZ
 40
12.0
  9
$DIMEXO
 40
20.0
  9
$DIMDLI
 40
200.0
  9
$DIMRND
 40
0.0
  9
$DIMDLE
 40
0.0
  9
$DIMEXE
 40
20.0
  9
$DIMTP
 40
0.0
  9
$DIMTM
 40
0.0
  9
$DIMTXT
 40
64.0
  9
$DIMCEN
 40
0.09
  9
$DIMTSZ
 40
0.0
  9
$DIMTOL
 70
     0
  9
$DIMLIM
 70
     0
  9
$DIMTIH
 70
     0
  9
$DIMTOH
 70
     0
  9
$DIMSE1
 70
     0
  9
$DIMSE2
 70
     0
  9
$DIMTAD
 70
     1
  9
$DIMZIN
 70
     8
  9
$DIMBLK
  1

  9
$DIMASO
 70
     1
  9
$DIMSHO
 70
     0
  9
$DIMPOST
  1

  9
$DIMAPOST
  1

  9
$DIMALT
 70
     0
  9
$DIMALTD
 70
     2
  9
$DIMALTF
 40
25.399999999999999
  9
$DIMLFAC
 40
1.0
  9
$DIMTOFL
 70
     1
  9
$DIMTVP
 40
0.0
  9
$DIMTIX
 70
     1
  9
$DIMSOXD
 70
     0
  9
$DIMSAH
 70
     0
  9
$DIMBLK1
  1

  9
$DIMBLK2
  1

  9
$DIMSTYLE
  2
STANDARD
  9
$DIMCLRD
 70
     7
  9
$DIMCLRE
 70
     7
  9
$DIMCLRT
 70
     7
  9
$DIMTFAC
 40
1.0
  9
$DIMGAP
 40
25.0
  9
$LUNITS
 70
     2
  9
$LUPREC
 70
     4
  9
$SKETCHINC
 40
0.1
  9
$FILLETRAD
 40
3.0
  9
$AUNITS
 70
     1
  9
$AUPREC
 70
     3
  9
$MENU
  1
ACAD
  9
$ELEVATION
 40
0.0
  9
$PELEVATION
 40
0.0
  9
$THICKNESS
 40
50.0
  9
$LIMCHECK
 70
     0
  9
$CHAMFERA
 40
0.0
  9
$CHAMFERB
 40
0.0
  9
$SKPOLY
 70
     0
  9
$TDCREATE
 40
2453019.62301037
  9
$TDUPDATE
 40
2458515.578816458
  9
$TDINDWG
 40
1.7116479282
  9
$TDUSRTIMER
 40
1.7116479282
  9
$USRTIMER
 70
     1
  9
$ANGBASE
 50
0.0
  9
$ANGDIR
 70
     0
  9
$PDMODE
 70
     3
  9
$PDSIZE
 40
-2.0
  9
$PLINEWID
 40
0.0
  9
$SPLFRAME
 70
     0
  9
$SPLINETYPE
 70
     6
  9
$SPLINESEGS
 70
     8
  9
$SURFTAB1
 70
     6
  9
$SURFTAB2
 70
     6
  9
$SURFTYPE
 70
     6
  9
$SURFU
 70
     6
  9
$SURFV
 70
     6
  9
$UCSNAME
  2

  9
$UCSORG
 10
0.0
 20
0.0
 30
0.0
  9
$UCSXDIR
 10
1.0
 20
0.0
 30
0.0
  9
$UCSYDIR
 10
0.0
 20
1.0
 30
0.0
  9
$PUCSNAME
  2

  9
$PUCSORG
 10
0.0
 20
0.0
 30
0.0
  9
$PUCSXDIR
 10
1.0
 20
0.0
 30
0.0
  9
$PUCSYDIR
 10
0.0
 20
1.0
 30
0.0
  9
$USERI1
 70
     0
  9
$USERI2
 70
     0
  9
$USERI3
 70
     0
  9
$USERI4
 70
     0
  9
$USERI5
 70
     0
  9
$USERR1
 40
20.0
  9
$USERR2
 40
0.0
  9
$USERR3
 40
0.0
  9
$USERR4
 40
0.0
  9
$USERR5
 40
0.0
  9
$WORLDVIEW
 70
     1
  9
$SHADEDGE
 70
     3
  9
$SHADEDIF
 70
    70
  9
$TILEMODE
 70
     1
  9
$MAXACTVP
 70
    48
  9
$PINSBASE
 10
0.0
 20
0.0
 30
0.0
  9
$PLIMCHECK
 70
     0
  9
$PEXTMIN
 10
-100000000000000000000.0
 20
-100000000000000000000.0
 30
-100000000000000000000.0
  9
$PEXTMAX
 10
100000000000000000000.0
 20
100000000000000000000.0
 30
100000000000000000000.0
  9
$PLIMMIN
 10
0.0
 20
0.0
  9
$PLIMMAX
 10
12.0
 20
9.0
  9
$UNITMODE
 70
     0
  9
$VISRETAIN
 70
     0
  9
$PLINEGEN
 70
     0
  9
$PSLTSCALE
 70
     0
  9
$TREEDEPTH
 70
  3020
  9
$ATTDIA
 70
     0
  9
$ATTREQ
 70
     1
  9
$BLIPMODE
 70
     1
  9
$COORDS
 70
     1
  9
$DRAGMODE
 70
     2
  9
$OSMODE
 70
     0
  9
$HANDLING
 70
     0
  9
$HANDSEED
  5
EBE6
  0
ENDSEC
  0
SECTION
  2
TABLES
  0
TABLE
  2
LTYPE
 70
     2
  0
LTYPE
  2
CONTINUOUS
 70
     0
  3
実線
 72
    65
 73
     0
 40
0.0
  0
LTYPE
  2
DASHDOT
 70
     0
  3
____ _ ____ _ ____ _ ____ _ ____ _ ____ _ ____
 72
    65
 73
     4
 40
5.5
 49
4.0
 49
-0.6
 49
0.3
 49
-0.6
  0
ENDTAB
  0
TABLE
  2
LAYER
 70
    12
  0
LAYER
  2
0
 70
     0
 62
     7
  6
CONTINUOUS
  0
LAYER
  2
BASIS
 70
     0
 62
     6
  6
DASHDOT
  0
LAYER
  2
DETAIL
 70
     0
 62
     5
  6
CONTINUOUS
  0
LAYER
  2
SIZE
 70
     0
 62
    30
  6
CONTINUOUS
  0
LAYER
  2
ARRANGE
 70
     0
 62
     1
  6
CONTINUOUS
  0
LAYER
  2
DEFPOINTS
 70
     0
 62
     7
  6
CONTINUOUS
  0
LAYER
  2
ETC
 70
     0
 62
    61
  6
CONTINUOUS
  0
LAYER
  2
FIX
 70
     0
 62
    11
  6
CONTINUOUS
  0
LAYER
  2
NOTE
 70
     0
 62
     4
  6
CONTINUOUS
  0
LAYER
  2
OUTLINE
 70
    64
 62
     3
  6
CONTINUOUS
  0
LAYER
  2
SERVICESPACE
 70
    64
 62
     2
  6
DASHDOT
  0
LAYER
  2
SYMBOLLINE
 70
    64
 62
    15
  6
CONTINUOUS
  0
ENDTAB
  0
TABLE
  2
STYLE
 70
     1
  0
STYLE
  2
STANDARD
 70
     0
 40
64.0
 41
0.9
 50
0.0
 71
     0
 42
64.0
  3
SIMPLEX.shx
  4
BIGFONT.shx
  0
ENDTAB
  0
TABLE
  2
APPID
 70
    17
  0
APPID
  2
ACAD
 70
     0
  0
APPID
  2
AUTOCAD_POSTSCRIPT_FIGURE
 70
     0
  0
APPID
  2
ACAD_EXEMPT_FROM_CAD_STANDARDS
 70
     0
  0
APPID
  2
ACAD_PSEXT
 70
     0
  0
APPID
  2
ACAUTHENVIRON
 70
     0
  0
APPID
  2
GENIUS_GENOENT_13
 70
     0
  0
APPID
  2
GENIUS_GENCFG_13
 70
     0
  0
APPID
  2
GENIUS_GENCFG0_13
 70
     0
  0
APPID
  2
GENIUS_GENCFG1_13
 70
     0
  0
APPID
  2
GENIUS_GENCFG2_13
 70
     0
  0
APPID
  2
GENIUS_GENCFG3_13
 70
     0
  0
APPID
  2
GENIUS_GENCFG4_13
 70
     0
  0
APPID
  2
GENIUS_GEVCFG0_13
 70
     0
  0
APPID
  2
CONTENTBLOCKICON
 70
     0
  0
APPID
  2
CONTENTBLOCKDESCRIPTION
 70
     0
  0
APPID
  2
ACAD_NAV_VCDISPLAY
 70
     0
  0
APPID
  2
ACAD_MLEADERVER
 70
     0
  0
ENDTAB
  0
TABLE
  2
DIMSTYLE
 70
     1
  0
DIMSTYLE
  2
STANDARD
 70
     0
  3

  4

  5
_ORIGIN
  6

  7

 40
1.0
 41
12.0
 42
20.0
 43
200.0
 44
20.0
 45
0.0
 46
0.0
 47
0.0
 48
0.0
140
64.0
141
0.09
142
0.0
143
25.399999999999999
144
1.0
145
0.0
146
1.0
147
25.0
 71
     0
 72
     0
 73
     0
 74
     0
 75
     0
 76
     0
 77
     1
 78
     8
170
     0
171
     2
172
     1
173
     0
174
     1
175
     0
176
     7
177
     7
178
     7
  0
ENDTAB
  0
TABLE
  2
VIEW
 70
     1
  0
VIEW
  2
ALL
 70
     0
 40
4282.6198079999986
 10
0.0
 20
41.309904000000003
 41
5940.0
 11
0.0
 21
0.0
 31
1.0
 12
0.0
 22
0.0
 32
0.0
 42
50.0
 43
0.0
 44
0.0
 50
0.0
 71
     0
  0
ENDTAB
  0
TABLE
  2
UCS
 70
     0
  0
ENDTAB
  0
TABLE
  2
VPORT
 70
     1
  0
VPORT
  2
*ACTIVE
 70
     0
 10
0.0
 20
0.0
 11
1.0
 21
1.0
 12
25.08676468773524
 22
179.36148238942431
 13
0.0
 23
0.0
 14
1.0
 24
1.0
 15
0.0
 25
0.0
 16
0.0
 26
0.0
 36
1.0
 17
0.0
 27
0.0
 37
0.0
 40
1141.5864683890929
 41
2.4437340153452691
 42
50.0
 43
0.0
 44
0.0
 50
0.0
 51
0.0
 71
     0
 72
  1000
 73
     1
 74
     3
 75
     0
 76
     0
 77
     0
 78
     0
  0
ENDTAB
  0
ENDSEC
  0
SECTION
  2
BLOCKS
  0
BLOCK
  8
0
  2
_ORIGIN
 70
     0
 10
0.0
 20
0.0
 30
0.0
  3
_ORIGIN
  1
_ORIGIN
  0
CIRCLE
  8
0
  6
CONTINUOUS
 62
     7
 10
0.0
 20
0.0
 30
0.0
 40
0.5
  0
LINE
  8
0
  6
CONTINUOUS
 62
     7
 10
0.0
 20
0.0
 30
0.0
 11
-1.0
 21
0.0
 31
0.0
  0
ENDBLK
  8
0
  0
ENDSEC
  0
SECTION
  2
ENTITIES
  0
POINT
  8
ARRANGE
  6
CONTINUOUS
 62
     1
 10
0.0
 20
0.0
 30
0.0
  0
CIRCLE
  8
ARRANGE
  6
CONTINUOUS
 62
     1
 10
0.0
 20
0.0
 30
0.0
 40
40.0
  0
TEXT
  8
ETC
  6
CONTINUOUS
 62
    61
 10
359.77642400000008
 20
607.50092000000006
 30
0.0
 40
64.0
  1
PS-25QS3-T_6
 41
0.9
  0
TEXT
  8
ETC
  6
CONTINUOUS
 62
    61
 10
355.59043000000003
 20
489.5456099999999
 30
0.0
 40
64.0
  1
システム部材
 41
0.9
  0
TEXT
  8
ETC
  6
CONTINUOUS
 62
    61
 10
406.19793299999992
 20
382.62467400000003
 30
0.0
 40
40.0
  1
PS-25QS3-T
 41
0.9
  0
LINE
  8
BASIS
  6
DASHDOT
 62
     6
 39
50.0
 10
0.0
 20
-142.591408
 30
0.0
 11
0.0
 21
66.194047000000012
 31
0.0
  0
CIRCLE
  8
DETAIL
  6
CONTINUOUS
 62
     5
 10
-38.5
 20
-18.0
 30
0.0
 40
13.811564000000001
  0
CIRCLE
  8
DETAIL
  6
CONTINUOUS
 62
     5
 10
-38.5
 20
-18.0
 30
0.0
 40
9.4999009999999995
  0
CIRCLE
  8
DETAIL
  6
CONTINUOUS
 62
     5
 10
-38.5
 20
-18.0
 30
0.0
 40
15.5
  0
CIRCLE
  8
DETAIL
  6
CONTINUOUS
 62
     5
 10
-76.5
 20
-18.0
 30
0.0
 40
13.811564000000001
  0
CIRCLE
  8
DETAIL
  6
CONTINUOUS
 62
     5
 10
-76.5
 20
-18.0
 30
0.0
 40
9.4999009999999995
  0
CIRCLE
  8
DETAIL
  6
CONTINUOUS
 62
     5
 10
-76.5
 20
-18.0
 30
0.0
 40
15.5
  0
CIRCLE
  8
DETAIL
  6
CONTINUOUS
 62
     5
 10
67.5
 20
-18.0
 30
0.0
 40
13.811564000000001
  0
CIRCLE
  8
DETAIL
  6
CONTINUOUS
 62
     5
 10
67.5
 20
-18.0
 30
0.0
 40
9.4999009999999995
  0
CIRCLE
  8
DETAIL
  6
CONTINUOUS
 62
     5
 10
67.5
 20
-18.0
 30
0.0
 40
15.5
  0
CIRCLE
  8
DETAIL
  6
CONTINUOUS
 62
     5
 10
22.5
 20
-18.0
 30
0.0
 40
13.811564000000001
  0
CIRCLE
  8
DETAIL
  6
CONTINUOUS
 62
     5
 10
22.5
 20
-18.0
 30
0.0
 40
9.4999009999999995
  0
CIRCLE
  8
DETAIL
  6
CONTINUOUS
 62
     5
 10
22.5
 20
-18.0
 30
0.0
 40
15.5
  0
LINE
  8
DETAIL
  6
CONTINUOUS
 62
     5
 10
-124.7
 20
-103.2
 30
0.0
 11
-124.6999999999998
 21
-4.6000000000000227
 31
0.0
  0
LINE
  8
DETAIL
  6
CONTINUOUS
 62
     5
 10
-123.90000000000011
 20
-102.40000000000001
 30
0.0
 11
-123.89999999999991
 21
-4.6000000000000227
 31
0.0
  0
LINE
  8
DETAIL
  6
CONTINUOUS
 62
     5
 10
123.89999999999991
 20
-4.6000000000000227
 30
0.0
 11
123.90000000000011
 21
-102.40000000000001
 31
0.0
  0
LINE
  8
DETAIL
  6
CONTINUOUS
 62
     5
 10
124.7
 20
-103.2
 30
0.0
 11
124.6999999999998
 21
-4.6000000000000227
 31
0.0
  0
LINE
  8
DETAIL
  6
CONTINUOUS
 62
     5
 10
123.09999999999989
 20
-0.8000000000000114
 30
0.0
 11
-123.09999999999989
 21
-0.8000000000000114
 31
0.0
  0
LINE
  8
DETAIL
  6
CONTINUOUS
 62
     5
 10
123.09999999999989
 20
0.0
 30
0.0
 11
-123.09999999999989
 21
0.0
 31
0.0
  0
ARC
  8
DETAIL
  6
CONTINUOUS
 62
     5
 10
123.09999999999989
 20
-4.6000000000000227
 30
0.0
 40
0.8
 50
0.0
 51
90.0
  0
ARC
  8
DETAIL
  6
CONTINUOUS
 62
     5
 10
123.09999999999989
 20
-4.6000000000000227
 30
0.0
 40
1.6000000000000001
 50
0.0
 51
90.0
  0
LINE
  8
DETAIL
  6
CONTINUOUS
 62
     5
 10
123.90000000000011
 20
-4.6000000000000227
 30
0.0
 11
123.09999999999989
 21
-4.6000000000000227
 31
0.0
  0
LINE
  8
DETAIL
  6
CONTINUOUS
 62
     5
 10
113.09999999999989
 20
0.0
 30
0.0
 11
113.09999999999989
 21
-0.8000000000000114
 31
0.0
  0
LINE
  8
DETAIL
  6
CONTINUOUS
 62
     5
 10
123.09999999999989
 20
-0.8000000000000114
 30
0.0
 11
123.09999999999989
 21
-4.6000000000000227
 31
0.0
  0
LINE
  8
DETAIL
  6
CONTINUOUS
 62
     5
 10
123.09999999999989
 20
0.0
 30
0.0
 11
123.09999999999989
 21
-0.8000000000000114
 31
0.0
  0
LINE
  8
DETAIL
  6
CONTINUOUS
 62
     5
 10
-113.09999999999989
 20
0.0
 30
0.0
 11
-113.09999999999989
 21
-0.8000000000000114
 31
0.0
  0
ARC
  8
DETAIL
  6
CONTINUOUS
 62
     5
 10
-123.09999999999989
 20
-4.6000000000000227
 30
0.0
 40
0.8
 50
90.0
 51
180.0
  0
ARC
  8
DETAIL
  6
CONTINUOUS
 62
     5
 10
-123.09999999999989
 20
-4.6000000000000227
 30
0.0
 40
1.6000000000000001
 50
90.0
 51
180.0
  0
LINE
  8
DETAIL
  6
CONTINUOUS
 62
     5
 10
-123.09999999999989
 20
-0.8000000000000114
 30
0.0
 11
-123.09999999999989
 21
-4.6000000000000227
 31
0.0
  0
LINE
  8
DETAIL
  6
CONTINUOUS
 62
     5
 10
-123.09999999999989
 20
0.0
 30
0.0
 11
-123.09999999999989
 21
-0.8000000000000114
 31
0.0
  0
LINE
  8
DETAIL
  6
CONTINUOUS
 62
     5
 10
-123.90000000000011
 20
-4.6000000000000227
 30
0.0
 11
-123.09999999999989
 21
-4.6000000000000227
 31
0.0
  0
LINE
  8
DETAIL
  6
CONTINUOUS
 62
     5
 10
125.5
 20
-116.0
 30
0.0
 11
-125.5
 21
-116.0
 31
0.0
  0
LINE
  8
DETAIL
  6
CONTINUOUS
 62
     5
 10
122.5
 20
-101.0
 30
0.0
 11
-122.5
 21
-101.0
 31
0.0
  0
LINE
  8
DETAIL
  6
CONTINUOUS
 62
     5
 10
125.5
 20
-104.0
 30
0.0
 11
122.5
 21
-101.0
 31
0.0
  0
ARC
  8
DETAIL
  6
CONTINUOUS
 62
     5
 10
125.5
 20
-115.2
 30
0.0
 40
0.8
 50
270.0
 51
0.0
  0
LINE
  8
DETAIL
  6
CONTINUOUS
 62
     5
 10
125.5
 20
-104.0
 30
0.0
 11
126.3
 21
-104.0
 31
0.0
  0
LINE
  8
DETAIL
  6
CONTINUOUS
 62
     5
 10
125.5
 20
-101.0
 30
0.0
 11
126.3
 21
-101.0
 31
0.0
  0
LINE
  8
DETAIL
  6
CONTINUOUS
 62
     5
 10
125.5
 20
-104.0
 30
0.0
 11
125.5
 21
-116.0
 31
0.0
  0
LINE
  8
DETAIL
  6
CONTINUOUS
 62
     5
 10
125.5
 20
-104.0
 30
0.0
 11
125.5
 21
-101.0
 31
0.0
  0
LINE
  8
DETAIL
  6
CONTINUOUS
 62
     5
 10
126.3
 20
-101.0
 30
0.0
 11
126.3
 21
-115.2
 31
0.0
  0
LINE
  8
DETAIL
  6
CONTINUOUS
 62
     5
 10
28.510408000000101
 20
-11.282486000000009
 30
0.0
 11
22.5
 21
-17.292892999999989
 31
0.0
  0
LINE
  8
DETAIL
  6
CONTINUOUS
 62
     5
 10
28.697431000000051
 20
-11.46950900000002
 30
0.0
 11
22.5
 21
-17.66693900000001
 31
0.0
  0
LINE
  8
DETAIL
  6
CONTINUOUS
 62
     5
 10
22.83306100000004
 20
-18.0
 30
0.0
 11
29.03049099999998
 21
-11.802569000000011
 31
0.0
  0
LINE
  8
DETAIL
  6
CONTINUOUS
 62
     5
 10
23.207106999999951
 20
-18.0
 30
0.0
 11
29.217513999999941
 21
-11.98959200000002
 31
0.0
  0
LINE
  8
DETAIL
  6
CONTINUOUS
 62
     5
 10
22.5
 20
-18.707107000000011
 30
0.0
 11
28.510408000000101
 21
-24.717513999999991
 31
0.0
  0
LINE
  8
DETAIL
  6
CONTINUOUS
 62
     5
 10
28.697431000000051
 20
-24.53049099999998
 30
0.0
 11
22.5
 21
-18.33306099999999
 31
0.0
  0
LINE
  8
DETAIL
  6
CONTINUOUS
 62
     5
 10
29.03049099999998
 20
-24.197430999999991
 30
0.0
 11
22.83306100000004
 21
-18.0
 31
0.0
  0
LINE
  8
DETAIL
  6
CONTINUOUS
 62
     5
 10
29.217513999999941
 20
-24.01040799999998
 30
0.0
 11
23.207106999999951
 21
-18.0
 31
0.0
  0
LINE
  8
DETAIL
  6
CONTINUOUS
 62
     5
 10
27.033061000000089
 20
-13.80000000000001
 30
0.0
 11
26.366938999999999
 21
-13.80000000000001
 31
0.0
  0
LINE
  8
DETAIL
  6
CONTINUOUS
 62
     5
 10
61.489591999999902
 20
-11.282486000000009
 30
0.0
 11
60.782486000000063
 21
-11.98959200000002
 31
0.0
  0
LINE
  8
DETAIL
  6
CONTINUOUS
 62
     5
 10
66.792893000000049
 20
-18.0
 30
0.0
 11
60.782486000000063
 21
-24.01040799999998
 31
0.0
  0
LINE
  8
DETAIL
  6
CONTINUOUS
 62
     5
 10
73.510408000000098
 20
-11.282486000000009
 30
0.0
 11
67.5
 21
-17.292892999999989
 31
0.0
  0
LINE
  8
DETAIL
  6
CONTINUOUS
 62
     5
 10
73.697431000000051
 20
-11.46950900000002
 30
0.0
 11
67.5
 21
-17.66693900000001
 31
0.0
  0
LINE
  8
DETAIL
  6
CONTINUOUS
 62
     5
 10
60.969509000000023
 20
-24.197430999999991
 30
0.0
 11
67.166938999999957
 21
-18.0
 31
0.0
  0
LINE
  8
DETAIL
  6
CONTINUOUS
 62
     5
 10
67.5
 20
-18.33306099999999
 30
0.0
 11
61.302568999999949
 21
-24.53049099999998
 31
0.0
  0
LINE
  8
DETAIL
  6
CONTINUOUS
 62
     5
 10
67.833061000000043
 20
-18.0
 30
0.0
 11
74.030490999999984
 21
-11.802569000000011
 31
0.0
  0
LINE
  8
DETAIL
  6
CONTINUOUS
 62
     5
 10
68.207106999999951
 20
-18.0
 30
0.0
 11
74.217513999999937
 21
-11.98959200000002
 31
0.0
  0
LINE
  8
DETAIL
  6
CONTINUOUS
 62
     5
 10
61.489591999999902
 20
-24.717513999999991
 30
0.0
 11
67.5
 21
-18.707107000000011
 31
0.0
  0
LINE
  8
DETAIL
  6
CONTINUOUS
 62
     5
 10
73.510408000000098
 20
-24.717513999999991
 30
0.0
 11
74.217513999999937
 21
-24.01040799999998
 31
0.0
  0
LINE
  8
DETAIL
  6
CONTINUOUS
 62
     5
 10
67.166938999999957
 20
-18.0
 30
0.0
 11
66.792893000000049
 21
-18.0
 31
0.0
  0
LINE
  8
DETAIL
  6
CONTINUOUS
 62
     5
 10
67.833061000000043
 20
-18.0
 30
0.0
 11
68.207106999999951
 21
-18.0
 31
0.0
  0
LINE
  8
DETAIL
  6
CONTINUOUS
 62
     5
 10
66.966938999999911
 20
-17.800000000000011
 30
0.0
 11
68.033061000000089
 21
-17.800000000000011
 31
0.0
  0
LINE
  8
DETAIL
  6
CONTINUOUS
 62
     5
 10
66.633060999999998
 20
-16.800000000000011
 30
0.0
 11
65.966938999999911
 21
-16.800000000000011
 31
0.0
  0
LINE
  8
DETAIL
  6
CONTINUOUS
 62
     5
 10
69.033061000000089
 20
-16.800000000000011
 30
0.0
 11
68.366939000000002
 21
-16.800000000000011
 31
0.0
  0
LINE
  8
DETAIL
  6
CONTINUOUS
 62
     5
 10
66.133060999999998
 20
-16.300000000000011
 30
0.0
 11
66.0
 21
-16.300000000000011
 31
0.0
  0
LINE
  8
DETAIL
  6
CONTINUOUS
 62
     5
 10
68.866939000000002
 20
-16.300000000000011
 30
0.0
 11
69.533061000000089
 21
-16.300000000000011
 31
0.0
  0
LINE
  8
DETAIL
  6
CONTINUOUS
 62
     5
 10
63.983060999999907
 20
-14.149999999999981
 30
0.0
 11
63.316939000000048
 21
-14.149999999999981
 31
0.0
  0
LINE
  8
DETAIL
  6
CONTINUOUS
 62
     5
 10
71.683060999999952
 20
-14.149999999999981
 30
0.0
 11
71.016939000000093
 21
-14.149999999999981
 31
0.0
  0
LINE
  8
DETAIL
  6
CONTINUOUS
 62
     5
 10
63.633060999999998
 20
-13.80000000000001
 30
0.0
 11
62.966938999999911
 21
-13.80000000000001
 31
0.0
  0
LINE
  8
DETAIL
  6
CONTINUOUS
 62
     5
 10
72.033061000000089
 20
-13.80000000000001
 30
0.0
 11
71.366939000000002
 21
-13.80000000000001
 31
0.0
  0
LINE
  8
DETAIL
  6
CONTINUOUS
 62
     5
 10
60.782486000000063
 20
-24.01040799999998
 30
0.0
 11
61.489591999999902
 21
-24.717513999999991
 31
0.0
  0
LINE
  8
DETAIL
  6
CONTINUOUS
 62
     5
 10
66.0
 20
-16.300000000000011
 30
0.0
 11
66.0
 21
-16.800000000000011
 31
0.0
  0
LINE
  8
DETAIL
  6
CONTINUOUS
 62
     5
 10
67.5
 20
-18.33306099999999
 30
0.0
 11
67.5
 21
-18.707107000000011
 31
0.0
  0
LINE
  8
DETAIL
  6
CONTINUOUS
 62
     5
 10
67.5
 20
-17.66693900000001
 30
0.0
 11
67.5
 21
-17.292892999999989
 31
0.0
  0
LINE
  8
DETAIL
  6
CONTINUOUS
 62
     5
 10
67.5
 20
-18.707107000000011
 30
0.0
 11
73.510408000000098
 21
-24.717513999999991
 31
0.0
  0
LINE
  8
DETAIL
  6
CONTINUOUS
 62
     5
 10
60.782486000000063
 20
-11.98959200000002
 30
0.0
 11
66.792893000000049
 21
-18.0
 31
0.0
  0
LINE
  8
DETAIL
  6
CONTINUOUS
 62
     5
 10
67.166938999999957
 20
-18.0
 30
0.0
 11
60.969509000000023
 21
-11.802569000000011
 31
0.0
  0
LINE
  8
DETAIL
  6
CONTINUOUS
 62
     5
 10
73.697431000000051
 20
-24.53049099999998
 30
0.0
 11
67.5
 21
-18.33306099999999
 31
0.0
  0
LINE
  8
DETAIL
  6
CONTINUOUS
 62
     5
 10
67.5
 20
-17.66693900000001
 30
0.0
 11
61.302568999999949
 21
-11.46950900000002
 31
0.0
  0
LINE
  8
DETAIL
  6
CONTINUOUS
 62
     5
 10
74.030490999999984
 20
-24.197430999999991
 30
0.0
 11
67.833061000000043
 21
-18.0
 31
0.0
  0
LINE
  8
DETAIL
  6
CONTINUOUS
 62
     5
 10
67.5
 20
-17.292892999999989
 30
0.0
 11
61.489591999999902
 21
-11.282486000000009
 31
0.0
  0
LINE
  8
DETAIL
  6
CONTINUOUS
 62
     5
 10
74.217513999999937
 20
-24.01040799999998
 30
0.0
 11
68.207106999999951
 21
-18.0
 31
0.0
  0
LINE
  8
DETAIL
  6
CONTINUOUS
 62
     5
 10
74.217513999999937
 20
-11.98959200000002
 30
0.0
 11
73.510408000000098
 21
-11.282486000000009
 31
0.0
  0
LINE
  8
DETAIL
  6
CONTINUOUS
 62
     5
 10
28.510408000000101
 20
-24.717513999999991
 30
0.0
 11
29.217513999999941
 21
-24.01040799999998
 31
0.0
  0
LINE
  8
DETAIL
  6
CONTINUOUS
 62
     5
 10
29.217513999999941
 20
-11.98959200000002
 30
0.0
 11
28.510408000000101
 21
-11.282486000000009
 31
0.0
  0
LINE
  8
DETAIL
  6
CONTINUOUS
 62
     5
 10
16.489591999999899
 20
-11.282486000000009
 30
0.0
 11
15.782486000000061
 21
-11.98959200000002
 31
0.0
  0
LINE
  8
DETAIL
  6
CONTINUOUS
 62
     5
 10
21.792893000000049
 20
-18.0
 30
0.0
 11
15.782486000000061
 21
-24.01040799999998
 31
0.0
  0
LINE
  8
DETAIL
  6
CONTINUOUS
 62
     5
 10
15.96950900000002
 20
-24.197430999999991
 30
0.0
 11
22.16693899999996
 21
-18.0
 31
0.0
  0
LINE
  8
DETAIL
  6
CONTINUOUS
 62
     5
 10
22.5
 20
-18.33306099999999
 30
0.0
 11
16.302568999999949
 21
-24.53049099999998
 31
0.0
  0
LINE
  8
DETAIL
  6
CONTINUOUS
 62
     5
 10
16.489591999999899
 20
-24.717513999999991
 30
0.0
 11
22.5
 21
-18.707107000000011
 31
0.0
  0
LINE
  8
DETAIL
  6
CONTINUOUS
 62
     5
 10
22.5
 20
-18.33306099999999
 30
0.0
 11
22.5
 21
-18.707107000000011
 31
0.0
  0
LINE
  8
DETAIL
  6
CONTINUOUS
 62
     5
 10
22.5
 20
-17.66693900000001
 30
0.0
 11
22.5
 21
-17.292892999999989
 31
0.0
  0
LINE
  8
DETAIL
  6
CONTINUOUS
 62
     5
 10
15.782486000000061
 20
-24.01040799999998
 30
0.0
 11
16.489591999999899
 21
-24.717513999999991
 31
0.0
  0
LINE
  8
DETAIL
  6
CONTINUOUS
 62
     5
 10
15.782486000000061
 20
-11.98959200000002
 30
0.0
 11
21.792893000000049
 21
-18.0
 31
0.0
  0
LINE
  8
DETAIL
  6
CONTINUOUS
 62
     5
 10
22.16693899999996
 20
-18.0
 30
0.0
 11
15.96950900000002
 21
-11.802569000000011
 31
0.0
  0
LINE
  8
DETAIL
  6
CONTINUOUS
 62
     5
 10
22.5
 20
-17.66693900000001
 30
0.0
 11
16.302568999999949
 21
-11.46950900000002
 31
0.0
  0
LINE
  8
DETAIL
  6
CONTINUOUS
 62
     5
 10
22.5
 20
-17.292892999999989
 30
0.0
 11
16.489591999999899
 21
-11.282486000000009
 31
0.0
  0
LINE
  8
DETAIL
  6
CONTINUOUS
 62
     5
 10
22.16693899999996
 20
-18.0
 30
0.0
 11
21.792893000000049
 21
-18.0
 31
0.0
  0
LINE
  8
DETAIL
  6
CONTINUOUS
 62
     5
 10
22.83306100000004
 20
-18.0
 30
0.0
 11
23.207106999999951
 21
-18.0
 31
0.0
  0
LINE
  8
DETAIL
  6
CONTINUOUS
 62
     5
 10
21.966938999999911
 20
-17.800000000000011
 30
0.0
 11
23.033061000000089
 21
-17.800000000000011
 31
0.0
  0
LINE
  8
DETAIL
  6
CONTINUOUS
 62
     5
 10
21.633061000000001
 20
-16.800000000000011
 30
0.0
 11
20.966938999999911
 21
-16.800000000000011
 31
0.0
  0
LINE
  8
DETAIL
  6
CONTINUOUS
 62
     5
 10
24.033061000000089
 20
-16.800000000000011
 30
0.0
 11
23.366938999999999
 21
-16.800000000000011
 31
0.0
  0
LINE
  8
DETAIL
  6
CONTINUOUS
 62
     5
 10
21.133061000000001
 20
-16.300000000000011
 30
0.0
 11
20.466938999999911
 21
-16.300000000000011
 31
0.0
  0
LINE
  8
DETAIL
  6
CONTINUOUS
 62
     5
 10
24.533061000000089
 20
-16.300000000000011
 30
0.0
 11
23.866938999999999
 21
-16.300000000000011
 31
0.0
  0
LINE
  8
DETAIL
  6
CONTINUOUS
 62
     5
 10
18.98306099999991
 20
-14.149999999999981
 30
0.0
 11
18.316939000000051
 21
-14.149999999999981
 31
0.0
  0
LINE
  8
DETAIL
  6
CONTINUOUS
 62
     5
 10
26.683060999999949
 20
-14.149999999999981
 30
0.0
 11
26.01693900000009
 21
-14.149999999999981
 31
0.0
  0
LINE
  8
DETAIL
  6
CONTINUOUS
 62
     5
 10
18.633061000000001
 20
-13.80000000000001
 30
0.0
 11
17.966938999999911
 21
-13.80000000000001
 31
0.0
  0
ARC
  8
DETAIL
  6
CONTINUOUS
 62
     5
 10
0.0
 20
-111.97750000000001
 30
0.0
 40
6.5225
 50
223.89739799999941
 51
316.10260200000062
  0
LINE
  8
DETAIL
  6
CONTINUOUS
 62
     5
 10
-4.7000000000000446
 20
-116.5
 30
0.0
 11
4.7000000000000446
 21
-116.5
 31
0.0
  0
LINE
  8
DETAIL
  6
CONTINUOUS
 62
     5
 10
4.7000000000000446
 20
-116.5
 30
0.0
 11
4.7000000000000446
 21
-116.0
 31
0.0
  0
LINE
  8
DETAIL
  6
CONTINUOUS
 62
     5
 10
-1.520279999999957
 20
-118.135463
 30
0.0
 11
-1.352006000000074
 21
-118.213458
 31
0.0
  0
LINE
  8
DETAIL
  6
CONTINUOUS
 62
     5
 10
-1.352006000000074
 20
-118.213458
 30
0.0
 11
-1.1661690000000819
 21
-118.288055
 31
0.0
  0
LINE
  8
DETAIL
  6
CONTINUOUS
 62
     5
 10
-1.1661690000000819
 20
-118.288055
 30
0.0
 11
-0.9940139999998792
 21
-118.34671299999999
 31
0.0
  0
LINE
  8
DETAIL
  6
CONTINUOUS
 62
     5
 10
-0.9940139999998792
 20
-118.34671299999999
 30
0.0
 11
-0.8045459999998457
 21
-118.39999299999999
 31
0.0
  0
LINE
  8
DETAIL
  6
CONTINUOUS
 62
     5
 10
-0.8045459999998457
 20
-118.39999299999999
 30
0.0
 11
-0.6296200000001591
 21
-118.438937
 31
0.0
  0
LINE
  8
DETAIL
  6
CONTINUOUS
 62
     5
 10
-0.6296200000001591
 20
-118.438937
 30
0.0
 11
-0.4361199999998462
 21
-118.47077400000001
 31
0.0
  0
LINE
  8
DETAIL
  6
CONTINUOUS
 62
     5
 10
-0.4361199999998462
 20
-118.47077400000001
 30
0.0
 11
-0.3719710000000305
 21
-118.478752
 31
0.0
  0
LINE
  8
DETAIL
  6
CONTINUOUS
 62
     5
 10
-0.3719710000000305
 20
-118.478752
 30
0.0
 11
-0.291684000000032
 21
-118.486943
 31
0.0
  0
LINE
  8
DETAIL
  6
CONTINUOUS
 62
     5
 10
-0.291684000000032
 20
-118.486943
 30
0.0
 11
-0.2273890000001302
 21
-118.492068
 31
0.0
  0
LINE
  8
DETAIL
  6
CONTINUOUS
 62
     5
 10
-0.2273890000001302
 20
-118.492068
 30
0.0
 11
-0.1469600000000355
 21
-118.49668800000001
 31
0.0
  0
LINE
  8
DETAIL
  6
CONTINUOUS
 62
     5
 10
-0.1469600000000355
 20
-118.49668800000001
 30
0.0
 11
-0.0825839999999971
 21
-118.498954
 31
0.0
  0
LINE
  8
DETAIL
  6
CONTINUOUS
 62
     5
 10
-0.0825839999999971
 20
-118.498954
 30
0.0
 11
0.0
 21
-118.5
 31
0.0
  0
LINE
  8
DETAIL
  6
CONTINUOUS
 62
     5
 10
0.4361199999998462
 20
-118.47077400000001
 30
0.0
 11
0.3719710000000305
 21
-118.478752
 31
0.0
  0
LINE
  8
DETAIL
  6
CONTINUOUS
 62
     5
 10
0.3719710000000305
 20
-118.478752
 30
0.0
 11
0.291684000000032
 21
-118.486943
 31
0.0
  0
LINE
  8
DETAIL
  6
CONTINUOUS
 62
     5
 10
0.291684000000032
 20
-118.486943
 30
0.0
 11
0.2273890000001302
 21
-118.492068
 31
0.0
  0
LINE
  8
DETAIL
  6
CONTINUOUS
 62
     5
 10
0.2273890000001302
 20
-118.492068
 30
0.0
 11
0.1469600000000355
 21
-118.49668800000001
 31
0.0
  0
LINE
  8
DETAIL
  6
CONTINUOUS
 62
     5
 10
0.1469600000000355
 20
-118.49668800000001
 30
0.0
 11
0.0825839999999971
 21
-118.498954
 31
0.0
  0
LINE
  8
DETAIL
  6
CONTINUOUS
 62
     5
 10
0.0825839999999971
 20
-118.498954
 30
0.0
 11
0.0
 21
-118.5
 31
0.0
  0
LINE
  8
DETAIL
  6
CONTINUOUS
 62
     5
 10
-4.7000000000000446
 20
-116.5
 30
0.0
 11
-4.7000000000000446
 21
-116.0
 31
0.0
  0
LINE
  8
DETAIL
  6
CONTINUOUS
 62
     5
 10
1.520279999999957
 20
-118.135463
 30
0.0
 11
1.352006000000074
 21
-118.213458
 31
0.0
  0
LINE
  8
DETAIL
  6
CONTINUOUS
 62
     5
 10
1.352006000000074
 20
-118.213458
 30
0.0
 11
1.1661690000000819
 21
-118.288055
 31
0.0
  0
LINE
  8
DETAIL
  6
CONTINUOUS
 62
     5
 10
1.1661690000000819
 20
-118.288055
 30
0.0
 11
0.9940139999998792
 21
-118.34671299999999
 31
0.0
  0
LINE
  8
DETAIL
  6
CONTINUOUS
 62
     5
 10
0.9940139999998792
 20
-118.34671299999999
 30
0.0
 11
0.8045459999998457
 21
-118.39999299999999
 31
0.0
  0
LINE
  8
DETAIL
  6
CONTINUOUS
 62
     5
 10
0.8045459999998457
 20
-118.39999299999999
 30
0.0
 11
0.6296200000001591
 21
-118.438937
 31
0.0
  0
LINE
  8
DETAIL
  6
CONTINUOUS
 62
     5
 10
0.6296200000001591
 20
-118.438937
 30
0.0
 11
0.4361199999998462
 21
-118.47077400000001
 31
0.0
  0
LINE
  8
DETAIL
  6
CONTINUOUS
 62
     5
 10
-70.489591999999902
 20
-11.282486000000009
 30
0.0
 11
-76.5
 21
-17.292892999999989
 31
0.0
  0
LINE
  8
DETAIL
  6
CONTINUOUS
 62
     5
 10
-70.302568999999949
 20
-11.46950900000002
 30
0.0
 11
-76.5
 21
-17.66693900000001
 31
0.0
  0
LINE
  8
DETAIL
  6
CONTINUOUS
 62
     5
 10
-76.166938999999957
 20
-18.0
 30
0.0
 11
-69.969509000000016
 21
-11.802569000000011
 31
0.0
  0
LINE
  8
DETAIL
  6
CONTINUOUS
 62
     5
 10
-75.792893000000049
 20
-18.0
 30
0.0
 11
-69.782486000000063
 21
-11.98959200000002
 31
0.0
  0
LINE
  8
DETAIL
  6
CONTINUOUS
 62
     5
 10
-76.5
 20
-18.707107000000011
 30
0.0
 11
-70.489591999999902
 21
-24.717513999999991
 31
0.0
  0
LINE
  8
DETAIL
  6
CONTINUOUS
 62
     5
 10
-70.302568999999949
 20
-24.53049099999998
 30
0.0
 11
-76.5
 21
-18.33306099999999
 31
0.0
  0
LINE
  8
DETAIL
  6
CONTINUOUS
 62
     5
 10
-69.969509000000016
 20
-24.197430999999991
 30
0.0
 11
-76.166938999999957
 21
-18.0
 31
0.0
  0
LINE
  8
DETAIL
  6
CONTINUOUS
 62
     5
 10
-69.782486000000063
 20
-24.01040799999998
 30
0.0
 11
-75.792893000000049
 21
-18.0
 31
0.0
  0
ARC
  8
DETAIL
  6
CONTINUOUS
 62
     5
 10
-34.400000000000091
 20
-22.600000000000019
 30
0.0
 40
0.9
 50
347.15583599999911
 51
354.20304700000202
  0
ARC
  8
DETAIL
  6
CONTINUOUS
 62
     5
 10
-34.400000000000091
 20
-22.600000000000019
 30
0.0
 40
0.6
 50
340.28925599999872
 51
0.0
  0
LINE
  8
DETAIL
  6
CONTINUOUS
 62
     5
 10
-44.510408000000098
 20
-11.282486000000009
 30
0.0
 11
-45.217513999999937
 21
-11.98959200000002
 31
0.0
  0
LINE
  8
DETAIL
  6
CONTINUOUS
 62
     5
 10
-39.207106999999951
 20
-18.0
 30
0.0
 11
-45.217513999999937
 21
-24.01040799999998
 31
0.0
  0
LINE
  8
DETAIL
  6
CONTINUOUS
 62
     5
 10
-32.489591999999902
 20
-11.282486000000009
 30
0.0
 11
-38.5
 21
-17.292892999999989
 31
0.0
  0
LINE
  8
DETAIL
  6
CONTINUOUS
 62
     5
 10
-32.302568999999949
 20
-11.46950900000002
 30
0.0
 11
-38.5
 21
-17.66693900000001
 31
0.0
  0
LINE
  8
DETAIL
  6
CONTINUOUS
 62
     5
 10
-45.030490999999977
 20
-24.197430999999991
 30
0.0
 11
-38.833061000000043
 21
-18.0
 31
0.0
  0
LINE
  8
DETAIL
  6
CONTINUOUS
 62
     5
 10
-38.5
 20
-18.33306099999999
 30
0.0
 11
-44.697431000000051
 21
-24.53049099999998
 31
0.0
  0
LINE
  8
DETAIL
  6
CONTINUOUS
 62
     5
 10
-38.166938999999957
 20
-18.0
 30
0.0
 11
-31.96950900000002
 21
-11.802569000000011
 31
0.0
  0
LINE
  8
DETAIL
  6
CONTINUOUS
 62
     5
 10
-37.792893000000049
 20
-18.0
 30
0.0
 11
-31.782486000000059
 21
-11.98959200000002
 31
0.0
  0
LINE
  8
DETAIL
  6
CONTINUOUS
 62
     5
 10
-44.510408000000098
 20
-24.717513999999991
 30
0.0
 11
-38.5
 21
-18.707107000000011
 31
0.0
  0
LINE
  8
DETAIL
  6
CONTINUOUS
 62
     5
 10
-32.489591999999902
 20
-24.717513999999991
 30
0.0
 11
-31.782486000000059
 21
-24.01040799999998
 31
0.0
  0
LINE
  8
DETAIL
  6
CONTINUOUS
 62
     5
 10
-42.5
 20
-21.800000000000011
 30
0.0
 11
-42.5
 21
-22.33306099999999
 31
0.0
  0
LINE
  8
DETAIL
  6
CONTINUOUS
 62
     5
 10
-38.5
 20
-18.33306099999999
 30
0.0
 11
-38.5
 21
-18.707107000000011
 31
0.0
  0
LINE
  8
DETAIL
  6
CONTINUOUS
 62
     5
 10
-38.5
 20
-17.66693900000001
 30
0.0
 11
-38.5
 21
-17.292892999999989
 31
0.0
  0
LINE
  8
DETAIL
  6
CONTINUOUS
 62
     5
 10
-38.400000000000091
 20
-17.800000000000011
 30
0.0
 11
-38.400000000000091
 21
-18.433061000000009
 31
0.0
  0
LINE
  8
DETAIL
  6
CONTINUOUS
 62
     5
 10
-37.599999999999909
 20
-18.566938999999991
 30
0.0
 11
-37.599999999999909
 21
-19.233061000000021
 31
0.0
  0
LINE
  8
DETAIL
  6
CONTINUOUS
 62
     5
 10
-35.0
 20
-21.83306099999999
 30
0.0
 11
-35.0
 21
-21.800000000000011
 31
0.0
  0
LINE
  8
DETAIL
  6
CONTINUOUS
 62
     5
 10
-34.875
 20
-21.800000000000011
 30
0.0
 11
-34.875
 21
-21.95806099999999
 31
0.0
  0
LINE
  8
DETAIL
  6
CONTINUOUS
 62
     5
 10
-33.799999999999947
 20
-22.600000000000019
 30
0.0
 11
-33.799999999999947
 21
-22.366938999999999
 31
0.0
  0
LINE
  8
DETAIL
  6
CONTINUOUS
 62
     5
 10
-33.5
 20
-22.66693900000001
 30
0.0
 11
-33.5
 21
-22.800000000000011
 31
0.0
  0
LINE
  8
DETAIL
  6
CONTINUOUS
 62
     5
 10
-45.217513999999937
 20
-24.01040799999998
 30
0.0
 11
-44.510408000000098
 21
-24.717513999999991
 31
0.0
  0
LINE
  8
DETAIL
  6
CONTINUOUS
 62
     5
 10
-38.5
 20
-18.707107000000011
 30
0.0
 11
-32.489591999999902
 21
-24.717513999999991
 31
0.0
  0
LINE
  8
DETAIL
  6
CONTINUOUS
 62
     5
 10
-45.217513999999937
 20
-11.98959200000002
 30
0.0
 11
-39.207106999999951
 21
-18.0
 31
0.0
  0
LINE
  8
DETAIL
  6
CONTINUOUS
 62
     5
 10
-38.833061000000043
 20
-18.0
 30
0.0
 11
-45.030490999999977
 21
-11.802569000000011
 31
0.0
  0
LINE
  8
DETAIL
  6
CONTINUOUS
 62
     5
 10
-32.302568999999949
 20
-24.53049099999998
 30
0.0
 11
-38.5
 21
-18.33306099999999
 31
0.0
  0
LINE
  8
DETAIL
  6
CONTINUOUS
 62
     5
 10
-38.5
 20
-17.66693900000001
 30
0.0
 11
-44.697431000000051
 21
-11.46950900000002
 31
0.0
  0
LINE
  8
DETAIL
  6
CONTINUOUS
 62
     5
 10
-31.96950900000002
 20
-24.197430999999991
 30
0.0
 11
-38.166938999999957
 21
-18.0
 31
0.0
  0
LINE
  8
DETAIL
  6
CONTINUOUS
 62
     5
 10
-38.5
 20
-17.292892999999989
 30
0.0
 11
-44.510408000000098
 21
-11.282486000000009
 31
0.0
  0
LINE
  8
DETAIL
  6
CONTINUOUS
 62
     5
 10
-31.782486000000059
 20
-24.01040799999998
 30
0.0
 11
-37.792893000000049
 21
-18.0
 31
0.0
  0
LINE
  8
DETAIL
  6
CONTINUOUS
 62
     5
 10
-31.782486000000059
 20
-11.98959200000002
 30
0.0
 11
-32.489591999999902
 21
-11.282486000000009
 31
0.0
  0
LINE
  8
DETAIL
  6
CONTINUOUS
 62
     5
 10
-42.966938999999911
 20
-22.800000000000011
 30
0.0
 11
-43.633060999999998
 21
-22.800000000000011
 31
0.0
  0
LINE
  8
DETAIL
  6
CONTINUOUS
 62
     5
 10
-33.366939000000002
 20
-22.800000000000011
 30
0.0
 11
-34.033061000000089
 21
-22.800000000000011
 31
0.0
  0
LINE
  8
DETAIL
  6
CONTINUOUS
 62
     5
 10
-42.466938999999911
 20
-22.300000000000011
 30
0.0
 11
-42.5
 21
-22.300000000000011
 31
0.0
  0
LINE
  8
DETAIL
  6
CONTINUOUS
 62
     5
 10
-33.866939000000002
 20
-22.300000000000011
 30
0.0
 11
-34.533061000000089
 21
-22.300000000000011
 31
0.0
  0
LINE
  8
DETAIL
  6
CONTINUOUS
 62
     5
 10
-41.966938999999911
 20
-21.800000000000011
 30
0.0
 11
-42.633060999999998
 21
-21.800000000000011
 31
0.0
  0
LINE
  8
DETAIL
  6
CONTINUOUS
 62
     5
 10
-34.366939000000002
 20
-21.800000000000011
 30
0.0
 11
-35.033061000000089
 21
-21.800000000000011
 31
0.0
  0
LINE
  8
DETAIL
  6
CONTINUOUS
 62
     5
 10
-38.833061000000043
 20
-18.0
 30
0.0
 11
-39.207106999999951
 21
-18.0
 31
0.0
  0
LINE
  8
DETAIL
  6
CONTINUOUS
 62
     5
 10
-38.166938999999957
 20
-18.0
 30
0.0
 11
-37.792893000000049
 21
-18.0
 31
0.0
  0
LINE
  8
DETAIL
  6
CONTINUOUS
 62
     5
 10
-39.033061000000089
 20
-17.800000000000011
 30
0.0
 11
-37.966938999999911
 21
-17.800000000000011
 31
0.0
  0
LINE
  8
DETAIL
  6
CONTINUOUS
 62
     5
 10
-39.366939000000002
 20
-16.800000000000011
 30
0.0
 11
-40.033061000000089
 21
-16.800000000000011
 31
0.0
  0
LINE
  8
DETAIL
  6
CONTINUOUS
 62
     5
 10
-36.966938999999911
 20
-16.800000000000011
 30
0.0
 11
-37.633060999999998
 21
-16.800000000000011
 31
0.0
  0
LINE
  8
DETAIL
  6
CONTINUOUS
 62
     5
 10
-39.866939000000002
 20
-16.300000000000011
 30
0.0
 11
-40.533061000000089
 21
-16.300000000000011
 31
0.0
  0
LINE
  8
DETAIL
  6
CONTINUOUS
 62
     5
 10
-36.466938999999911
 20
-16.300000000000011
 30
0.0
 11
-37.133060999999998
 21
-16.300000000000011
 31
0.0
  0
LINE
  8
DETAIL
  6
CONTINUOUS
 62
     5
 10
-42.016939000000093
 20
-14.149999999999981
 30
0.0
 11
-42.683060999999952
 21
-14.149999999999981
 31
0.0
  0
LINE
  8
DETAIL
  6
CONTINUOUS
 62
     5
 10
-34.316939000000048
 20
-14.149999999999981
 30
0.0
 11
-34.983060999999907
 21
-14.149999999999981
 31
0.0
  0
LINE
  8
DETAIL
  6
CONTINUOUS
 62
     5
 10
-42.366939000000002
 20
-13.80000000000001
 30
0.0
 11
-43.033061000000089
 21
-13.80000000000001
 31
0.0
  0
LINE
  8
DETAIL
  6
CONTINUOUS
 62
     5
 10
-33.966938999999911
 20
-13.80000000000001
 30
0.0
 11
-34.633060999999998
 21
-13.80000000000001
 31
0.0
  0
LINE
  8
DETAIL
  6
CONTINUOUS
 62
     5
 10
-70.489591999999902
 20
-24.717513999999991
 30
0.0
 11
-69.782486000000063
 21
-24.01040799999998
 31
0.0
  0
LINE
  8
DETAIL
  6
CONTINUOUS
 62
     5
 10
-71.400000000000091
 20
-22.766938999999979
 30
0.0
 11
-71.400000000000091
 21
-23.433061000000009
 31
0.0
  0
LINE
  8
DETAIL
  6
CONTINUOUS
 62
     5
 10
-70.599999999999909
 20
-23.566938999999991
 30
0.0
 11
-70.599999999999909
 21
-24.233061000000021
 31
0.0
  0
LINE
  8
DETAIL
  6
CONTINUOUS
 62
     5
 10
-69.782486000000063
 20
-11.98959200000002
 30
0.0
 11
-70.489591999999902
 21
-11.282486000000009
 31
0.0
  0
LINE
  8
DETAIL
  6
CONTINUOUS
 62
     5
 10
-82.510408000000098
 20
-11.282486000000009
 30
0.0
 11
-83.217513999999937
 21
-11.98959200000002
 31
0.0
  0
LINE
  8
DETAIL
  6
CONTINUOUS
 62
     5
 10
-77.207106999999951
 20
-18.0
 30
0.0
 11
-83.217513999999937
 21
-24.01040799999998
 31
0.0
  0
LINE
  8
DETAIL
  6
CONTINUOUS
 62
     5
 10
-83.030490999999984
 20
-24.197430999999991
 30
0.0
 11
-76.833061000000043
 21
-18.0
 31
0.0
  0
LINE
  8
DETAIL
  6
CONTINUOUS
 62
     5
 10
-76.5
 20
-18.33306099999999
 30
0.0
 11
-82.697431000000051
 21
-24.53049099999998
 31
0.0
  0
LINE
  8
DETAIL
  6
CONTINUOUS
 62
     5
 10
-82.510408000000098
 20
-24.717513999999991
 30
0.0
 11
-76.5
 21
-18.707107000000011
 31
0.0
  0
LINE
  8
DETAIL
  6
CONTINUOUS
 62
     5
 10
-82.400000000000091
 20
-23.566938999999991
 30
0.0
 11
-82.400000000000091
 21
-24.233061000000021
 31
0.0
  0
LINE
  8
DETAIL
  6
CONTINUOUS
 62
     5
 10
-81.599999999999909
 20
-22.766938999999979
 30
0.0
 11
-81.599999999999909
 21
-23.433061000000009
 31
0.0
  0
LINE
  8
DETAIL
  6
CONTINUOUS
 62
     5
 10
-80.350118000000066
 20
-21.800000000000011
 30
0.0
 11
-80.350118000000066
 21
-22.183178999999999
 31
0.0
  0
LINE
  8
DETAIL
  6
CONTINUOUS
 62
     5
 10
-76.5
 20
-18.33306099999999
 30
0.0
 11
-76.5
 21
-18.707107000000011
 31
0.0
  0
LINE
  8
DETAIL
  6
CONTINUOUS
 62
     5
 10
-76.5
 20
-17.66693900000001
 30
0.0
 11
-76.5
 21
-17.292892999999989
 31
0.0
  0
LINE
  8
DETAIL
  6
CONTINUOUS
 62
     5
 10
-72.649881999999934
 20
-21.800000000000011
 30
0.0
 11
-72.649881999999934
 21
-22.183178999999999
 31
0.0
  0
LINE
  8
DETAIL
  6
CONTINUOUS
 62
     5
 10
-83.217513999999937
 20
-24.01040799999998
 30
0.0
 11
-82.510408000000098
 21
-24.717513999999991
 31
0.0
  0
LINE
  8
DETAIL
  6
CONTINUOUS
 62
     5
 10
-83.217513999999937
 20
-11.98959200000002
 30
0.0
 11
-77.207106999999951
 21
-18.0
 31
0.0
  0
LINE
  8
DETAIL
  6
CONTINUOUS
 62
     5
 10
-76.833061000000043
 20
-18.0
 30
0.0
 11
-83.030490999999984
 21
-11.802569000000011
 31
0.0
  0
LINE
  8
DETAIL
  6
CONTINUOUS
 62
     5
 10
-76.5
 20
-17.66693900000001
 30
0.0
 11
-82.697431000000051
 21
-11.46950900000002
 31
0.0
  0
LINE
  8
DETAIL
  6
CONTINUOUS
 62
     5
 10
-76.5
 20
-17.292892999999989
 30
0.0
 11
-82.510408000000098
 21
-11.282486000000009
 31
0.0
  0
LINE
  8
DETAIL
  6
CONTINUOUS
 62
     5
 10
-82.503334999999879
 20
-23.669001999999981
 30
0.0
 11
-82.401151999999911
 21
-23.707224
 31
0.0
  0
LINE
  8
DETAIL
  6
CONTINUOUS
 62
     5
 10
-79.966938999999911
 20
-21.800000000000011
 30
0.0
 11
-80.633060999999998
 21
-21.800000000000011
 31
0.0
  0
LINE
  8
DETAIL
  6
CONTINUOUS
 62
     5
 10
-72.366939000000002
 20
-21.800000000000011
 30
0.0
 11
-73.033061000000089
 21
-21.800000000000011
 31
0.0
  0
LINE
  8
DETAIL
  6
CONTINUOUS
 62
     5
 10
-76.833061000000043
 20
-18.0
 30
0.0
 11
-77.207106999999951
 21
-18.0
 31
0.0
  0
LINE
  8
DETAIL
  6
CONTINUOUS
 62
     5
 10
-76.166938999999957
 20
-18.0
 30
0.0
 11
-75.792893000000049
 21
-18.0
 31
0.0
  0
LINE
  8
DETAIL
  6
CONTINUOUS
 62
     5
 10
-77.033061000000089
 20
-17.800000000000011
 30
0.0
 11
-75.966938999999911
 21
-17.800000000000011
 31
0.0
  0
LINE
  8
DETAIL
  6
CONTINUOUS
 62
     5
 10
-77.366939000000002
 20
-16.800000000000011
 30
0.0
 11
-78.033061000000089
 21
-16.800000000000011
 31
0.0
  0
LINE
  8
DETAIL
  6
CONTINUOUS
 62
     5
 10
-74.966938999999911
 20
-16.800000000000011
 30
0.0
 11
-75.633060999999998
 21
-16.800000000000011
 31
0.0
  0
LINE
  8
DETAIL
  6
CONTINUOUS
 62
     5
 10
-77.866939000000002
 20
-16.300000000000011
 30
0.0
 11
-78.533061000000089
 21
-16.300000000000011
 31
0.0
  0
LINE
  8
DETAIL
  6
CONTINUOUS
 62
     5
 10
-74.466938999999911
 20
-16.300000000000011
 30
0.0
 11
-75.133060999999998
 21
-16.300000000000011
 31
0.0
  0
LINE
  8
DETAIL
  6
CONTINUOUS
 62
     5
 10
-80.016939000000093
 20
-14.149999999999981
 30
0.0
 11
-80.683060999999952
 21
-14.149999999999981
 31
0.0
  0
LINE
  8
DETAIL
  6
CONTINUOUS
 62
     5
 10
-72.316939000000048
 20
-14.149999999999981
 30
0.0
 11
-72.983060999999907
 21
-14.149999999999981
 31
0.0
  0
LINE
  8
DETAIL
  6
CONTINUOUS
 62
     5
 10
-80.366939000000002
 20
-13.80000000000001
 30
0.0
 11
-81.033061000000089
 21
-13.80000000000001
 31
0.0
  0
LINE
  8
DETAIL
  6
CONTINUOUS
 62
     5
 10
-71.966938999999911
 20
-13.80000000000001
 30
0.0
 11
-72.633060999999998
 21
-13.80000000000001
 31
0.0
  0
ARC
  8
DETAIL
  6
CONTINUOUS
 62
     5
 10
-125.5
 20
-115.2
 30
0.0
 40
0.8
 50
180.0
 51
270.0
  0
LINE
  8
DETAIL
  6
CONTINUOUS
 62
     5
 10
-126.3
 20
-101.0
 30
0.0
 11
-126.3
 21
-115.2
 31
0.0
  0
LINE
  8
DETAIL
  6
CONTINUOUS
 62
     5
 10
-125.5
 20
-104.0
 30
0.0
 11
-125.5
 21
-116.0
 31
0.0
  0
LINE
  8
DETAIL
  6
CONTINUOUS
 62
     5
 10
-125.5
 20
-101.0
 30
0.0
 11
-125.5
 21
-104.0
 31
0.0
  0
LINE
  8
DETAIL
  6
CONTINUOUS
 62
     5
 10
-122.5
 20
-101.0
 30
0.0
 11
-125.5
 21
-104.0
 31
0.0
  0
LINE
  8
DETAIL
  6
CONTINUOUS
 62
     5
 10
-125.5
 20
-104.0
 30
0.0
 11
-126.3
 21
-104.0
 31
0.0
  0
LINE
  8
DETAIL
  6
CONTINUOUS
 62
     5
 10
-125.5
 20
-101.0
 30
0.0
 11
-126.3
 21
-101.0
 31
0.0
  0
LINE
  8
SIZE
  6
CONTINUOUS
 62
    30
 39
50.0
 10
0.0
 20
-101.0
 30
0.0
 11
0.0
 21
28.144221000000019
 31
0.0
  0
LINE
  8
SIZE
  6
CONTINUOUS
 62
    30
 10
-126.3
 20
-135.19999999999999
 30
0.0
 11
-126.3
 21
-298.46765299999998
 31
0.0
  0
LINE
  8
SIZE
  6
CONTINUOUS
 62
    30
 10
126.3
 20
-135.19999999999999
 30
0.0
 11
126.3
 21
-298.46765299999998
 31
0.0
  0
LINE
  8
SIZE
  6
CONTINUOUS
 62
    30
 10
-114.3
 20
-278.46765299999998
 30
0.0
 11
114.3
 21
-278.46765299999998
 31
0.0
  0
CIRCLE
  8
SIZE
  6
CONTINUOUS
 62
    30
 10
-126.3
 20
-278.46765299999998
 30
0.0
 40
6.0
  0
LINE
  8
SIZE
  6
CONTINUOUS
 62
    30
 10
-126.3
 20
-278.46765299999998
 30
0.0
 11
-114.3
 21
-278.46765299999998
 31
0.0
  0
CIRCLE
  8
SIZE
  6
CONTINUOUS
 62
    30
 10
126.3
 20
-278.46765299999998
 30
0.0
 40
6.0
  0
LINE
  8
SIZE
  6
CONTINUOUS
 62
    30
 10
126.3
 20
-278.46765299999998
 30
0.0
 11
114.3
 21
-278.46765299999998
 31
0.0
  0
TEXT
  8
SIZE
  6
CONTINUOUS
 62
    30
 10
-74.057142857142836
 20
-253.46765300000001
 30
0.0
 40
64.0
  1
253
 41
0.9
 72
     1
 11
0.0
 21
-253.46765300000001
 31
0.0
  0
POINT
  8
DEFPOINTS
  6
CONTINUOUS
 62
    30
 10
-126.3
 20
-115.2
 30
0.0
  0
POINT
  8
DEFPOINTS
  6
CONTINUOUS
 62
    30
 10
126.3
 20
-115.2
 30
0.0
  0
POINT
  8
DEFPOINTS
  6
CONTINUOUS
 62
    30
 10
126.3
 20
-278.46765299999998
 30
0.0
  0
LINE
  8
NOTE
  6
CONTINUOUS
 62
     4
 39
50.0
 10
80.0
 20
-8.2077049999999758
 30
0.0
 11
80.0
 21
8.2077049999999758
 31
0.0
  0
CIRCLE
  8
FIX
  6
CONTINUOUS
 62
    11
 39
50.0
 10
80.0
 20
0.0
 30
0.0
 40
2.5
  0
LINE
  8
NOTE
  6
CONTINUOUS
 62
     4
 39
50.0
 10
-80.0
 20
-8.2077049999999758
 30
0.0
 11
-80.0
 21
8.2077049999999758
 31
0.0
  0
CIRCLE
  8
FIX
  6
CONTINUOUS
 62
    11
 39
50.0
 10
-80.0
 20
0.0
 30
0.0
 40
2.5
  0
LINE
  8
SIZE
  6
CONTINUOUS
 62
    30
 10
-80.0
 20
29.504656000000011
 30
0.0
 11
-80.0
 21
151.81460899999999
 31
0.0
  0
LINE
  8
SIZE
  6
CONTINUOUS
 62
    30
 10
80.0
 20
29.504656000000011
 30
0.0
 11
80.0
 21
151.81460899999999
 31
0.0
  0
LINE
  8
SIZE
  6
CONTINUOUS
 62
    30
 10
-92.0
 20
131.81460899999999
 30
0.0
 11
-104.0
 21
131.81460899999999
 31
0.0
  0
LINE
  8
SIZE
  6
CONTINUOUS
 62
    30
 10
92.0
 20
131.81460899999999
 30
0.0
 11
104.0
 21
131.81460899999999
 31
0.0
  0
LINE
  8
SIZE
  6
CONTINUOUS
 62
    30
 10
-80.0
 20
131.81460899999999
 30
0.0
 11
80.0
 21
131.81460899999999
 31
0.0
  0
CIRCLE
  8
SIZE
  6
CONTINUOUS
 62
    30
 10
-80.0
 20
131.81460899999999
 30
0.0
 40
6.0
  0
LINE
  8
SIZE
  6
CONTINUOUS
 62
    30
 10
-80.0
 20
131.81460899999999
 30
0.0
 11
-92.0
 21
131.81460899999999
 31
0.0
  0
CIRCLE
  8
SIZE
  6
CONTINUOUS
 62
    30
 10
80.0
 20
131.81460899999999
 30
0.0
 40
6.0
  0
LINE
  8
SIZE
  6
CONTINUOUS
 62
    30
 10
80.0
 20
131.81460899999999
 30
0.0
 11
92.0
 21
131.81460899999999
 31
0.0
  0
TEXT
  8
SIZE
  6
CONTINUOUS
 62
    30
 10
-68.571428571428555
 20
156.81460899999999
 30
0.0
 40
64.0
  1
160
 41
0.9
 72
     1
 11
0.0
 21
156.81460899999999
 31
0.0
  0
POINT
  8
DEFPOINTS
  6
CONTINUOUS
 62
    30
 10
-80.0
 20
9.5046560000000113
 30
0.0
  0
POINT
  8
DEFPOINTS
  6
CONTINUOUS
 62
    30
 10
80.0
 20
9.5046560000000113
 30
0.0
  0
POINT
  8
DEFPOINTS
  6
CONTINUOUS
 62
    30
 10
80.0
 20
131.81460899999999
 30
0.0
  0
POINT
  8
DEFPOINTS
  6
CONTINUOUS
 62
    30
 10
123.09999999999989
 20
0.0
 30
0.0
  0
POINT
  8
DEFPOINTS
  6
CONTINUOUS
 62
    30
 10
123.09999999999989
 20
-116.0
 30
0.0
  0
LINE
  8
NOTE
  6
CONTINUOUS
 62
     4
 39
50.0
 10
-80.0
 20
0.0
 30
0.0
 11
-225.74510599999999
 21
171.254311
 31
0.0
  0
LINE
  8
NOTE
  6
CONTINUOUS
 62
     4
 39
50.0
 10
-225.74510599999999
 20
171.254311
 30
0.0
 11
-664.97659522039339
 21
171.254311
 31
0.0
  0
TEXT
  8
NOTE
  6
CONTINUOUS
 62
     4
 10
-488.36182400000013
 20
189.055431
 30
0.0
 40
64.0
  1
2-φ6
 41
0.9
  0
LINE
  8
NOTE
  6
CONTINUOUS
 62
     4
 39
50.0
 10
-80.0
 20
0.0
 30
0.0
 11
-114.7955919999999
 21
18.00368200000003
 31
0.0
  0
LINE
  8
NOTE
  6
CONTINUOUS
 62
     4
 39
50.0
 10
-80.0
 20
0.0
 30
0.0
 11
-92.207985000000008
 21
37.226749999999981
 31
0.0
  0
LINE
  8
NOTE
  6
CONTINUOUS
 62
     4
 39
50.0
 10
-86.866285999999945
 20
-29.52346
 30
0.0
 11
-224.300522
 21
-188.26147599999999
 31
0.0
  0
LINE
  8
NOTE
  6
CONTINUOUS
 62
     4
 39
50.0
 10
-224.300522
 20
-188.26147599999999
 30
0.0
 11
-702.60565399999996
 21
-188.26147599999999
 31
0.0
  0
TEXT
  8
NOTE
  6
CONTINUOUS
 62
     4
 10
-679.56454299999996
 20
-170.46035699999999
 30
0.0
 40
64.0
  1
コードブッシュ
 41
0.9
  0
LINE
  8
NOTE
  6
CONTINUOUS
 62
     4
 39
50.0
 10
-86.866285999999945
 20
-29.52346
 30
0.0
 11
-106.76685499999989
 21
-39.647024999999992
 31
0.0
  0
LINE
  8
NOTE
  6
CONTINUOUS
 62
     4
 39
50.0
 10
-86.866285999999945
 20
-29.52346
 30
0.0
 11
-94.037456999999904
 21
-50.668045999999997
 31
0.0
  0
LINE
  8
SIZE
  6
CONTINUOUS
 62
    30
 10
143.09999999999999
 20
0.0000000000000032
 30
0.0
 11
329.10521843777963
 21
0.0000000000000331
 31
0.0
  0
LINE
  8
SIZE
  6
CONTINUOUS
 62
    30
 10
145.50000000000011
 20
-116.0000000000001
 30
0.0
 11
329.10521843777963
 21
-116.0
 31
0.0
  0
LINE
  8
SIZE
  6
CONTINUOUS
 62
    30
 10
309.10521843777963
 20
-11.99999999999997
 30
0.0
 11
309.10521843777963
 21
-104.0
 31
0.0
  0
LINE
  8
SIZE
  6
CONTINUOUS
 62
    30
 10
309.10521843777963
 20
-116.0
 30
0.0
 11
309.10521843777963
 21
-301.42857142857179
 31
0.0
  0
CIRCLE
  8
SIZE
  6
CONTINUOUS
 62
    30
 10
309.10521843777963
 20
0.0000000000000299
 30
0.0
 40
6.0
  0
LINE
  8
SIZE
  6
CONTINUOUS
 62
    30
 10
309.10521843777963
 20
0.0000000000000299
 30
0.0
 11
309.10521843777963
 21
-11.99999999999997
 31
0.0
  0
CIRCLE
  8
SIZE
  6
CONTINUOUS
 62
    30
 10
309.10521843777963
 20
-116.0
 30
0.0
 40
6.0
  0
LINE
  8
SIZE
  6
CONTINUOUS
 62
    30
 10
309.10521843777963
 20
-116.0
 30
0.0
 11
309.10521843777963
 21
-104.0
 31
0.0
  0
TEXT
  8
SIZE
  6
CONTINUOUS
 62
    30
 10
284.10521843777951
 20
-283.54628571428611
 30
0.0
 40
64.0
  1
116
 50
90.0
 41
0.9
 51
0.0
  7
STANDARD
 71
     0
 72
     1
 11
284.10521843777951
 21
-214.71428571428609
 31
0.0
210
0.0
220
0.0
230
1.0
  0
POINT
  8
DEFPOINTS
  6
CONTINUOUS
 62
    30
 10
123.09999999999999
 20
0.0
 30
0.0
  0
POINT
  8
DEFPOINTS
  6
CONTINUOUS
 62
    30
 10
125.5000000000001
 20
-116.0000000000001
 30
0.0
  0
POINT
  8
DEFPOINTS
  6
CONTINUOUS
 62
    30
 10
309.10521843777963
 20
-116.0
 30
0.0
  0
TEXT
  8
NOTE
  6
CONTINUOUS
 62
     4
 10
-651.61288383668125
 20
95.440636921551459
 30
0.0
 40
64.0
  1
本体取付用穴
 41
0.9
  0
ENDSEC
  0
EOF
