  0
SECTION
  2
HEADER
  9
$ACADVER
  1
AC1009
  9
$DWGCODEPAGE
  3
dos932
  9
$INSBASE
 10
0.0
 20
0.0
 30
0.0
  9
$EXTMIN
 10
-203.48051273436431
 20
-233.91722437683171
 30
-0.0000000349181948
  9
$EXTMAX
 10
1224.5086787903069
 20
712.32605796810822
 30
0.0000000814935746
  9
$LIMMIN
 10
-2970.0
 20
-2100.0
  9
$LIMMAX
 10
2970.0
 20
2100.0
  9
$ORTHOMODE
 70
     1
  9
$REGENMODE
 70
     1
  9
$FILLMODE
 70
     1
  9
$QTEXTMODE
 70
     0
  9
$MIRRTEXT
 70
     0
  9
$LTSCALE
 40
20.0
  9
$ATTMODE
 70
     1
  9
$TEXTSIZE
 40
64.0
  9
$TRACEWID
 40
0.05
  9
$TEXTSTYLE
  7
STANDARD
  9
$CLAYER
  8
SIZE
  9
$CELTYPE
  6
CONTINUOUS
  9
$CECOLOR
 62
     7
  9
$DIMSCALE
 40
1.0
  9
$DIMASZ
 40
12.0
  9
$DIMEXO
 40
20.0
  9
$DIMDLI
 40
200.0
  9
$DIMRND
 40
0.0
  9
$DIMDLE
 40
0.0
  9
$DIMEXE
 40
20.0
  9
$DIMTP
 40
0.0
  9
$DIMTM
 40
0.0
  9
$DIMTXT
 40
64.0
  9
$DIMCEN
 40
0.09
  9
$DIMTSZ
 40
0.0
  9
$DIMTOL
 70
     0
  9
$DIMLIM
 70
     0
  9
$DIMTIH
 70
     0
  9
$DIMTOH
 70
     0
  9
$DIMSE1
 70
     0
  9
$DIMSE2
 70
     0
  9
$DIMTAD
 70
     1
  9
$DIMZIN
 70
     8
  9
$DIMBLK
  1

  9
$DIMASO
 70
     1
  9
$DIMSHO
 70
     0
  9
$DIMPOST
  1

  9
$DIMAPOST
  1

  9
$DIMALT
 70
     0
  9
$DIMALTD
 70
     2
  9
$DIMALTF
 40
25.399999999999999
  9
$DIMLFAC
 40
1.0
  9
$DIMTOFL
 70
     1
  9
$DIMTVP
 40
0.0
  9
$DIMTIX
 70
     1
  9
$DIMSOXD
 70
     0
  9
$DIMSAH
 70
     0
  9
$DIMBLK1
  1

  9
$DIMBLK2
  1

  9
$DIMSTYLE
  2
STANDARD
  9
$DIMCLRD
 70
     7
  9
$DIMCLRE
 70
     7
  9
$DIMCLRT
 70
     7
  9
$DIMTFAC
 40
1.0
  9
$DIMGAP
 40
25.0
  9
$LUNITS
 70
     2
  9
$LUPREC
 70
     4
  9
$SKETCHINC
 40
0.1
  9
$FILLETRAD
 40
3.0
  9
$AUNITS
 70
     1
  9
$AUPREC
 70
     3
  9
$MENU
  1
ACAD
  9
$ELEVATION
 40
0.0
  9
$PELEVATION
 40
0.0
  9
$THICKNESS
 40
0.0
  9
$LIMCHECK
 70
     0
  9
$CHAMFERA
 40
0.0
  9
$CHAMFERB
 40
0.0
  9
$SKPOLY
 70
     0
  9
$TDCREATE
 40
2453019.62301037
  9
$TDUPDATE
 40
2459389.499033137
  9
$TDINDWG
 40
1.7216247801
  9
$TDUSRTIMER
 40
1.7216247801
  9
$USRTIMER
 70
     1
  9
$ANGBASE
 50
0.0
  9
$ANGDIR
 70
     0
  9
$PDMODE
 70
     3
  9
$PDSIZE
 40
-2.0
  9
$PLINEWID
 40
0.0
  9
$SPLFRAME
 70
     0
  9
$SPLINETYPE
 70
     6
  9
$SPLINESEGS
 70
     8
  9
$SURFTAB1
 70
     6
  9
$SURFTAB2
 70
     6
  9
$SURFTYPE
 70
     6
  9
$SURFU
 70
     6
  9
$SURFV
 70
     6
  9
$UCSNAME
  2

  9
$UCSORG
 10
0.0
 20
0.0
 30
0.0
  9
$UCSXDIR
 10
1.0
 20
0.0
 30
0.0
  9
$UCSYDIR
 10
0.0
 20
1.0
 30
0.0
  9
$PUCSNAME
  2

  9
$PUCSORG
 10
0.0
 20
0.0
 30
0.0
  9
$PUCSXDIR
 10
1.0
 20
0.0
 30
0.0
  9
$PUCSYDIR
 10
0.0
 20
1.0
 30
0.0
  9
$USERI1
 70
     0
  9
$USERI2
 70
     0
  9
$USERI3
 70
     0
  9
$USERI4
 70
     0
  9
$USERI5
 70
     0
  9
$USERR1
 40
20.0
  9
$USERR2
 40
0.0
  9
$USERR3
 40
0.0
  9
$USERR4
 40
0.0
  9
$USERR5
 40
0.0
  9
$WORLDVIEW
 70
     1
  9
$SHADEDGE
 70
     3
  9
$SHADEDIF
 70
    70
  9
$TILEMODE
 70
     1
  9
$MAXACTVP
 70
    48
  9
$PINSBASE
 10
0.0
 20
0.0
 30
0.0
  9
$PLIMCHECK
 70
     0
  9
$PEXTMIN
 10
-100000000000000000000.0
 20
-100000000000000000000.0
 30
-100000000000000000000.0
  9
$PEXTMAX
 10
100000000000000000000.0
 20
100000000000000000000.0
 30
100000000000000000000.0
  9
$PLIMMIN
 10
0.0
 20
0.0
  9
$PLIMMAX
 10
12.0
 20
9.0
  9
$UNITMODE
 70
     0
  9
$VISRETAIN
 70
     0
  9
$PLINEGEN
 70
     0
  9
$PSLTSCALE
 70
     0
  9
$TREEDEPTH
 70
  3020
  9
$ATTDIA
 70
     0
  9
$ATTREQ
 70
     1
  9
$BLIPMODE
 70
     1
  9
$COORDS
 70
     1
  9
$DRAGMODE
 70
     2
  9
$OSMODE
 70
     0
  9
$HANDLING
 70
     0
  9
$HANDSEED
  5
F301
  0
ENDSEC
  0
SECTION
  2
TABLES
  0
TABLE
  2
LTYPE
 70
     2
  0
LTYPE
  2
CONTINUOUS
 70
     0
  3
実線
 72
    65
 73
     0
 40
0.0
  0
LTYPE
  2
DASHDOT
 70
     0
  3
____ _ ____ _ ____ _ ____ _ ____ _ ____ _ ____
 72
    65
 73
     4
 40
5.5
 49
4.0
 49
-0.6
 49
0.3
 49
-0.6
  0
ENDTAB
  0
TABLE
  2
LAYER
 70
    12
  0
LAYER
  2
0
 70
     0
 62
     7
  6
CONTINUOUS
  0
LAYER
  2
BASIS
 70
     0
 62
     6
  6
DASHDOT
  0
LAYER
  2
OUTLINE
 70
     0
 62
     3
  6
CONTINUOUS
  0
LAYER
  2
DETAIL
 70
     0
 62
     5
  6
CONTINUOUS
  0
LAYER
  2
SIZE
 70
     0
 62
    30
  6
CONTINUOUS
  0
LAYER
  2
ARRANGE
 70
     0
 62
     1
  6
CONTINUOUS
  0
LAYER
  2
DEFPOINTS
 70
     0
 62
     7
  6
CONTINUOUS
  0
LAYER
  2
ETC
 70
     0
 62
    61
  6
CONTINUOUS
  0
LAYER
  2
FIX
 70
     0
 62
    11
  6
CONTINUOUS
  0
LAYER
  2
NOTE
 70
     0
 62
     4
  6
CONTINUOUS
  0
LAYER
  2
SERVICESPACE
 70
    64
 62
     2
  6
DASHDOT
  0
LAYER
  2
SYMBOLLINE
 70
    64
 62
    15
  6
CONTINUOUS
  0
ENDTAB
  0
TABLE
  2
STYLE
 70
     1
  0
STYLE
  2
STANDARD
 70
     0
 40
64.0
 41
0.9
 50
0.0
 71
     0
 42
64.0
  3
SIMPLEX.shx
  4
BIGFONT.shx
  0
ENDTAB
  0
TABLE
  2
APPID
 70
    19
  0
APPID
  2
ACAD
 70
     0
  0
APPID
  2
AUTOCAD_POSTSCRIPT_FIGURE
 70
     0
  0
APPID
  2
ACAD_EXEMPT_FROM_CAD_STANDARDS
 70
     0
  0
APPID
  2
ACAD_PSEXT
 70
     0
  0
APPID
  2
ACAUTHENVIRON
 70
     0
  0
APPID
  2
GENIUS_GENOENT_13
 70
     0
  0
APPID
  2
GENIUS_GENCFG_13
 70
     0
  0
APPID
  2
GENIUS_GENCFG0_13
 70
     0
  0
APPID
  2
GENIUS_GENCFG1_13
 70
     0
  0
APPID
  2
GENIUS_GENCFG2_13
 70
     0
  0
APPID
  2
GENIUS_GENCFG3_13
 70
     0
  0
APPID
  2
GENIUS_GENCFG4_13
 70
     0
  0
APPID
  2
GENIUS_GEVCFG0_13
 70
     0
  0
APPID
  2
CONTENTBLOCKICON
 70
     0
  0
APPID
  2
CONTENTBLOCKDESCRIPTION
 70
     0
  0
APPID
  2
ACAD_NAV_VCDISPLAY
 70
     0
  0
APPID
  2
ACAD_MLEADERVER
 70
     0
  0
APPID
  2
ACDBDYNAMICBLOCKTRUENAME
 70
     0
  0
APPID
  2
ACDBDYNAMICBLOCKGUID
 70
     0
  0
ENDTAB
  0
TABLE
  2
DIMSTYLE
 70
     1
  0
DIMSTYLE
  2
STANDARD
 70
     0
  3

  4

  5
_ORIGIN
  6

  7

 40
1.0
 41
12.0
 42
20.0
 43
200.0
 44
20.0
 45
0.0
 46
0.0
 47
0.0
 48
0.0
140
64.0
141
0.09
142
0.0
143
25.399999999999999
144
1.0
145
0.0
146
1.0
147
25.0
 71
     0
 72
     0
 73
     0
 74
     0
 75
     0
 76
     0
 77
     1
 78
     8
170
     0
171
     2
172
     1
173
     0
174
     1
175
     0
176
     7
177
     7
178
     7
  0
ENDTAB
  0
TABLE
  2
VIEW
 70
     1
  0
VIEW
  2
ALL
 70
     0
 40
4282.6198079999986
 10
0.0
 20
41.309904000000003
 41
5940.0
 11
0.0
 21
0.0
 31
1.0
 12
0.0
 22
0.0
 32
0.0
 42
50.0
 43
0.0
 44
0.0
 50
0.0
 71
     0
  0
ENDTAB
  0
TABLE
  2
UCS
 70
     0
  0
ENDTAB
  0
TABLE
  2
VPORT
 70
     1
  0
VPORT
  2
*ACTIVE
 70
     0
 10
0.0
 20
0.0
 11
1.0
 21
1.0
 12
510.51408302797159
 22
239.20441679563831
 13
0.0
 23
0.0
 14
1.0
 24
1.0
 15
0.0
 25
0.0
 16
0.0
 26
0.0
 36
1.0
 17
0.0
 27
0.0
 37
0.0
 40
825.93001863463144
 41
1.9148387096774191
 42
50.0
 43
0.0
 44
0.0
 50
0.0
 51
0.0
 71
     0
 72
  1000
 73
     1
 74
     3
 75
     0
 76
     0
 77
     0
 78
     0
  0
ENDTAB
  0
ENDSEC
  0
SECTION
  2
BLOCKS
  0
BLOCK
  8
0
  2
_ORIGIN
 70
     0
 10
0.0
 20
0.0
 30
0.0
  3
_ORIGIN
  1
_ORIGIN
  0
CIRCLE
  8
SIZE
  6
CONTINUOUS
 62
    30
 10
0.0
 20
0.0
 30
0.0
 40
0.5
  0
LINE
  8
SIZE
  6
CONTINUOUS
 62
    30
 10
0.0
 20
0.0
 30
0.0
 11
-1.0
 21
0.0
 31
0.0
  0
ENDBLK
  8
0
  0
ENDSEC
  0
SECTION
  2
ENTITIES
  0
TEXT
  8
ETC
  6
CONTINUOUS
 62
    61
 10
-92.75185349739013
 20
635.83502536766389
 30
0.0
 40
64.0
  1
PS-25SMXA3-HC(駆動ユニット)_4
 41
0.9
  0
TEXT
  8
ETC
  6
CONTINUOUS
 62
    61
 10
-96.937847497390521
 20
517.8797153528327
 30
0.0
 40
64.0
  1
システム部材
 41
0.9
  0
TEXT
  8
ETC
  6
CONTINUOUS
 62
    61
 10
-46.23644924883456
 20
409.73094246660742
 30
0.0
 40
40.0
  1
PS-25SMXA3-HC
 50
0.0
 41
0.9
 51
0.0
  7
STANDARD
 71
     0
 11
0.0
 21
0.0
 31
0.0
210
0.0
220
0.0
230
1.0
  0
TEXT
  8
ETC
  6
CONTINUOUS
 62
    61
 10
-46.23644924883456
 20
343.73094246660742
 30
0.0
 40
40.0
  1
(駆動ユニット)
 50
0.0
 41
0.9
 51
0.0
  7
STANDARD
 71
     0
 11
0.0
 21
0.0
 31
0.0
210
0.0
220
0.0
230
1.0
  0
LINE
  8
DETAIL
  6
CONTINUOUS
 62
     5
 10
0.0
 20
-107.4999999999999
 30
0.0
 11
-0.5999999999999091
 21
-107.4999999999999
 31
0.0
  0
LINE
  8
DETAIL
  6
CONTINUOUS
 62
     5
 10
-8.8003324976998556
 20
-90.399999999999977
 30
0.0
 11
-32.799667502300053
 21
-90.399999999999977
 31
0.0
  0
LINE
  8
DETAIL
  6
CONTINUOUS
 62
     5
 10
-48.0
 20
-88.799999999999955
 30
0.0
 11
-54.299999999999727
 21
-88.799999999999955
 31
0.0
  0
LINE
  8
DETAIL
  6
CONTINUOUS
 62
     5
 10
-54.299999999999727
 20
-88.199999999999989
 30
0.0
 11
-48.0
 21
-88.199999999999989
 31
0.0
  0
LINE
  8
DETAIL
  6
CONTINUOUS
 62
     5
 10
-55.0
 20
-88.099999999999966
 30
0.0
 11
-50.0
 21
-88.099999999999966
 31
0.0
  0
LINE
  8
DETAIL
  6
CONTINUOUS
 62
     5
 10
-48.799999999999727
 20
-86.899999999999977
 30
0.0
 11
-1.0
 21
-86.899999999999977
 31
0.0
  0
LINE
  8
DETAIL
  6
CONTINUOUS
 62
     5
 10
-1.0
 20
-86.299999999999955
 30
0.0
 11
-4.0
 21
-86.299999999999955
 31
0.0
  0
LINE
  8
DETAIL
  6
CONTINUOUS
 62
     5
 10
-48.0
 20
-85.749999999999943
 30
0.0
 11
-2.7999999999997272
 21
-85.749999999999943
 31
0.0
  0
LINE
  8
DETAIL
  6
CONTINUOUS
 62
     5
 10
-55.5
 20
-84.099999999999966
 30
0.0
 11
-55.0
 21
-84.099999999999966
 31
0.0
  0
LINE
  8
DETAIL
  6
CONTINUOUS
 62
     5
 10
-43.5
 20
-81.149999999999977
 30
0.0
 11
-42.900000000000091
 21
-81.149999999999977
 31
0.0
  0
LINE
  8
DETAIL
  6
CONTINUOUS
 62
     5
 10
-42.900000000000091
 20
-78.049999999999955
 30
0.0
 11
-43.5
 21
-78.049999999999955
 31
0.0
  0
LINE
  8
DETAIL
  6
CONTINUOUS
 62
     5
 10
-55.5
 20
-74.699999999999989
 30
0.0
 11
-55.0
 21
-74.699999999999989
 31
0.0
  0
LINE
  8
DETAIL
  6
CONTINUOUS
 62
     5
 10
-55.0
 20
-67.999999999999943
 30
0.0
 11
-55.049999999999727
 21
-67.999999999999943
 31
0.0
  0
LINE
  8
DETAIL
  6
CONTINUOUS
 62
     5
 10
-55.5
 20
-84.099999999999966
 30
0.0
 11
-55.5
 21
-74.699999999999989
 31
0.0
  0
LINE
  8
DETAIL
  6
CONTINUOUS
 62
     5
 10
-55.5
 20
74.699999999999989
 30
0.0
 11
-55.5
 21
84.099999999999966
 31
0.0
  0
LINE
  8
DETAIL
  6
CONTINUOUS
 62
     5
 10
-55.049999999999727
 20
-67.999999999999943
 30
0.0
 11
-55.049999999999727
 21
68.0
 31
0.0
  0
LINE
  8
DETAIL
  6
CONTINUOUS
 62
     5
 10
-55.0
 20
-88.099999999999966
 30
0.0
 11
-55.0
 21
87.5
 31
0.0
  0
LINE
  8
DETAIL
  6
CONTINUOUS
 62
     5
 10
-48.0
 20
-88.199999999999989
 30
0.0
 11
-48.0
 21
-88.799999999999955
 31
0.0
  0
LINE
  8
DETAIL
  6
CONTINUOUS
 62
     5
 10
-48.0
 20
-86.099999999999966
 30
0.0
 11
-48.0
 21
85.5
 31
0.0
  0
LINE
  8
DETAIL
  6
CONTINUOUS
 62
     5
 10
-48.0
 20
87.599999999999966
 30
0.0
 11
-48.0
 21
88.199999999999989
 31
0.0
  0
LINE
  8
DETAIL
  6
CONTINUOUS
 62
     5
 10
-35.799999999999727
 20
-86.899999999999977
 30
0.0
 11
-35.799999999999727
 21
-87.399999999999977
 31
0.0
  0
LINE
  8
DETAIL
  6
CONTINUOUS
 62
     5
 10
-5.7999999999997272
 20
-86.899999999999977
 30
0.0
 11
-5.7999999999997272
 21
-87.399999999999977
 31
0.0
  0
LINE
  8
DETAIL
  6
CONTINUOUS
 62
     5
 10
-4.0
 20
-86.899999999999977
 30
0.0
 11
-4.0
 21
-85.749999999999943
 31
0.0
  0
LINE
  8
DETAIL
  6
CONTINUOUS
 62
     5
 10
-4.0
 20
85.75
 30
0.0
 11
-4.0
 21
86.899999999999977
 31
0.0
  0
LINE
  8
DETAIL
  6
CONTINUOUS
 62
     5
 10
-2.7999999999997272
 20
85.75
 30
0.0
 11
-2.7999999999997272
 21
-85.749999999999943
 31
0.0
  0
LINE
  8
DETAIL
  6
CONTINUOUS
 62
     5
 10
-0.5999999999999091
 20
-107.4999999999999
 30
0.0
 11
-0.5999999999999091
 21
-87.299999999999955
 31
0.0
  0
LINE
  8
DETAIL
  6
CONTINUOUS
 62
     5
 10
-0.5999999999999091
 20
87.300000000000011
 30
0.0
 11
-0.5999999999999091
 21
107.59999999999999
 31
0.0
  0
LINE
  8
DETAIL
  6
CONTINUOUS
 62
     5
 10
0.0
 20
-87.299999999999955
 30
0.0
 11
0.0
 21
-107.4999999999999
 31
0.0
  0
LINE
  8
DETAIL
  6
CONTINUOUS
 62
     5
 10
0.0
 20
87.300000000000011
 30
0.0
 11
0.0
 21
107.59999999999999
 31
0.0
  0
LINE
  8
DETAIL
  6
CONTINUOUS
 62
     5
 10
-50.0
 20
-88.099999999999966
 30
0.0
 11
-48.0
 21
-86.099999999999966
 31
0.0
  0
LINE
  8
DETAIL
  6
CONTINUOUS
 62
     5
 10
-48.0
 20
85.5
 30
0.0
 11
-50.0
 21
87.5
 31
0.0
  0
LINE
  8
DETAIL
  6
CONTINUOUS
 62
     5
 10
-55.0
 20
68.0
 30
0.0
 11
-55.049999999999727
 21
68.0
 31
0.0
  0
LINE
  8
DETAIL
  6
CONTINUOUS
 62
     5
 10
-55.5
 20
74.699999999999989
 30
0.0
 11
-55.0
 21
74.699999999999989
 31
0.0
  0
LINE
  8
DETAIL
  6
CONTINUOUS
 62
     5
 10
-42.900000000000091
 20
78.050000000000011
 30
0.0
 11
-43.5
 21
78.050000000000011
 31
0.0
  0
LINE
  8
DETAIL
  6
CONTINUOUS
 62
     5
 10
-43.5
 20
81.149999999999977
 30
0.0
 11
-42.900000000000091
 21
81.149999999999977
 31
0.0
  0
LINE
  8
DETAIL
  6
CONTINUOUS
 62
     5
 10
-55.5
 20
84.099999999999966
 30
0.0
 11
-55.0
 21
84.099999999999966
 31
0.0
  0
LINE
  8
DETAIL
  6
CONTINUOUS
 62
     5
 10
-48.25
 20
85.75
 30
0.0
 11
-2.7999999999997272
 21
85.75
 31
0.0
  0
LINE
  8
DETAIL
  6
CONTINUOUS
 62
     5
 10
-1.0
 20
86.300000000000011
 30
0.0
 11
-4.0
 21
86.300000000000011
 31
0.0
  0
LINE
  8
DETAIL
  6
CONTINUOUS
 62
     5
 10
-49.400000000000091
 20
86.899999999999977
 30
0.0
 11
-1.0
 21
86.899999999999977
 31
0.0
  0
LINE
  8
DETAIL
  6
CONTINUOUS
 62
     5
 10
-55.0
 20
87.5
 30
0.0
 11
-50.0
 21
87.5
 31
0.0
  0
LINE
  8
DETAIL
  6
CONTINUOUS
 62
     5
 10
-48.0
 20
87.599999999999966
 30
0.0
 11
-54.299999999999727
 21
87.599999999999966
 31
0.0
  0
LINE
  8
DETAIL
  6
CONTINUOUS
 62
     5
 10
-54.299999999999727
 20
88.199999999999989
 30
0.0
 11
-48.0
 21
88.199999999999989
 31
0.0
  0
LINE
  8
DETAIL
  6
CONTINUOUS
 62
     5
 10
-0.5999999999999091
 20
107.59999999999999
 30
0.0
 11
0.0
 21
107.59999999999999
 31
0.0
  0
ARC
  8
DETAIL
  6
CONTINUOUS
 62
     5
 10
-50.977499999999957
 20
-79.399999999999977
 30
0.0
 40
6.5225
 50
133.8973981670942
 51
226.1026018329058
  0
ARC
  8
DETAIL
  6
CONTINUOUS
 62
     5
 10
-50.977499999999957
 20
79.399999999999977
 30
0.0
 40
6.5225
 50
133.8973981670942
 51
226.1026018329058
  0
ARC
  8
DETAIL
  6
CONTINUOUS
 62
     5
 10
-8.7999999999997272
 20
-87.399999999999977
 30
0.0
 40
3.0
 50
270.0
 51
0.0
  0
ARC
  8
DETAIL
  6
CONTINUOUS
 62
     5
 10
-32.799999999999727
 20
-87.399999999999977
 30
0.0
 40
3.0
 50
180.0
 51
270.0
  0
ARC
  8
DETAIL
  6
CONTINUOUS
 62
     5
 10
-42.900000000000091
 20
79.599999999999966
 30
0.0
 40
1.55
 50
270.0
 51
90.0
  0
ARC
  8
DETAIL
  6
CONTINUOUS
 62
     5
 10
-43.5
 20
79.599999999999966
 30
0.0
 40
1.55
 50
90.0
 51
270.0
  0
CIRCLE
  8
DETAIL
  6
CONTINUOUS
 62
     5
 10
-18.199999999999822
 20
79.599999999999966
 30
0.0
 40
1.55
  0
ARC
  8
DETAIL
  6
CONTINUOUS
 62
     5
 10
-43.5
 20
-79.599999999999966
 30
0.0
 40
1.55
 50
90.0
 51
270.0
  0
ARC
  8
DETAIL
  6
CONTINUOUS
 62
     5
 10
-42.900000000000091
 20
-79.599999999999966
 30
0.0
 40
1.55
 50
270.0
 51
90.0
  0
CIRCLE
  8
DETAIL
  6
CONTINUOUS
 62
     5
 10
-18.199999999999822
 20
-79.599999999999966
 30
0.0
 40
1.55
  0
ARC
  8
DETAIL
  6
CONTINUOUS
 62
     5
 10
-1.0
 20
-87.299999999999955
 30
0.0
 40
1.0
 50
0.0
 51
90.0
  0
ARC
  8
DETAIL
  6
CONTINUOUS
 62
     5
 10
-1.0
 20
87.300000000000011
 30
0.0
 40
1.0
 50
270.0
 51
0.0
  0
ARC
  8
DETAIL
  6
CONTINUOUS
 62
     5
 10
-54.299999999999727
 20
-88.099999999999966
 30
0.0
 40
0.7
 50
180.0
 51
270.0
  0
ARC
  8
DETAIL
  6
CONTINUOUS
 62
     5
 10
-54.299999999999727
 20
87.5
 30
0.0
 40
0.7
 50
90.0
 51
180.0
  0
ARC
  8
DETAIL
  6
CONTINUOUS
 62
     5
 10
-1.0
 20
-87.299999999999955
 30
0.0
 40
0.4
 50
0.0
 51
90.0
  0
ARC
  8
DETAIL
  6
CONTINUOUS
 62
     5
 10
-1.0
 20
87.300000000000011
 30
0.0
 40
0.4
 50
270.0
 51
0.0
  0
ARC
  8
DETAIL
  6
CONTINUOUS
 62
     5
 10
-54.299999999999727
 20
-88.099999999999966
 30
0.0
 40
0.1
 50
180.0
 51
270.0
  0
ARC
  8
DETAIL
  6
CONTINUOUS
 62
     5
 10
-54.299999999999727
 20
87.5
 30
0.0
 40
0.1
 50
90.0
 51
180.0
  0
LINE
  8
SIZE
  6
CONTINUOUS
 62
    30
 10
-55.0
 20
107.5
 30
0.0
 11
-54.999999999999993
 21
194.700640916428
 31
0.0
  0
LINE
  8
SIZE
  6
CONTINUOUS
 62
    30
 10
0.0000000000000012
 20
132.55000000000001
 30
0.0
 11
0.000000000000005
 21
194.700640916428
 31
0.0
  0
LINE
  8
SIZE
  6
CONTINUOUS
 62
    30
 10
-67.0
 20
174.700640916428
 30
0.0
 11
-79.0
 21
174.700640916428
 31
0.0
  0
LINE
  8
SIZE
  6
CONTINUOUS
 62
    30
 10
12.0
 20
174.700640916428
 30
0.0
 11
24.0
 21
174.700640916428
 31
0.0
  0
LINE
  8
SIZE
  6
CONTINUOUS
 62
    30
 10
-54.999999999999993
 20
174.700640916428
 30
0.0
 11
0.0000000000000038
 21
174.700640916428
 31
0.0
  0
CIRCLE
  8
SIZE
  6
CONTINUOUS
 62
    30
 10
-54.999999999999993
 20
174.700640916428
 30
0.0
 40
6.0
  0
LINE
  8
SIZE
  6
CONTINUOUS
 62
    30
 10
-54.999999999999993
 20
174.700640916428
 30
0.0
 11
-67.0
 21
174.700640916428
 31
0.0
  0
CIRCLE
  8
SIZE
  6
CONTINUOUS
 62
    30
 10
0.0000000000000038
 20
174.700640916428
 30
0.0
 40
6.0
  0
LINE
  8
SIZE
  6
CONTINUOUS
 62
    30
 10
0.0000000000000038
 20
174.700640916428
 30
0.0
 11
12.000000000000004
 21
174.700640916428
 31
0.0
  0
TEXT
  8
SIZE
  6
CONTINUOUS
 62
    30
 10
-81.067999999999998
 20
199.70064091642803
 30
0.0
 40
64.0
  1
55
 50
0.0
 41
0.9
 51
0.0
  7
STANDARD
 71
     0
 72
     1
 11
-27.499999999999993
 21
199.70064091642803
 31
0.0
210
0.0
220
0.0
230
1.0
  0
POINT
  8
DEFPOINTS
  6
CONTINUOUS
 62
    30
 10
-55.0
 20
87.5
 30
0.0
  0
POINT
  8
DEFPOINTS
  6
CONTINUOUS
 62
    30
 10
0.0
 20
112.55
 30
0.0
  0
POINT
  8
DEFPOINTS
  6
CONTINUOUS
 62
    30
 10
0.0000000000000038
 20
174.700640916428
 30
0.0
  0
LINE
  8
SIZE
  6
CONTINUOUS
 62
    30
 10
-74.299999999999756
 20
-88.799999999999983
 30
0.0
 11
-134.38429578278729
 21
-88.799999999999997
 31
0.0
  0
LINE
  8
SIZE
  6
CONTINUOUS
 62
    30
 10
-74.299999999999756
 20
88.200000000000017
 30
0.0
 11
-134.3842957827874
 21
88.200000000000003
 31
0.0
  0
LINE
  8
SIZE
  6
CONTINUOUS
 62
    30
 10
-114.38429578278731
 20
-100.8
 30
0.0
 11
-114.38429578278731
 21
-112.8
 31
0.0
  0
LINE
  8
SIZE
  6
CONTINUOUS
 62
    30
 10
-114.3842957827874
 20
100.2
 30
0.0
 11
-114.3842957827874
 21
112.2
 31
0.0
  0
LINE
  8
SIZE
  6
CONTINUOUS
 62
    30
 10
-114.38429578278731
 20
-88.799999999999997
 30
0.0
 11
-114.38429578278731
 21
88.200000000000003
 31
0.0
  0
CIRCLE
  8
SIZE
  6
CONTINUOUS
 62
    30
 10
-114.38429578278731
 20
-88.799999999999997
 30
0.0
 40
6.0
  0
LINE
  8
SIZE
  6
CONTINUOUS
 62
    30
 10
-114.38429578278731
 20
-88.799999999999997
 30
0.0
 11
-114.38429578278731
 21
-100.8
 31
0.0
  0
CIRCLE
  8
SIZE
  6
CONTINUOUS
 62
    30
 10
-114.38429578278731
 20
88.200000000000003
 30
0.0
 40
6.0
  0
LINE
  8
SIZE
  6
CONTINUOUS
 62
    30
 10
-114.38429578278731
 20
88.200000000000003
 30
0.0
 11
-114.38429578278731
 21
100.2
 31
0.0
  0
TEXT
  8
SIZE
  6
CONTINUOUS
 62
    30
 10
-139.38429578278729
 20
-74.891999999999967
 30
0.0
 40
64.0
  1
177
 50
90.0
 41
0.9
 51
0.0
  7
STANDARD
 71
     0
 72
     1
 11
-139.38429578278729
 21
-0.2999999999999566
 31
0.0
210
0.0
220
0.0
230
1.0
  0
POINT
  8
DEFPOINTS
  6
CONTINUOUS
 62
    30
 10
-54.299999999999763
 20
-88.799999999999983
 30
0.0
  0
POINT
  8
DEFPOINTS
  6
CONTINUOUS
 62
    30
 10
-54.299999999999763
 20
88.200000000000017
 30
0.0
  0
POINT
  8
DEFPOINTS
  6
CONTINUOUS
 62
    30
 10
-114.38429578278731
 20
88.200000000000003
 30
0.0
  0
LINE
  8
BASIS
  6
DASHDOT
 62
     6
 10
34.118165709076493
 20
0.0
 30
0.0
 11
-83.529832253383574
 21
0.0
 31
0.0
  0
LINE
  8
SIZE
  6
CONTINUOUS
 62
    30
 10
20.0
 20
107.59999999999999
 30
0.0
 11
296.67532628801803
 21
107.60000000000009
 31
0.0
  0
LINE
  8
SIZE
  6
CONTINUOUS
 62
    30
 10
20.0
 20
-107.5
 30
0.0
 11
296.67532628801803
 21
-107.4999999999999
 31
0.0
  0
LINE
  8
SIZE
  6
CONTINUOUS
 62
    30
 10
276.67532628801803
 20
95.600000000000051
 30
0.0
 11
276.67532628801803
 21
-95.499999999999943
 31
0.0
  0
CIRCLE
  8
SIZE
  6
CONTINUOUS
 62
    30
 10
276.67532628801803
 20
107.60000000000009
 30
0.0
 40
6.0
  0
LINE
  8
SIZE
  6
CONTINUOUS
 62
    30
 10
276.67532628801803
 20
107.60000000000009
 30
0.0
 11
276.67532628801803
 21
95.600000000000094
 31
0.0
  0
CIRCLE
  8
SIZE
  6
CONTINUOUS
 62
    30
 10
276.67532628801803
 20
-107.5
 30
0.0
 40
6.0
  0
LINE
  8
SIZE
  6
CONTINUOUS
 62
    30
 10
276.67532628801803
 20
-107.5
 30
0.0
 11
276.67532628801803
 21
-95.5
 31
0.0
  0
TEXT
  8
SIZE
  6
CONTINUOUS
 62
    30
 10
251.675326288018
 20
-74.54200000000003
 30
0.0
 40
64.0
  1
215
 50
90.0
 41
0.9
 51
0.0
  7
STANDARD
 71
     0
 72
     1
 11
251.675326288018
 21
0.0499999999999852
 31
0.0
210
0.0
220
0.0
230
1.0
  0
POINT
  8
DEFPOINTS
  6
CONTINUOUS
 62
    30
 10
0.0
 20
107.59999999999999
 30
0.0
  0
POINT
  8
DEFPOINTS
  6
CONTINUOUS
 62
    30
 10
0.0
 20
-107.5
 30
0.0
  0
POINT
  8
DEFPOINTS
  6
CONTINUOUS
 62
    30
 10
276.67532628801803
 20
-107.5
 30
0.0
  0
LINE
  8
BASIS
  6
DASHDOT
 62
     6
 10
9.0673973064795064
 20
-98.399999999999977
 30
0.0
 11
-6.4843248108745684
 21
-98.399999999999977
 31
0.0
  0
LINE
  8
BASIS
  6
DASHDOT
 62
     6
 10
9.0673973064795064
 20
101.59999999999999
 30
0.0
 11
-6.4843248108745684
 21
101.59999999999999
 31
0.0
  0
LINE
  8
SIZE
  6
CONTINUOUS
 62
    30
 10
29.067397306479521
 20
101.59999999999999
 30
0.0
 11
179.85569726943541
 21
101.60000000000009
 31
0.0
  0
LINE
  8
SIZE
  6
CONTINUOUS
 62
    30
 10
29.06739730647951
 20
-98.400000000000034
 30
0.0
 11
179.85569726943541
 21
-98.400000000000006
 31
0.0
  0
LINE
  8
SIZE
  6
CONTINUOUS
 62
    30
 10
159.85569726943541
 20
89.600000000000023
 30
0.0
 11
159.85569726943541
 21
-86.400000000000006
 31
0.0
  0
CIRCLE
  8
SIZE
  6
CONTINUOUS
 62
    30
 10
159.85569726943541
 20
101.59999999999999
 30
0.0
 40
6.0
  0
LINE
  8
SIZE
  6
CONTINUOUS
 62
    30
 10
159.85569726943541
 20
101.59999999999999
 30
0.0
 11
159.85569726943541
 21
89.599999999999994
 31
0.0
  0
CIRCLE
  8
SIZE
  6
CONTINUOUS
 62
    30
 10
159.85569726943541
 20
-98.40000000000002
 30
0.0
 40
6.0
  0
LINE
  8
SIZE
  6
CONTINUOUS
 62
    30
 10
159.85569726943541
 20
-98.40000000000002
 30
0.0
 11
159.85569726943541
 21
-86.40000000000002
 31
0.0
  0
TEXT
  8
SIZE
  6
CONTINUOUS
 62
    30
 10
134.85569726943538
 20
-79.904000000000025
 30
0.0
 40
64.0
  1
200
 50
90.0
 41
0.9
 51
0.0
  7
STANDARD
 71
     0
 72
     1
 11
134.85569726943538
 21
1.599999999999975
 31
0.0
210
0.0
220
0.0
230
1.0
  0
POINT
  8
DEFPOINTS
  6
CONTINUOUS
 62
    30
 10
9.0673973064795099
 20
101.59999999999999
 30
0.0
  0
POINT
  8
DEFPOINTS
  6
CONTINUOUS
 62
    30
 10
9.0673973064795099
 20
-98.400000000000034
 30
0.0
  0
POINT
  8
DEFPOINTS
  6
CONTINUOUS
 62
    30
 10
159.85569726943541
 20
-98.40000000000002
 30
0.0
  0
CIRCLE
  8
FIX
  6
CONTINUOUS
 62
    11
 10
0.0
 20
-98.399999999999977
 30
0.0
 40
2.5
  0
CIRCLE
  8
FIX
  6
CONTINUOUS
 62
    11
 10
0.0
 20
101.59999999999999
 30
0.0
 40
2.5
  0
LINE
  8
BASIS
  6
DASHDOT
 62
     6
 10
0.0
 20
-112.55
 30
0.0
 11
0.0
 21
112.55
 31
0.0
  0
LINE
  8
OUTLINE
  6
CONTINUOUS
 62
     3
 10
-48.0
 20
88.199999999999989
 30
0.0
 11
-48.0
 21
87.599999999999966
 31
0.0
  0
LINE
  8
OUTLINE
  6
CONTINUOUS
 62
     3
 10
-48.0
 20
87.599999999999966
 30
0.0
 11
-54.299999999999727
 21
87.600000000000023
 31
0.0
  0
ARC
  8
OUTLINE
  6
CONTINUOUS
 62
     3
 10
-54.299999999999685
 20
87.500000000000071
 30
0.0
 40
0.0999999999999568
 50
90.0
 51
180.0
  0
LINE
  8
OUTLINE
  6
CONTINUOUS
 62
     3
 10
-54.399999999999643
 20
87.5
 30
0.0
 11
-50.0
 21
87.5
 31
0.0
  0
LINE
  8
OUTLINE
  6
CONTINUOUS
 62
     3
 10
-50.0
 20
87.5
 30
0.0
 11
-49.400000000000091
 21
86.899999999999977
 31
0.0
  0
LINE
  8
OUTLINE
  6
CONTINUOUS
 62
     3
 10
-49.400000000000091
 20
86.899999999999977
 30
0.0
 11
-1.0
 21
86.899999999999977
 31
0.0
  0
ARC
  8
OUTLINE
  6
CONTINUOUS
 62
     3
 10
-0.9999999999999789
 20
87.300000000000054
 30
0.0
 40
0.4000000000000699
 50
270.0
 51
0.0
  0
LINE
  8
OUTLINE
  6
CONTINUOUS
 62
     3
 10
-0.5999999999999091
 20
87.300000000000068
 30
0.0
 11
-0.5999999999999091
 21
107.59999999999999
 31
0.0
  0
LINE
  8
OUTLINE
  6
CONTINUOUS
 62
     3
 10
-0.5999999999999091
 20
107.59999999999999
 30
0.0
 11
0.0
 21
107.59999999999999
 31
0.0
  0
LINE
  8
OUTLINE
  6
CONTINUOUS
 62
     3
 10
0.0
 20
107.59999999999999
 30
0.0
 11
0.0
 21
87.300000000000011
 31
0.0
  0
ARC
  8
OUTLINE
  6
CONTINUOUS
 62
     3
 10
-0.9999999999999804
 20
87.299999999999997
 30
0.0
 40
0.9999999999999804
 50
270.0
 51
0.0
  0
LINE
  8
OUTLINE
  6
CONTINUOUS
 62
     3
 10
-1.0
 20
86.300000000000011
 30
0.0
 11
-4.0
 21
86.300000000000011
 31
0.0
  0
LINE
  8
OUTLINE
  6
CONTINUOUS
 62
     3
 10
-4.0
 20
86.300000000000011
 30
0.0
 11
-4.0
 21
85.75
 31
0.0
  0
LINE
  8
OUTLINE
  6
CONTINUOUS
 62
     3
 10
-4.0
 20
85.75
 30
0.0
 11
-2.7999999999997272
 21
85.75
 31
0.0
  0
LINE
  8
OUTLINE
  6
CONTINUOUS
 62
     3
 10
-2.7999999999997272
 20
85.75
 30
0.0
 11
-2.7999999999997272
 21
-85.749999999999943
 31
0.0
  0
LINE
  8
OUTLINE
  6
CONTINUOUS
 62
     3
 10
-2.7999999999997272
 20
-85.749999999999943
 30
0.0
 11
-4.0
 21
-85.749999999999886
 31
0.0
  0
LINE
  8
OUTLINE
  6
CONTINUOUS
 62
     3
 10
-4.0
 20
-85.749999999999886
 30
0.0
 11
-4.0
 21
-86.299999999999955
 31
0.0
  0
LINE
  8
OUTLINE
  6
CONTINUOUS
 62
     3
 10
-4.0
 20
-86.299999999999955
 30
0.0
 11
-1.0
 21
-86.299999999999955
 31
0.0
  0
ARC
  8
OUTLINE
  6
CONTINUOUS
 62
     3
 10
-0.9999999999999805
 20
-87.29999999999994
 30
0.0
 40
0.9999999999999804
 50
0.0
 51
90.0
  0
LINE
  8
OUTLINE
  6
CONTINUOUS
 62
     3
 10
0.0
 20
-87.299999999999955
 30
0.0
 11
0.0
 21
-107.4999999999999
 31
0.0
  0
LINE
  8
OUTLINE
  6
CONTINUOUS
 62
     3
 10
0.0
 20
-107.4999999999999
 30
0.0
 11
-0.5999999999999091
 21
-107.4999999999999
 31
0.0
  0
LINE
  8
OUTLINE
  6
CONTINUOUS
 62
     3
 10
-0.5999999999999091
 20
-107.4999999999999
 30
0.0
 11
-0.5999999999999091
 21
-87.300000000000011
 31
0.0
  0
ARC
  8
OUTLINE
  6
CONTINUOUS
 62
     3
 10
-0.9999999999999547
 20
-87.300000000000026
 30
0.0
 40
0.4000000000000456
 50
0.0
 51
90.0
  0
LINE
  8
OUTLINE
  6
CONTINUOUS
 62
     3
 10
-1.0
 20
-86.899999999999977
 30
0.0
 11
-5.7999999999997272
 21
-86.899999999999977
 31
0.0
  0
LINE
  8
OUTLINE
  6
CONTINUOUS
 62
     3
 10
-5.7999999999997272
 20
-86.899999999999977
 30
0.0
 11
-5.7999999999997272
 21
-87.399999999999977
 31
0.0
  0
ARC
  8
OUTLINE
  6
CONTINUOUS
 62
     3
 10
-8.7999999999997165
 20
-87.399999999999991
 30
0.0
 40
2.9999999999999898
 50
270.0
 51
0.0
  0
LINE
  8
OUTLINE
  6
CONTINUOUS
 62
     3
 10
-8.7999999999997272
 20
-90.399999999999977
 30
0.0
 11
-32.799999999999727
 21
-90.399999999999977
 31
0.0
  0
ARC
  8
OUTLINE
  6
CONTINUOUS
 62
     3
 10
-32.799999999999734
 20
-87.399999999999991
 30
0.0
 40
2.9999999999999898
 50
180.0
 51
270.0
  0
LINE
  8
OUTLINE
  6
CONTINUOUS
 62
     3
 10
-35.799999999999727
 20
-87.399999999999977
 30
0.0
 11
-35.799999999999727
 21
-86.899999999999977
 31
0.0
  0
LINE
  8
OUTLINE
  6
CONTINUOUS
 62
     3
 10
-35.799999999999727
 20
-86.899999999999977
 30
0.0
 11
-48.800000000000182
 21
-86.899999999999977
 31
0.0
  0
LINE
  8
OUTLINE
  6
CONTINUOUS
 62
     3
 10
-48.800000000000182
 20
-86.899999999999977
 30
0.0
 11
-50.0
 21
-88.099999999999966
 31
0.0
  0
LINE
  8
OUTLINE
  6
CONTINUOUS
 62
     3
 10
-50.0
 20
-88.099999999999966
 30
0.0
 11
-54.399999999999643
 21
-88.099999999999966
 31
0.0
  0
ARC
  8
OUTLINE
  6
CONTINUOUS
 62
     3
 10
-54.299999999999713
 20
-88.100000000000051
 30
0.0
 40
0.0999999999999325
 50
180.0
 51
270.0
  0
LINE
  8
OUTLINE
  6
CONTINUOUS
 62
     3
 10
-54.299999999999727
 20
-88.199999999999989
 30
0.0
 11
-48.0
 21
-88.199999999999989
 31
0.0
  0
LINE
  8
OUTLINE
  6
CONTINUOUS
 62
     3
 10
-48.0
 20
-88.199999999999989
 30
0.0
 11
-48.0
 21
-88.799999999999955
 31
0.0
  0
LINE
  8
OUTLINE
  6
CONTINUOUS
 62
     3
 10
-48.0
 20
-88.799999999999955
 30
0.0
 11
-54.299999999999727
 21
-88.799999999999955
 31
0.0
  0
ARC
  8
OUTLINE
  6
CONTINUOUS
 62
     3
 10
-54.299999999999663
 20
-88.100000000000065
 30
0.0
 40
0.6999999999998918
 50
180.0
 51
270.0
  0
LINE
  8
OUTLINE
  6
CONTINUOUS
 62
     3
 10
-54.999999999999552
 20
-88.100000000000023
 30
0.0
 11
-54.999999999999552
 21
-84.099999999999966
 31
0.0
  0
LINE
  8
OUTLINE
  6
CONTINUOUS
 62
     3
 10
-54.999999999999552
 20
-84.099999999999966
 30
0.0
 11
-55.5
 21
-84.099999999999966
 31
0.0
  0
ARC
  8
OUTLINE
  6
CONTINUOUS
 62
     3
 10
-50.977499999999935
 20
-79.399999999999977
 30
0.0
 40
6.5225000000000382
 50
133.8973981670544
 51
226.10260183294554
  0
LINE
  8
OUTLINE
  6
CONTINUOUS
 62
     3
 10
-55.5
 20
-74.699999999999989
 30
0.0
 11
-55.0
 21
-74.699999999999989
 31
0.0
  0
LINE
  8
OUTLINE
  6
CONTINUOUS
 62
     3
 10
-55.0
 20
-74.699999999999989
 30
0.0
 11
-55.0
 21
-67.999999999999886
 31
0.0
  0
LINE
  8
OUTLINE
  6
CONTINUOUS
 62
     3
 10
-55.0
 20
-67.999999999999886
 30
0.0
 11
-55.049999999999727
 21
-67.999999999999943
 31
0.0
  0
LINE
  8
OUTLINE
  6
CONTINUOUS
 62
     3
 10
-55.049999999999727
 20
-67.999999999999943
 30
0.0
 11
-55.049999999999727
 21
68.0
 31
0.0
  0
LINE
  8
OUTLINE
  6
CONTINUOUS
 62
     3
 10
-55.049999999999727
 20
68.0
 30
0.0
 11
-55.0
 21
68.0
 31
0.0
  0
LINE
  8
OUTLINE
  6
CONTINUOUS
 62
     3
 10
-55.0
 20
68.0
 30
0.0
 11
-55.0
 21
74.699999999999989
 31
0.0
  0
LINE
  8
OUTLINE
  6
CONTINUOUS
 62
     3
 10
-55.0
 20
74.699999999999989
 30
0.0
 11
-55.5
 21
74.699999999999989
 31
0.0
  0
ARC
  8
OUTLINE
  6
CONTINUOUS
 62
     3
 10
-50.977499999999978
 20
79.399999999999977
 30
0.0
 40
6.5225000000000071
 50
133.89739816705418
 51
226.10260183294577
  0
LINE
  8
OUTLINE
  6
CONTINUOUS
 62
     3
 10
-55.5
 20
84.099999999999966
 30
0.0
 11
-55.0
 21
84.099999999999966
 31
0.0
  0
LINE
  8
OUTLINE
  6
CONTINUOUS
 62
     3
 10
-55.0
 20
84.099999999999966
 30
0.0
 11
-54.999999999999552
 21
87.500000000000114
 31
0.0
  0
ARC
  8
OUTLINE
  6
CONTINUOUS
 62
     3
 10
-54.299999999999685
 20
87.500000000000128
 30
0.0
 40
0.6999999999998674
 50
90.0
 51
180.0
  0
LINE
  8
OUTLINE
  6
CONTINUOUS
 62
     3
 10
-54.299999999999727
 20
88.199999999999989
 30
0.0
 11
-48.0
 21
88.199999999999989
 31
0.0
  0
POINT
  8
ARRANGE
  6
CONTINUOUS
 62
     1
 10
0.0
 20
0.0
 30
0.0
  0
CIRCLE
  8
ARRANGE
  6
CONTINUOUS
 62
     1
 10
0.0
 20
0.0
 30
0.0
 40
40.0
  0
TEXT
  8
NOTE
  6
CONTINUOUS
 62
     4
 10
98.302576993812181
 20
-220.89783409818099
 30
0.0
 40
64.0
  1
%%u2×φ5
 50
0.0
 41
0.9
 51
0.0
  7
STANDARD
 71
     0
 11
0.0
 21
0.0
 31
0.0
210
0.0
220
0.0
230
1.0
  0
LINE
  8
NOTE
  6
CONTINUOUS
 62
     4
 10
98.212576993812036
 20
-233.697834098181
 30
0.0
 11
290.30257699381212
 21
-233.697834098181
 31
0.0
  0
LINE
  8
NOTE
  6
CONTINUOUS
 62
     4
 10
8.0548017217787731
 20
-128.39562720585832
 30
0.0
 11
0.0
 21
-98.399999999999977
 31
0.0
  0
LINE
  8
NOTE
  6
CONTINUOUS
 62
     4
 10
0.0
 20
-98.399999999999977
 30
0.0
 11
21.973509593184783
 21
-120.34954118901385
 31
0.0
  0
LINE
  8
NOTE
  6
CONTINUOUS
 62
     4
 10
0.0
 20
-98.399999999999977
 30
0.0
 11
30.028311314963556
 21
-150.34516839487219
 31
0.0
  0
LINE
  8
NOTE
  6
CONTINUOUS
 62
     4
 10
30.028311314963581
 20
-150.34516839487219
 30
0.0
 11
78.212576993812036
 21
-233.697834098181
 31
0.0
  0
LINE
  8
NOTE
  6
CONTINUOUS
 62
     4
 10
78.212576993812036
 20
-233.697834098181
 30
0.0
 11
98.212576993812036
 21
-233.697834098181
 31
0.0
  0
ENDSEC
  0
EOF
