  0
SECTION
  2
HEADER
  9
$ACADVER
  1
AC1009
  9
$DWGCODEPAGE
  3
dos932
  9
$INSBASE
 10
0.0
 20
0.0
 30
0.0
  9
$EXTMIN
 10
-547.81402100000003
 20
-274.0
 30
0.0
  9
$EXTMAX
 10
654.46058742857133
 20
460.51706100000013
 30
50.0
  9
$LIMMIN
 10
-2970.0
 20
-2100.0
  9
$LIMMAX
 10
2970.0
 20
2100.0
  9
$ORTHOMODE
 70
     1
  9
$REGENMODE
 70
     1
  9
$FILLMODE
 70
     1
  9
$QTEXTMODE
 70
     0
  9
$MIRRTEXT
 70
     0
  9
$LTSCALE
 40
20.0
  9
$ATTMODE
 70
     1
  9
$TEXTSIZE
 40
64.0
  9
$TRACEWID
 40
0.05
  9
$TEXTSTYLE
  7
STANDARD
  9
$CLAYER
  8
NOTE
  9
$CELTYPE
  6
CONTINUOUS
  9
$CECOLOR
 62
     7
  9
$DIMSCALE
 40
1.0
  9
$DIMASZ
 40
12.0
  9
$DIMEXO
 40
20.0
  9
$DIMDLI
 40
200.0
  9
$DIMRND
 40
0.0
  9
$DIMDLE
 40
0.0
  9
$DIMEXE
 40
20.0
  9
$DIMTP
 40
0.0
  9
$DIMTM
 40
0.0
  9
$DIMTXT
 40
64.0
  9
$DIMCEN
 40
0.09
  9
$DIMTSZ
 40
0.0
  9
$DIMTOL
 70
     0
  9
$DIMLIM
 70
     0
  9
$DIMTIH
 70
     0
  9
$DIMTOH
 70
     0
  9
$DIMSE1
 70
     0
  9
$DIMSE2
 70
     0
  9
$DIMTAD
 70
     1
  9
$DIMZIN
 70
     8
  9
$DIMBLK
  1

  9
$DIMASO
 70
     1
  9
$DIMSHO
 70
     0
  9
$DIMPOST
  1

  9
$DIMAPOST
  1

  9
$DIMALT
 70
     0
  9
$DIMALTD
 70
     2
  9
$DIMALTF
 40
25.399999999999999
  9
$DIMLFAC
 40
1.0
  9
$DIMTOFL
 70
     1
  9
$DIMTVP
 40
0.0
  9
$DIMTIX
 70
     1
  9
$DIMSOXD
 70
     0
  9
$DIMSAH
 70
     0
  9
$DIMBLK1
  1

  9
$DIMBLK2
  1

  9
$DIMSTYLE
  2
STANDARD
  9
$DIMCLRD
 70
     7
  9
$DIMCLRE
 70
     7
  9
$DIMCLRT
 70
     7
  9
$DIMTFAC
 40
1.0
  9
$DIMGAP
 40
25.0
  9
$LUNITS
 70
     2
  9
$LUPREC
 70
     4
  9
$SKETCHINC
 40
0.1
  9
$FILLETRAD
 40
3.0
  9
$AUNITS
 70
     1
  9
$AUPREC
 70
     3
  9
$MENU
  1
ACAD
  9
$ELEVATION
 40
0.0
  9
$PELEVATION
 40
0.0
  9
$THICKNESS
 40
50.0
  9
$LIMCHECK
 70
     0
  9
$CHAMFERA
 40
0.0
  9
$CHAMFERB
 40
0.0
  9
$SKPOLY
 70
     0
  9
$TDCREATE
 40
2453019.62301037
  9
$TDUPDATE
 40
2457372.648095266
  9
$TDINDWG
 40
1.7130260764
  9
$TDUSRTIMER
 40
1.7130260764
  9
$USRTIMER
 70
     1
  9
$ANGBASE
 50
0.0
  9
$ANGDIR
 70
     0
  9
$PDMODE
 70
     3
  9
$PDSIZE
 40
-2.0
  9
$PLINEWID
 40
0.0
  9
$SPLFRAME
 70
     0
  9
$SPLINETYPE
 70
     6
  9
$SPLINESEGS
 70
     8
  9
$SURFTAB1
 70
     6
  9
$SURFTAB2
 70
     6
  9
$SURFTYPE
 70
     6
  9
$SURFU
 70
     6
  9
$SURFV
 70
     6
  9
$UCSNAME
  2

  9
$UCSORG
 10
0.0
 20
0.0
 30
0.0
  9
$UCSXDIR
 10
1.0
 20
0.0
 30
0.0
  9
$UCSYDIR
 10
0.0
 20
1.0
 30
0.0
  9
$PUCSNAME
  2

  9
$PUCSORG
 10
0.0
 20
0.0
 30
0.0
  9
$PUCSXDIR
 10
1.0
 20
0.0
 30
0.0
  9
$PUCSYDIR
 10
0.0
 20
1.0
 30
0.0
  9
$USERI1
 70
     0
  9
$USERI2
 70
     0
  9
$USERI3
 70
     0
  9
$USERI4
 70
     0
  9
$USERI5
 70
     0
  9
$USERR1
 40
20.0
  9
$USERR2
 40
0.0
  9
$USERR3
 40
0.0
  9
$USERR4
 40
0.0
  9
$USERR5
 40
0.0
  9
$WORLDVIEW
 70
     1
  9
$SHADEDGE
 70
     3
  9
$SHADEDIF
 70
    70
  9
$TILEMODE
 70
     1
  9
$MAXACTVP
 70
    48
  9
$PINSBASE
 10
0.0
 20
0.0
 30
0.0
  9
$PLIMCHECK
 70
     0
  9
$PEXTMIN
 10
-100000000000000000000.0
 20
-100000000000000000000.0
 30
-100000000000000000000.0
  9
$PEXTMAX
 10
100000000000000000000.0
 20
100000000000000000000.0
 30
100000000000000000000.0
  9
$PLIMMIN
 10
0.0
 20
0.0
  9
$PLIMMAX
 10
12.0
 20
9.0
  9
$UNITMODE
 70
     0
  9
$VISRETAIN
 70
     0
  9
$PLINEGEN
 70
     0
  9
$PSLTSCALE
 70
     0
  9
$TREEDEPTH
 70
  3020
  9
$ATTDIA
 70
     0
  9
$ATTREQ
 70
     1
  9
$BLIPMODE
 70
     1
  9
$COORDS
 70
     1
  9
$DRAGMODE
 70
     2
  9
$OSMODE
 70
     0
  9
$HANDLING
 70
     0
  9
$HANDSEED
  5
E5D8
  0
ENDSEC
  0
SECTION
  2
TABLES
  0
TABLE
  2
LTYPE
 70
     4
  0
LTYPE
  2
CONTINUOUS
 70
     0
  3
実線
 72
    65
 73
     0
 40
0.0
  0
LTYPE
  2
DASHDOT
 70
     0
  3
____ _ ____ _ ____ _ ____ _ ____ _ ____ _ ____
 72
    65
 73
     4
 40
5.5
 49
4.0
 49
-0.6
 49
0.3
 49
-0.6
  0
LTYPE
  2
DASHED
 70
     0
  3
-- -- -- -- -- -- -- -- -- -- -- -- -- -- --
 72
    65
 73
     2
 40
0.75
 49
0.5
 49
-0.25
  0
LTYPE
  2
CENTER
 70
     0
  3
Center ____ _ ____ _ ____ _ ____ _ ____ _ ____
 72
    65
 73
     4
 40
1.0
 49
0.5
 49
-0.25
 49
0.0
 49
-0.25
  0
ENDTAB
  0
TABLE
  2
LAYER
 70
    12
  0
LAYER
  2
0
 70
     0
 62
     7
  6
CONTINUOUS
  0
LAYER
  2
BASIS
 70
     0
 62
     6
  6
DASHDOT
  0
LAYER
  2
OUTLINE
 70
     0
 62
     3
  6
CONTINUOUS
  0
LAYER
  2
DETAIL
 70
     0
 62
     5
  6
CONTINUOUS
  0
LAYER
  2
SIZE
 70
     0
 62
    30
  6
CONTINUOUS
  0
LAYER
  2
ARRANGE
 70
     0
 62
     1
  6
CONTINUOUS
  0
LAYER
  2
DEFPOINTS
 70
     0
 62
     7
  6
CONTINUOUS
  0
LAYER
  2
ETC
 70
     0
 62
    61
  6
CONTINUOUS
  0
LAYER
  2
NOTE
 70
     0
 62
     4
  6
CONTINUOUS
  0
LAYER
  2
FIX
 70
    64
 62
    11
  6
CONTINUOUS
  0
LAYER
  2
SERVICESPACE
 70
    64
 62
     2
  6
DASHDOT
  0
LAYER
  2
SYMBOLLINE
 70
    64
 62
    15
  6
CONTINUOUS
  0
ENDTAB
  0
TABLE
  2
STYLE
 70
     1
  0
STYLE
  2
STANDARD
 70
     0
 40
64.0
 41
0.9
 50
0.0
 71
     0
 42
64.0
  3
SIMPLEX.shx
  4
BIGFONT.shx
  0
ENDTAB
  0
TABLE
  2
APPID
 70
    15
  0
APPID
  2
ACAD
 70
     0
  0
APPID
  2
AUTOCAD_POSTSCRIPT_FIGURE
 70
     0
  0
APPID
  2
ACAD_EXEMPT_FROM_CAD_STANDARDS
 70
     0
  0
APPID
  2
ACAD_PSEXT
 70
     0
  0
APPID
  2
ACAUTHENVIRON
 70
     0
  0
APPID
  2
GENIUS_GENOENT_13
 70
     0
  0
APPID
  2
GENIUS_GENCFG_13
 70
     0
  0
APPID
  2
GENIUS_GENCFG0_13
 70
     0
  0
APPID
  2
GENIUS_GENCFG1_13
 70
     0
  0
APPID
  2
GENIUS_GENCFG2_13
 70
     0
  0
APPID
  2
GENIUS_GENCFG3_13
 70
     0
  0
APPID
  2
GENIUS_GENCFG4_13
 70
     0
  0
APPID
  2
GENIUS_GEVCFG0_13
 70
     0
  0
APPID
  2
CONTENTBLOCKICON
 70
     0
  0
APPID
  2
CONTENTBLOCKDESCRIPTION
 70
     0
  0
ENDTAB
  0
TABLE
  2
DIMSTYLE
 70
     1
  0
DIMSTYLE
  2
STANDARD
 70
     0
  3

  4

  5
_ORIGIN
  6

  7

 40
1.0
 41
12.0
 42
20.0
 43
200.0
 44
20.0
 45
0.0
 46
0.0
 47
0.0
 48
0.0
140
64.0
141
0.09
142
0.0
143
25.399999999999999
144
1.0
145
0.0
146
1.0
147
25.0
 71
     0
 72
     0
 73
     0
 74
     0
 75
     0
 76
     0
 77
     1
 78
     8
170
     0
171
     2
172
     1
173
     0
174
     1
175
     0
176
     7
177
     7
178
     7
  0
ENDTAB
  0
TABLE
  2
VIEW
 70
     1
  0
VIEW
  2
ALL
 70
     0
 40
4282.6198079999986
 10
0.0
 20
41.309904000000003
 41
5940.0
 11
0.0
 21
0.0
 31
1.0
 12
0.0
 22
0.0
 32
0.0
 42
50.0
 43
0.0
 44
0.0
 50
0.0
 71
     0
  0
ENDTAB
  0
TABLE
  2
UCS
 70
     0
  0
ENDTAB
  0
TABLE
  2
VPORT
 70
     1
  0
VPORT
  2
*ACTIVE
 70
     0
 10
0.0
 20
0.0
 11
1.0
 21
1.0
 12
348.60924063702993
 22
328.51648727585069
 13
0.0
 23
0.0
 14
1.0
 24
1.0
 15
0.0
 25
0.0
 16
0.0
 26
0.0
 36
1.0
 17
0.0
 27
0.0
 37
0.0
 40
551.76037450643753
 41
1.29023746701847
 42
50.0
 43
0.0
 44
0.0
 50
0.0
 51
0.0
 71
     0
 72
  1000
 73
     1
 74
     0
 75
     0
 76
     0
 77
     0
 78
     0
  0
ENDTAB
  0
ENDSEC
  0
SECTION
  2
BLOCKS
  0
BLOCK
  8
0
  2
_ORIGIN
 70
     0
 10
0.0
 20
0.0
 30
0.0
  3
_ORIGIN
  1

  0
CIRCLE
  8
0
  6
CONTINUOUS
 62
     7
 10
0.0
 20
0.0
 30
0.0
 40
0.5
  0
LINE
  8
0
  6
CONTINUOUS
 62
     7
 10
0.0
 20
0.0
 30
0.0
 11
-1.0
 21
0.0
 31
0.0
  0
ENDBLK
  8
0
  0
ENDSEC
  0
SECTION
  2
ENTITIES
  0
TEXT
  8
ETC
  6
CONTINUOUS
 62
    61
 10
315.03201600000011
 20
420.51706100000001
 30
0.0
 40
40.0
  1
PS-35KW3_1
 41
0.9
  0
TEXT
  8
ETC
  6
CONTINUOUS
 62
    61
 10
310.84602199999989
 20
359.82078200000001
 30
0.0
 40
40.0
  1
システム部材
 41
0.9
  0
TEXT
  8
ETC
  6
CONTINUOUS
 62
    61
 10
361.4535249999999
 20
277.95067199999988
 30
0.0
 40
40.0
  1
PS-35KW3
 41
0.9
  0
CIRCLE
  8
ARRANGE
  6
CONTINUOUS
 62
     1
 10
0.0
 20
0.0
 30
0.0
 40
40.0
  0
LINE
  8
BASIS
  6
DASHDOT
 62
     6
 10
-264.31179300000008
 20
0.0
 30
0.0
 11
264.31179300000008
 21
0.0
 31
0.0
  0
LINE
  8
BASIS
  6
DASHDOT
 62
     6
 10
0.0
 20
95.361415000000022
 30
0.0
 11
0.0
 21
-95.361415000000022
 31
0.0
  0
POINT
  8
ARRANGE
  6
CONTINUOUS
 62
     1
 10
0.0
 20
0.0
 30
0.0
 39
50.0
  0
LINE
  8
BASIS
  6
DASHDOT
 62
     6
 10
0.0
 20
95.361415000000022
 30
0.0
 11
0.0
 21
-95.361415000000022
 31
0.0
  0
LINE
  8
BASIS
  6
DASHDOT
 62
     6
 10
0.0
 20
95.361415000000022
 30
0.0
 11
0.0
 21
-95.361415000000022
 31
0.0
  0
LINE
  8
BASIS
  6
DASHDOT
 62
     6
 10
0.0
 20
95.361415000000022
 30
0.0
 11
0.0
 21
-95.361415000000022
 31
0.0
  0
LINE
  8
DETAIL
  6
CONTINUOUS
 62
     5
 10
199.34999999999991
 20
80.0
 30
0.0
 11
-205.34999999999999
 21
80.0
 31
0.0
  0
LINE
  8
DETAIL
  6
CONTINUOUS
 62
     5
 10
199.34999999999991
 20
-80.0
 30
0.0
 11
-199.34999999999999
 21
-80.0
 31
0.0
  0
LINE
  8
DETAIL
  6
CONTINUOUS
 62
     5
 10
205.34999999999991
 20
80.0
 30
0.0
 11
205.34999999999991
 21
65.0
 31
0.0
  0
LINE
  8
DETAIL
  6
CONTINUOUS
 62
     5
 10
229.34999999999991
 20
35.0
 30
0.0
 11
229.34999999999991
 21
77.600000000000023
 31
0.0
  0
LINE
  8
DETAIL
  6
CONTINUOUS
 62
     5
 10
227.34999999999991
 20
55.0
 30
0.0
 11
227.34999999999991
 21
80.0
 31
0.0
  0
LINE
  8
DETAIL
  6
CONTINUOUS
 62
     5
 10
230.55000000000001
 20
35.0
 30
0.0
 11
230.55000000000001
 21
77.600000000000023
 31
0.0
  0
LINE
  8
DETAIL
  6
CONTINUOUS
 62
     5
 10
199.34999999999991
 20
73.0
 30
0.0
 11
199.34999999999991
 21
80.0
 31
0.0
  0
LINE
  8
DETAIL
  6
CONTINUOUS
 62
     5
 10
200.5874060000001
 20
-80.0
 30
0.0
 11
228.15000000000009
 21
-80.0
 31
0.0
  0
LINE
  8
DETAIL
  6
CONTINUOUS
 62
     5
 10
207.34999999999991
 20
-35.0
 30
0.0
 11
227.34999999999991
 21
-55.0
 31
0.0
  0
LINE
  8
DETAIL
  6
CONTINUOUS
 62
     5
 10
207.34999999999991
 20
35.0
 30
0.0
 11
227.34999999999991
 21
55.0
 31
0.0
  0
LINE
  8
DETAIL
  6
CONTINUOUS
 62
     5
 10
229.34999999999991
 20
-80.0
 30
0.0
 11
209.34999999999991
 21
-80.0
 31
0.0
  0
LINE
  8
DETAIL
  6
CONTINUOUS
 62
     5
 10
229.34999999999991
 20
-35.0
 30
0.0
 11
229.34999999999991
 21
-77.599999999999994
 31
0.0
  0
LINE
  8
DETAIL
  6
CONTINUOUS
 62
     5
 10
230.55000000000001
 20
-35.0
 30
0.0
 11
230.55000000000001
 21
-77.599999999999994
 31
0.0
  0
LINE
  8
DETAIL
  6
CONTINUOUS
 62
     5
 10
230.55000000000001
 20
-49.75
 30
0.0
 11
231.44999999999999
 21
-50.650000000000013
 31
0.0
  0
LINE
  8
DETAIL
  6
CONTINUOUS
 62
     5
 10
231.44999999999999
 20
-41.349999999999987
 30
0.0
 11
231.44999999999999
 21
-50.650000000000013
 31
0.0
  0
LINE
  8
DETAIL
  6
CONTINUOUS
 62
     5
 10
232.0
 20
-41.349999999999987
 30
0.0
 11
232.0
 21
-50.650000000000013
 31
0.0
  0
LINE
  8
DETAIL
  6
CONTINUOUS
 62
     5
 10
227.34999999999991
 20
-55.0
 30
0.0
 11
227.34999999999991
 21
-80.0
 31
0.0
  0
ARC
  8
DETAIL
  6
CONTINUOUS
 62
     5
 10
228.15000000000009
 20
-77.599999999999994
 30
0.0
 40
1.2
 50
270.0
 51
0.0
  0
ARC
  8
DETAIL
  6
CONTINUOUS
 62
     5
 10
228.15000000000009
 20
-77.599999999999994
 30
0.0
 40
2.3999999999999999
 50
270.0
 51
0.0
  0
LINE
  8
DETAIL
  6
DASHED
 62
     5
 10
227.34999999999991
 20
-78.800000000000011
 30
0.0
 11
228.15000000000009
 21
-78.800000000000011
 31
0.0
  0
LINE
  8
DETAIL
  6
CONTINUOUS
 62
     5
 10
229.34999999999991
 20
-79.678460999999999
 30
0.0
 11
229.34999999999991
 21
-80.0
 31
0.0
  0
LINE
  8
DETAIL
  6
CONTINUOUS
 62
     5
 10
229.34999999999991
 20
-73.0
 30
0.0
 11
227.34999999999991
 21
-73.0
 31
0.0
  0
LINE
  8
DETAIL
  6
CONTINUOUS
 62
     5
 10
230.55000000000001
 20
-55.0
 30
0.0
 11
229.34999999999991
 21
-55.0
 31
0.0
  0
LINE
  8
DETAIL
  6
CONTINUOUS
 62
     5
 10
231.44999999999999
 20
-50.650000000000013
 30
0.0
 11
232.0
 21
-50.650000000000013
 31
0.0
  0
LINE
  8
DETAIL
  6
CONTINUOUS
 62
     5
 10
229.34999999999991
 20
35.0
 30
0.0
 11
229.34999999999991
 21
-35.0
 31
0.0
  0
LINE
  8
DETAIL
  6
CONTINUOUS
 62
     5
 10
229.34999999999991
 20
-35.0
 30
0.0
 11
230.55000000000001
 21
-35.0
 31
0.0
  0
LINE
  8
DETAIL
  6
CONTINUOUS
 62
     5
 10
230.55000000000001
 20
-42.25
 30
0.0
 11
231.44999999999999
 21
-41.349999999999987
 31
0.0
  0
LINE
  8
DETAIL
  6
CONTINUOUS
 62
     5
 10
231.44999999999999
 20
-41.349999999999987
 30
0.0
 11
232.0
 21
-41.349999999999987
 31
0.0
  0
LINE
  8
DETAIL
  6
CONTINUOUS
 62
     5
 10
231.44999999999999
 20
41.350000000000023
 30
0.0
 11
231.44999999999999
 21
50.649999999999977
 31
0.0
  0
LINE
  8
DETAIL
  6
CONTINUOUS
 62
     5
 10
232.0
 20
41.350000000000023
 30
0.0
 11
232.0
 21
50.649999999999977
 31
0.0
  0
LINE
  8
DETAIL
  6
CONTINUOUS
 62
     5
 10
229.34999999999991
 20
35.0
 30
0.0
 11
230.55000000000001
 21
35.0
 31
0.0
  0
LINE
  8
DETAIL
  6
CONTINUOUS
 62
     5
 10
230.55000000000001
 20
42.25
 30
0.0
 11
231.44999999999999
 21
41.350000000000023
 31
0.0
  0
LINE
  8
DETAIL
  6
CONTINUOUS
 62
     5
 10
231.44999999999999
 20
41.350000000000023
 30
0.0
 11
232.0
 21
41.350000000000023
 31
0.0
  0
LINE
  8
DETAIL
  6
CONTINUOUS
 62
     5
 10
230.55000000000001
 20
49.75
 30
0.0
 11
231.44999999999999
 21
50.649999999999977
 31
0.0
  0
LINE
  8
DETAIL
  6
CONTINUOUS
 62
     5
 10
231.44999999999999
 20
50.649999999999977
 30
0.0
 11
232.0
 21
50.649999999999977
 31
0.0
  0
LINE
  8
DETAIL
  6
CONTINUOUS
 62
     5
 10
230.55000000000001
 20
55.0
 30
0.0
 11
229.34999999999991
 21
55.0
 31
0.0
  0
LINE
  8
DETAIL
  6
CONTINUOUS
 62
     5
 10
229.34999999999991
 20
73.0
 30
0.0
 11
227.34999999999991
 21
73.0
 31
0.0
  0
LINE
  8
DETAIL
  6
CONTINUOUS
 62
     5
 10
179.34999999999991
 20
-40.0
 30
0.0
 11
179.34999999999991
 21
-55.0
 31
0.0
  0
CIRCLE
  8
DETAIL
  6
CONTINUOUS
 62
     5
 10
189.34999999999991
 20
-46.0
 30
0.0
 40
4.6500000000000004
  0
LINE
  8
DETAIL
  6
CONTINUOUS
 62
     5
 10
179.34999999999991
 20
-55.0
 30
0.0
 11
184.34999999999991
 21
-60.0
 31
0.0
  0
LINE
  8
DETAIL
  6
CONTINUOUS
 62
     5
 10
213.80000000000001
 20
-80.0
 30
0.0
 11
213.80000000000001
 21
-104.0
 31
0.0
  0
LINE
  8
DETAIL
  6
CONTINUOUS
 62
     5
 10
220.19999999999999
 20
-80.0
 30
0.0
 11
220.19999999999999
 21
-104.0
 31
0.0
  0
LINE
  8
DETAIL
  6
CONTINUOUS
 62
     5
 10
213.0
 20
-80.0
 30
0.0
 11
213.0
 21
-103.2
 31
0.0
  0
LINE
  8
DETAIL
  6
CONTINUOUS
 62
     5
 10
221.0
 20
-80.0
 30
0.0
 11
221.0
 21
-103.2
 31
0.0
  0
LINE
  8
DETAIL
  6
CONTINUOUS
 62
     5
 10
221.0
 20
-103.2
 30
0.0
 11
213.0
 21
-103.2
 31
0.0
  0
LINE
  8
DETAIL
  6
CONTINUOUS
 62
     5
 10
221.0
 20
-103.2
 30
0.0
 11
220.19999999999999
 21
-104.0
 31
0.0
  0
LINE
  8
DETAIL
  6
CONTINUOUS
 62
     5
 10
213.80000000000001
 20
-104.0
 30
0.0
 11
213.0
 21
-103.2
 31
0.0
  0
LINE
  8
DETAIL
  6
CONTINUOUS
 62
     5
 10
220.19999999999999
 20
-104.0
 30
0.0
 11
213.80000000000001
 21
-104.0
 31
0.0
  0
ARC
  8
DETAIL
  6
CONTINUOUS
 62
     5
 10
200.34999999999991
 20
-65.0
 30
0.0
 40
5.0
 50
0.0
 51
90.0
  0
LINE
  8
DETAIL
  6
CONTINUOUS
 62
     5
 10
205.34999999999991
 20
-78.800000000000011
 30
0.0
 11
200.23593399999999
 21
-78.800000000000011
 31
0.0
  0
LINE
  8
DETAIL
  6
CONTINUOUS
 62
     5
 10
199.34999999999991
 20
-73.0
 30
0.0
 11
205.34999999999991
 21
-73.0
 31
0.0
  0
LINE
  8
DETAIL
  6
CONTINUOUS
 62
     5
 10
205.34999999999991
 20
-80.0
 30
0.0
 11
205.34999999999991
 21
-65.0
 31
0.0
  0
LINE
  8
DETAIL
  6
CONTINUOUS
 62
     5
 10
199.34999999999991
 20
-73.0
 30
0.0
 11
199.34999999999991
 21
-80.0
 31
0.0
  0
ARC
  8
DETAIL
  6
CONTINUOUS
 62
     5
 10
200.5874060000001
 20
-77.599999999999994
 30
0.0
 40
2.3999999999999999
 50
238.96337300000189
 51
270.0
  0
ARC
  8
DETAIL
  6
CONTINUOUS
 62
     5
 10
200.23593399999999
 20
-77.599999999999994
 30
0.0
 40
1.2
 50
222.41501200000269
 51
270.0
  0
LINE
  8
DETAIL
  6
CONTINUOUS
 62
     5
 10
184.34999999999991
 20
-60.0
 30
0.0
 11
200.34999999999991
 21
-60.0
 31
0.0
  0
LINE
  8
DETAIL
  6
CONTINUOUS
 62
     5
 10
184.34999999999991
 20
-35.0
 30
0.0
 11
179.34999999999991
 21
-40.0
 31
0.0
  0
LINE
  8
DETAIL
  6
CONTINUOUS
 62
     5
 10
184.34999999999991
 20
-35.0
 30
0.0
 11
207.34999999999991
 21
-35.0
 31
0.0
  0
LINE
  8
DETAIL
  6
CONTINUOUS
 62
     5
 10
187.22867999999991
 20
-43.878680000000003
 30
0.0
 11
191.47132000000011
 21
-48.121319999999997
 31
0.0
  0
LINE
  8
DETAIL
  6
CONTINUOUS
 62
     5
 10
187.22867999999991
 20
-48.121319999999997
 30
0.0
 11
191.47132000000011
 21
-43.878680000000003
 31
0.0
  0
LINE
  8
DETAIL
  6
CONTINUOUS
 62
     5
 10
179.34999999999991
 20
55.0
 30
0.0
 11
184.34999999999991
 21
60.0
 31
0.0
  0
LINE
  8
DETAIL
  6
CONTINUOUS
 62
     5
 10
184.34999999999991
 20
35.0
 30
0.0
 11
179.34999999999991
 21
40.0
 31
0.0
  0
CIRCLE
  8
DETAIL
  6
CONTINUOUS
 62
     5
 10
189.34999999999991
 20
46.0
 30
0.0
 40
4.6500000000000004
  0
LINE
  8
DETAIL
  6
CONTINUOUS
 62
     5
 10
184.34999999999991
 20
35.0
 30
0.0
 11
207.34999999999991
 21
35.0
 31
0.0
  0
ARC
  8
DETAIL
  6
CONTINUOUS
 62
     5
 10
200.34999999999991
 20
65.0
 30
0.0
 40
5.0
 50
270.0
 51
0.0
  0
LINE
  8
DETAIL
  6
CONTINUOUS
 62
     5
 10
199.34999999999991
 20
73.0
 30
0.0
 11
205.34999999999991
 21
73.0
 31
0.0
  0
LINE
  8
DETAIL
  6
CONTINUOUS
 62
     5
 10
187.22867999999991
 20
43.878679999999967
 30
0.0
 11
191.47132000000011
 21
48.121320000000033
 31
0.0
  0
LINE
  8
DETAIL
  6
CONTINUOUS
 62
     5
 10
187.22867999999991
 20
48.121320000000033
 30
0.0
 11
191.47132000000011
 21
43.878679999999967
 31
0.0
  0
LINE
  8
DETAIL
  6
CONTINUOUS
 62
     5
 10
184.34999999999991
 20
60.0
 30
0.0
 11
200.34999999999991
 21
60.0
 31
0.0
  0
LINE
  8
DETAIL
  6
CONTINUOUS
 62
     5
 10
179.34999999999991
 20
40.0
 30
0.0
 11
179.34999999999991
 21
55.0
 31
0.0
  0
LINE
  8
DETAIL
  6
CONTINUOUS
 62
     5
 10
200.5874060000001
 20
80.0
 30
0.0
 11
228.15000000000009
 21
80.0
 31
0.0
  0
LINE
  8
DETAIL
  6
CONTINUOUS
 62
     5
 10
229.34999999999991
 20
80.0
 30
0.0
 11
209.34999999999991
 21
80.0
 31
0.0
  0
ARC
  8
DETAIL
  6
CONTINUOUS
 62
     5
 10
228.15000000000009
 20
77.600000000000023
 30
0.0
 40
1.2
 50
0.0
 51
90.0
  0
ARC
  8
DETAIL
  6
CONTINUOUS
 62
     5
 10
228.15000000000009
 20
77.600000000000023
 30
0.0
 40
2.3999999999999999
 50
0.0
 51
90.0
  0
LINE
  8
DETAIL
  6
DASHED
 62
     5
 10
227.34999999999991
 20
78.800000000000011
 30
0.0
 11
228.15000000000009
 21
78.800000000000011
 31
0.0
  0
LINE
  8
DETAIL
  6
CONTINUOUS
 62
     5
 10
229.34999999999991
 20
79.67846099999997
 30
0.0
 11
229.34999999999991
 21
80.0
 31
0.0
  0
LINE
  8
DETAIL
  6
CONTINUOUS
 62
     5
 10
205.34999999999991
 20
78.800000000000011
 30
0.0
 11
200.23593399999999
 21
78.800000000000011
 31
0.0
  0
LINE
  8
DETAIL
  6
CONTINUOUS
 62
     5
 10
213.80000000000001
 20
80.0
 30
0.0
 11
213.80000000000001
 21
104.0
 31
0.0
  0
LINE
  8
DETAIL
  6
CONTINUOUS
 62
     5
 10
220.19999999999999
 20
80.0
 30
0.0
 11
220.19999999999999
 21
104.0
 31
0.0
  0
LINE
  8
DETAIL
  6
CONTINUOUS
 62
     5
 10
213.0
 20
80.0
 30
0.0
 11
213.0
 21
103.2
 31
0.0
  0
LINE
  8
DETAIL
  6
CONTINUOUS
 62
     5
 10
221.0
 20
80.0
 30
0.0
 11
221.0
 21
103.2
 31
0.0
  0
LINE
  8
DETAIL
  6
CONTINUOUS
 62
     5
 10
221.0
 20
103.2
 30
0.0
 11
213.0
 21
103.2
 31
0.0
  0
LINE
  8
DETAIL
  6
CONTINUOUS
 62
     5
 10
221.0
 20
103.2
 30
0.0
 11
220.19999999999999
 21
104.0
 31
0.0
  0
LINE
  8
DETAIL
  6
CONTINUOUS
 62
     5
 10
213.80000000000001
 20
104.0
 30
0.0
 11
213.0
 21
103.2
 31
0.0
  0
LINE
  8
DETAIL
  6
CONTINUOUS
 62
     5
 10
220.19999999999999
 20
104.0
 30
0.0
 11
213.80000000000001
 21
104.0
 31
0.0
  0
ARC
  8
DETAIL
  6
CONTINUOUS
 62
     5
 10
200.5874060000001
 20
77.600000000000023
 30
0.0
 40
2.3999999999999999
 50
90.0
 51
121.03662699999811
  0
ARC
  8
DETAIL
  6
CONTINUOUS
 62
     5
 10
200.23593399999999
 20
77.600000000000023
 30
0.0
 40
1.2
 50
90.0
 51
137.58498799999731
  0
LINE
  8
DETAIL
  6
CONTINUOUS
 62
     5
 10
-205.34999999999999
 20
80.0
 30
0.0
 11
-205.34999999999999
 21
65.0
 31
0.0
  0
LINE
  8
DETAIL
  6
CONTINUOUS
 62
     5
 10
-229.34999999999999
 20
35.0
 30
0.0
 11
-229.34999999999999
 21
77.600000000000023
 31
0.0
  0
LINE
  8
DETAIL
  6
CONTINUOUS
 62
     5
 10
-227.34999999999999
 20
55.0
 30
0.0
 11
-227.34999999999999
 21
80.0
 31
0.0
  0
LINE
  8
DETAIL
  6
CONTINUOUS
 62
     5
 10
-230.55000000000001
 20
35.0
 30
0.0
 11
-230.55000000000001
 21
77.600000000000023
 31
0.0
  0
LINE
  8
DETAIL
  6
CONTINUOUS
 62
     5
 10
-199.34999999999999
 20
73.0
 30
0.0
 11
-199.34999999999999
 21
80.0
 31
0.0
  0
LINE
  8
DETAIL
  6
CONTINUOUS
 62
     5
 10
-207.34999999999999
 20
-35.0
 30
0.0
 11
-227.34999999999999
 21
-55.0
 31
0.0
  0
LINE
  8
DETAIL
  6
CONTINUOUS
 62
     5
 10
-229.34999999999999
 20
-35.0
 30
0.0
 11
-229.34999999999999
 21
-77.599999999999994
 31
0.0
  0
LINE
  8
DETAIL
  6
CONTINUOUS
 62
     5
 10
-179.34999999999999
 20
-40.0
 30
0.0
 11
-179.34999999999999
 21
-55.0
 31
0.0
  0
LINE
  8
DETAIL
  6
CONTINUOUS
 62
     5
 10
-230.55000000000001
 20
-35.0
 30
0.0
 11
-230.55000000000001
 21
-77.599999999999994
 31
0.0
  0
LINE
  8
DETAIL
  6
CONTINUOUS
 62
     5
 10
-230.55000000000001
 20
-49.75
 30
0.0
 11
-231.44999999999999
 21
-50.650000000000013
 31
0.0
  0
LINE
  8
DETAIL
  6
CONTINUOUS
 62
     5
 10
-231.44999999999999
 20
-41.349999999999987
 30
0.0
 11
-231.44999999999999
 21
-50.650000000000013
 31
0.0
  0
LINE
  8
DETAIL
  6
CONTINUOUS
 62
     5
 10
-232.0
 20
-41.349999999999987
 30
0.0
 11
-232.0
 21
-50.650000000000013
 31
0.0
  0
CIRCLE
  8
DETAIL
  6
CONTINUOUS
 62
     5
 10
-189.34999999999999
 20
-46.0
 30
0.0
 40
4.6500000000000004
  0
LINE
  8
DETAIL
  6
CONTINUOUS
 62
     5
 10
-179.34999999999999
 20
-55.0
 30
0.0
 11
-184.34999999999999
 21
-60.0
 31
0.0
  0
LINE
  8
DETAIL
  6
CONTINUOUS
 62
     5
 10
-200.58740599999999
 20
-80.0
 30
0.0
 11
-228.15000000000001
 21
-80.0
 31
0.0
  0
LINE
  8
DETAIL
  6
CONTINUOUS
 62
     5
 10
-229.34999999999999
 20
-80.0
 30
0.0
 11
-209.34999999999999
 21
-80.0
 31
0.0
  0
LINE
  8
DETAIL
  6
CONTINUOUS
 62
     5
 10
-213.80000000000001
 20
-80.0
 30
0.0
 11
-213.80000000000001
 21
-104.0
 31
0.0
  0
LINE
  8
DETAIL
  6
CONTINUOUS
 62
     5
 10
-220.19999999999999
 20
-80.0
 30
0.0
 11
-220.19999999999999
 21
-104.0
 31
0.0
  0
LINE
  8
DETAIL
  6
CONTINUOUS
 62
     5
 10
-213.0
 20
-80.0
 30
0.0
 11
-213.0
 21
-103.2
 31
0.0
  0
LINE
  8
DETAIL
  6
CONTINUOUS
 62
     5
 10
-221.0
 20
-80.0
 30
0.0
 11
-221.0
 21
-103.2
 31
0.0
  0
LINE
  8
DETAIL
  6
CONTINUOUS
 62
     5
 10
-221.0
 20
-103.2
 30
0.0
 11
-213.0
 21
-103.2
 31
0.0
  0
LINE
  8
DETAIL
  6
CONTINUOUS
 62
     5
 10
-220.19999999999999
 20
-104.0
 30
0.0
 11
-213.80000000000001
 21
-104.0
 31
0.0
  0
LINE
  8
DETAIL
  6
CONTINUOUS
 62
     5
 10
-213.80000000000001
 20
-104.0
 30
0.0
 11
-213.0
 21
-103.2
 31
0.0
  0
LINE
  8
DETAIL
  6
CONTINUOUS
 62
     5
 10
-221.0
 20
-103.2
 30
0.0
 11
-220.19999999999999
 21
-104.0
 31
0.0
  0
ARC
  8
DETAIL
  6
CONTINUOUS
 62
     5
 10
-200.34999999999999
 20
-65.0
 30
0.0
 40
5.0
 50
90.0
 51
180.0
  0
LINE
  8
DETAIL
  6
CONTINUOUS
 62
     5
 10
-205.34999999999999
 20
-78.800000000000011
 30
0.0
 11
-200.23593399999999
 21
-78.800000000000011
 31
0.0
  0
LINE
  8
DETAIL
  6
CONTINUOUS
 62
     5
 10
-199.34999999999999
 20
-73.0
 30
0.0
 11
-205.34999999999999
 21
-73.0
 31
0.0
  0
LINE
  8
DETAIL
  6
CONTINUOUS
 62
     5
 10
-199.34999999999999
 20
-73.0
 30
0.0
 11
-199.34999999999999
 21
-80.0
 31
0.0
  0
ARC
  8
DETAIL
  6
CONTINUOUS
 62
     5
 10
-200.23593399999999
 20
-77.599999999999994
 30
0.0
 40
1.2
 50
270.0
 51
317.58498799999728
  0
ARC
  8
DETAIL
  6
CONTINUOUS
 62
     5
 10
-200.58740599999999
 20
-77.599999999999994
 30
0.0
 40
2.3999999999999999
 50
270.0
 51
301.03662699999808
  0
LINE
  8
DETAIL
  6
CONTINUOUS
 62
     5
 10
-184.34999999999999
 20
-60.0
 30
0.0
 11
-200.34999999999999
 21
-60.0
 31
0.0
  0
LINE
  8
DETAIL
  6
CONTINUOUS
 62
     5
 10
-205.34999999999999
 20
-80.0
 30
0.0
 11
-205.34999999999999
 21
-65.0
 31
0.0
  0
LINE
  8
DETAIL
  6
CONTINUOUS
 62
     5
 10
-227.34999999999999
 20
-55.0
 30
0.0
 11
-227.34999999999999
 21
-80.0
 31
0.0
  0
LINE
  8
DETAIL
  6
DASHED
 62
     5
 10
-227.34999999999999
 20
-78.800000000000011
 30
0.0
 11
-228.15000000000001
 21
-78.800000000000011
 31
0.0
  0
ARC
  8
DETAIL
  6
CONTINUOUS
 62
     5
 10
-228.15000000000001
 20
-77.599999999999994
 30
0.0
 40
1.2
 50
180.0
 51
270.0
  0
ARC
  8
DETAIL
  6
CONTINUOUS
 62
     5
 10
-228.15000000000001
 20
-77.599999999999994
 30
0.0
 40
2.3999999999999999
 50
180.0
 51
270.0
  0
LINE
  8
DETAIL
  6
CONTINUOUS
 62
     5
 10
-229.34999999999999
 20
-79.678460999999999
 30
0.0
 11
-229.34999999999999
 21
-80.0
 31
0.0
  0
LINE
  8
DETAIL
  6
CONTINUOUS
 62
     5
 10
-229.34999999999999
 20
-73.0
 30
0.0
 11
-227.34999999999999
 21
-73.0
 31
0.0
  0
LINE
  8
DETAIL
  6
CONTINUOUS
 62
     5
 10
-230.55000000000001
 20
-55.0
 30
0.0
 11
-229.34999999999999
 21
-55.0
 31
0.0
  0
LINE
  8
DETAIL
  6
CONTINUOUS
 62
     5
 10
-231.44999999999999
 20
-50.650000000000013
 30
0.0
 11
-232.0
 21
-50.650000000000013
 31
0.0
  0
LINE
  8
DETAIL
  6
CONTINUOUS
 62
     5
 10
-179.34999999999999
 20
55.0
 30
0.0
 11
-184.34999999999999
 21
60.0
 31
0.0
  0
LINE
  8
DETAIL
  6
CONTINUOUS
 62
     5
 10
-184.34999999999999
 20
35.0
 30
0.0
 11
-179.34999999999999
 21
40.0
 31
0.0
  0
LINE
  8
DETAIL
  6
CONTINUOUS
 62
     5
 10
-184.34999999999999
 20
-35.0
 30
0.0
 11
-179.34999999999999
 21
-40.0
 31
0.0
  0
LINE
  8
DETAIL
  6
CONTINUOUS
 62
     5
 10
-179.34999999999999
 20
40.0
 30
0.0
 11
-179.34999999999999
 21
55.0
 31
0.0
  0
LINE
  8
DETAIL
  6
CONTINUOUS
 62
     5
 10
-229.34999999999999
 20
-35.0
 30
0.0
 11
-229.34999999999999
 21
35.0
 31
0.0
  0
LINE
  8
DETAIL
  6
CONTINUOUS
 62
     5
 10
-184.34999999999999
 20
-35.0
 30
0.0
 11
-207.34999999999999
 21
-35.0
 31
0.0
  0
LINE
  8
DETAIL
  6
CONTINUOUS
 62
     5
 10
-187.22867999999991
 20
-43.878680000000003
 30
0.0
 11
-191.47131999999999
 21
-48.121319999999997
 31
0.0
  0
LINE
  8
DETAIL
  6
CONTINUOUS
 62
     5
 10
-187.22867999999991
 20
-48.121319999999997
 30
0.0
 11
-191.47131999999999
 21
-43.878680000000003
 31
0.0
  0
LINE
  8
DETAIL
  6
CONTINUOUS
 62
     5
 10
-229.34999999999999
 20
-35.0
 30
0.0
 11
-230.55000000000001
 21
-35.0
 31
0.0
  0
LINE
  8
DETAIL
  6
CONTINUOUS
 62
     5
 10
-230.55000000000001
 20
-42.25
 30
0.0
 11
-231.44999999999999
 21
-41.349999999999987
 31
0.0
  0
LINE
  8
DETAIL
  6
CONTINUOUS
 62
     5
 10
-231.44999999999999
 20
-41.349999999999987
 30
0.0
 11
-232.0
 21
-41.349999999999987
 31
0.0
  0
LINE
  8
DETAIL
  6
CONTINUOUS
 62
     5
 10
-207.34999999999999
 20
35.0
 30
0.0
 11
-227.34999999999999
 21
55.0
 31
0.0
  0
CIRCLE
  8
DETAIL
  6
CONTINUOUS
 62
     5
 10
-189.34999999999999
 20
46.0
 30
0.0
 40
4.6500000000000004
  0
LINE
  8
DETAIL
  6
CONTINUOUS
 62
     5
 10
-184.34999999999999
 20
35.0
 30
0.0
 11
-207.34999999999999
 21
35.0
 31
0.0
  0
ARC
  8
DETAIL
  6
CONTINUOUS
 62
     5
 10
-200.34999999999999
 20
65.0
 30
0.0
 40
5.0
 50
180.0
 51
270.0
  0
LINE
  8
DETAIL
  6
CONTINUOUS
 62
     5
 10
-199.34999999999999
 20
73.0
 30
0.0
 11
-205.34999999999999
 21
73.0
 31
0.0
  0
LINE
  8
DETAIL
  6
CONTINUOUS
 62
     5
 10
-187.22867999999991
 20
43.878679999999967
 30
0.0
 11
-191.47131999999999
 21
48.121320000000033
 31
0.0
  0
LINE
  8
DETAIL
  6
CONTINUOUS
 62
     5
 10
-187.22867999999991
 20
48.121320000000033
 30
0.0
 11
-191.47131999999999
 21
43.878679999999967
 31
0.0
  0
LINE
  8
DETAIL
  6
CONTINUOUS
 62
     5
 10
-184.34999999999999
 20
60.0
 30
0.0
 11
-200.34999999999999
 21
60.0
 31
0.0
  0
LINE
  8
DETAIL
  6
CONTINUOUS
 62
     5
 10
-231.44999999999999
 20
41.350000000000023
 30
0.0
 11
-231.44999999999999
 21
50.649999999999977
 31
0.0
  0
LINE
  8
DETAIL
  6
CONTINUOUS
 62
     5
 10
-232.0
 20
41.350000000000023
 30
0.0
 11
-232.0
 21
50.649999999999977
 31
0.0
  0
LINE
  8
DETAIL
  6
CONTINUOUS
 62
     5
 10
-229.34999999999999
 20
35.0
 30
0.0
 11
-230.55000000000001
 21
35.0
 31
0.0
  0
LINE
  8
DETAIL
  6
CONTINUOUS
 62
     5
 10
-230.55000000000001
 20
42.25
 30
0.0
 11
-231.44999999999999
 21
41.350000000000023
 31
0.0
  0
LINE
  8
DETAIL
  6
CONTINUOUS
 62
     5
 10
-231.44999999999999
 20
41.350000000000023
 30
0.0
 11
-232.0
 21
41.350000000000023
 31
0.0
  0
LINE
  8
DETAIL
  6
CONTINUOUS
 62
     5
 10
-230.55000000000001
 20
49.75
 30
0.0
 11
-231.44999999999999
 21
50.649999999999977
 31
0.0
  0
LINE
  8
DETAIL
  6
CONTINUOUS
 62
     5
 10
-231.44999999999999
 20
50.649999999999977
 30
0.0
 11
-232.0
 21
50.649999999999977
 31
0.0
  0
LINE
  8
DETAIL
  6
CONTINUOUS
 62
     5
 10
-230.55000000000001
 20
55.0
 30
0.0
 11
-229.34999999999999
 21
55.0
 31
0.0
  0
LINE
  8
DETAIL
  6
CONTINUOUS
 62
     5
 10
-229.34999999999999
 20
73.0
 30
0.0
 11
-227.34999999999999
 21
73.0
 31
0.0
  0
LINE
  8
DETAIL
  6
CONTINUOUS
 62
     5
 10
-200.58740599999999
 20
80.0
 30
0.0
 11
-228.15000000000001
 21
80.0
 31
0.0
  0
LINE
  8
DETAIL
  6
CONTINUOUS
 62
     5
 10
-229.34999999999999
 20
80.0
 30
0.0
 11
-209.34999999999999
 21
80.0
 31
0.0
  0
LINE
  8
DETAIL
  6
CONTINUOUS
 62
     5
 10
-205.34999999999999
 20
78.800000000000011
 30
0.0
 11
-200.23593399999999
 21
78.800000000000011
 31
0.0
  0
ARC
  8
DETAIL
  6
CONTINUOUS
 62
     5
 10
-200.58740599999999
 20
77.600000000000023
 30
0.0
 40
2.3999999999999999
 50
58.963373000001909
 51
90.0
  0
ARC
  8
DETAIL
  6
CONTINUOUS
 62
     5
 10
-200.23593399999999
 20
77.600000000000023
 30
0.0
 40
1.2
 50
42.415012000002733
 51
90.0
  0
LINE
  8
DETAIL
  6
CONTINUOUS
 62
     5
 10
-213.80000000000001
 20
80.0
 30
0.0
 11
-213.80000000000001
 21
104.0
 31
0.0
  0
LINE
  8
DETAIL
  6
CONTINUOUS
 62
     5
 10
-220.19999999999999
 20
80.0
 30
0.0
 11
-220.19999999999999
 21
104.0
 31
0.0
  0
LINE
  8
DETAIL
  6
CONTINUOUS
 62
     5
 10
-213.0
 20
80.0
 30
0.0
 11
-213.0
 21
103.2
 31
0.0
  0
LINE
  8
DETAIL
  6
CONTINUOUS
 62
     5
 10
-221.0
 20
80.0
 30
0.0
 11
-221.0
 21
103.2
 31
0.0
  0
LINE
  8
DETAIL
  6
CONTINUOUS
 62
     5
 10
-221.0
 20
103.2
 30
0.0
 11
-213.0
 21
103.2
 31
0.0
  0
LINE
  8
DETAIL
  6
CONTINUOUS
 62
     5
 10
-220.19999999999999
 20
104.0
 30
0.0
 11
-213.80000000000001
 21
104.0
 31
0.0
  0
LINE
  8
DETAIL
  6
CONTINUOUS
 62
     5
 10
-213.80000000000001
 20
104.0
 30
0.0
 11
-213.0
 21
103.2
 31
0.0
  0
LINE
  8
DETAIL
  6
CONTINUOUS
 62
     5
 10
-221.0
 20
103.2
 30
0.0
 11
-220.19999999999999
 21
104.0
 31
0.0
  0
ARC
  8
DETAIL
  6
CONTINUOUS
 62
     5
 10
-228.15000000000001
 20
77.600000000000023
 30
0.0
 40
1.2
 50
90.0
 51
180.0
  0
ARC
  8
DETAIL
  6
CONTINUOUS
 62
     5
 10
-228.15000000000001
 20
77.600000000000023
 30
0.0
 40
2.3999999999999999
 50
90.0
 51
180.0
  0
LINE
  8
DETAIL
  6
DASHED
 62
     5
 10
-227.34999999999999
 20
78.800000000000011
 30
0.0
 11
-228.15000000000001
 21
78.800000000000011
 31
0.0
  0
LINE
  8
DETAIL
  6
CONTINUOUS
 62
     5
 10
-229.34999999999999
 20
79.67846099999997
 30
0.0
 11
-229.34999999999999
 21
80.0
 31
0.0
  0
LINE
  8
SIZE
  6
CONTINUOUS
 62
    30
 10
247.0
 20
80.0
 30
0.0
 11
403.05554400000011
 21
80.0
 31
0.0
  0
LINE
  8
SIZE
  6
CONTINUOUS
 62
    30
 10
247.0
 20
-80.0
 30
0.0
 11
403.05554400000011
 21
-80.0
 31
0.0
  0
LINE
  8
SIZE
  6
CONTINUOUS
 62
    30
 10
383.05554400000011
 20
92.0
 30
0.0
 11
383.05554400000011
 21
104.0
 31
0.0
  0
LINE
  8
SIZE
  6
CONTINUOUS
 62
    30
 10
383.05554400000011
 20
-92.0
 30
0.0
 11
383.05554400000011
 21
-104.0
 31
0.0
  0
LINE
  8
SIZE
  6
CONTINUOUS
 62
    30
 10
383.05554400000011
 20
80.0
 30
0.0
 11
383.05554400000011
 21
-80.0
 31
0.0
  0
CIRCLE
  8
SIZE
  6
CONTINUOUS
 62
    30
 10
383.05554400000011
 20
80.0
 30
0.0
 40
6.0
  0
LINE
  8
SIZE
  6
CONTINUOUS
 62
    30
 10
383.05554400000011
 20
80.0
 30
0.0
 11
383.05554400000011
 21
92.0
 31
0.0
  0
CIRCLE
  8
SIZE
  6
CONTINUOUS
 62
    30
 10
383.05554400000011
 20
-80.0
 30
0.0
 40
6.0
  0
LINE
  8
SIZE
  6
CONTINUOUS
 62
    30
 10
383.05554400000011
 20
-80.0
 30
0.0
 11
383.05554400000011
 21
-92.0
 31
0.0
  0
TEXT
  8
SIZE
  6
CONTINUOUS
 62
    30
 10
358.05554400000011
 20
-68.571428571428555
 30
0.0
 40
64.0
  1
160
 50
90.0
 41
0.9
 72
     1
 11
358.05554400000011
 21
0.0
 31
0.0
  0
POINT
  8
DEFPOINTS
  6
CONTINUOUS
 62
    30
 10
227.0
 20
80.0
 30
0.0
  0
POINT
  8
DEFPOINTS
  6
CONTINUOUS
 62
    30
 10
227.0
 20
-80.0
 30
0.0
  0
POINT
  8
DEFPOINTS
  6
CONTINUOUS
 62
    30
 10
383.05554400000011
 20
-80.0
 30
0.0
  0
LINE
  8
SIZE
  6
CONTINUOUS
 62
    30
 10
240.55000000000001
 20
104.0
 30
0.0
 11
403.05554400000011
 21
104.0
 31
0.0
  0
LINE
  8
SIZE
  6
CONTINUOUS
 62
    30
 10
247.0
 20
80.0
 30
0.0
 11
403.05554400000011
 21
80.0
 31
0.0
  0
LINE
  8
SIZE
  6
CONTINUOUS
 62
    30
 10
383.05554400000011
 20
68.0
 30
0.0
 11
383.05554400000011
 21
56.0
 31
0.0
  0
LINE
  8
SIZE
  6
CONTINUOUS
 62
    30
 10
383.05554400000011
 20
116.0
 30
0.0
 11
383.05554400000011
 21
274.0
 31
0.0
  0
LINE
  8
SIZE
  6
CONTINUOUS
 62
    30
 10
383.05554400000011
 20
80.0
 30
0.0
 11
383.05554400000011
 21
104.0
 31
0.0
  0
CIRCLE
  8
SIZE
  6
CONTINUOUS
 62
    30
 10
383.05554400000011
 20
80.0
 30
0.0
 40
6.0
  0
LINE
  8
SIZE
  6
CONTINUOUS
 62
    30
 10
383.05554400000011
 20
80.0
 30
0.0
 11
383.05554400000011
 21
68.0
 31
0.0
  0
CIRCLE
  8
SIZE
  6
CONTINUOUS
 62
    30
 10
383.05554400000011
 20
104.0
 30
0.0
 40
6.0
  0
LINE
  8
SIZE
  6
CONTINUOUS
 62
    30
 10
383.05554400000011
 20
104.0
 30
0.0
 11
383.05554400000011
 21
116.0
 31
0.0
  0
TEXT
  8
SIZE
  6
CONTINUOUS
 62
    30
 10
358.05554400000011
 20
153.0
 30
0.0
 40
64.0
  1
24
 50
90.0
 41
0.9
 72
     1
 11
358.05554400000011
 21
201.0
 31
0.0
  0
POINT
  8
DEFPOINTS
  6
CONTINUOUS
 62
    30
 10
220.55000000000001
 20
104.0
 30
0.0
  0
POINT
  8
DEFPOINTS
  6
CONTINUOUS
 62
    30
 10
227.0
 20
80.0
 30
0.0
  0
POINT
  8
DEFPOINTS
  6
CONTINUOUS
 62
    30
 10
383.05554400000011
 20
80.0
 30
0.0
  0
LINE
  8
SIZE
  6
CONTINUOUS
 62
    30
 10
247.0
 20
-80.0
 30
0.0
 11
403.05554400000011
 21
-80.0
 31
0.0
  0
LINE
  8
SIZE
  6
CONTINUOUS
 62
    30
 10
240.19999999999999
 20
-104.0
 30
0.0
 11
403.05554400000011
 21
-104.0
 31
0.0
  0
LINE
  8
SIZE
  6
CONTINUOUS
 62
    30
 10
383.05554400000011
 20
-68.0
 30
0.0
 11
383.05554400000011
 21
-56.0
 31
0.0
  0
LINE
  8
SIZE
  6
CONTINUOUS
 62
    30
 10
383.05554400000011
 20
-116.0
 30
0.0
 11
383.05554400000011
 21
-274.0
 31
0.0
  0
LINE
  8
SIZE
  6
CONTINUOUS
 62
    30
 10
383.05554400000011
 20
-80.0
 30
0.0
 11
383.05554400000011
 21
-104.0
 31
0.0
  0
CIRCLE
  8
SIZE
  6
CONTINUOUS
 62
    30
 10
383.05554400000011
 20
-80.0
 30
0.0
 40
6.0
  0
LINE
  8
SIZE
  6
CONTINUOUS
 62
    30
 10
383.05554400000011
 20
-80.0
 30
0.0
 11
383.05554400000011
 21
-68.0
 31
0.0
  0
CIRCLE
  8
SIZE
  6
CONTINUOUS
 62
    30
 10
383.05554400000011
 20
-104.0
 30
0.0
 40
6.0
  0
LINE
  8
SIZE
  6
CONTINUOUS
 62
    30
 10
383.05554400000011
 20
-104.0
 30
0.0
 11
383.05554400000011
 21
-116.0
 31
0.0
  0
TEXT
  8
SIZE
  6
CONTINUOUS
 62
    30
 10
358.05554400000011
 20
-249.0
 30
0.0
 40
64.0
  1
24
 50
90.0
 41
0.9
 72
     1
 11
358.05554400000011
 21
-201.0
 31
0.0
  0
POINT
  8
DEFPOINTS
  6
CONTINUOUS
 62
    30
 10
227.0
 20
-80.0
 30
0.0
  0
POINT
  8
DEFPOINTS
  6
CONTINUOUS
 62
    30
 10
220.19999999999999
 20
-104.0
 30
0.0
  0
POINT
  8
DEFPOINTS
  6
CONTINUOUS
 62
    30
 10
383.05554400000011
 20
-104.0
 30
0.0
  0
LINE
  8
OUTLINE
  6
CONTINUOUS
 62
     3
 10
199.34999999999991
 20
80.0
 30
0.0
 11
-205.34999999999999
 21
80.0
 31
0.0
  0
LINE
  8
OUTLINE
  6
CONTINUOUS
 62
     3
 10
199.34999999999991
 20
-80.0
 30
0.0
 11
-199.34999999999999
 21
-80.0
 31
0.0
  0
LINE
  8
OUTLINE
  6
CONTINUOUS
 62
     3
 10
230.55000000000001
 20
35.0
 30
0.0
 11
230.55000000000001
 21
77.600000000000023
 31
0.0
  0
LINE
  8
OUTLINE
  6
CONTINUOUS
 62
     3
 10
200.5874060000001
 20
-80.0
 30
0.0
 11
228.15000000000009
 21
-80.0
 31
0.0
  0
LINE
  8
OUTLINE
  6
CONTINUOUS
 62
     3
 10
229.34999999999991
 20
-80.0
 30
0.0
 11
209.34999999999991
 21
-80.0
 31
0.0
  0
LINE
  8
OUTLINE
  6
CONTINUOUS
 62
     3
 10
230.55000000000001
 20
-35.0
 30
0.0
 11
230.55000000000001
 21
-77.599999999999994
 31
0.0
  0
ARC
  8
OUTLINE
  6
CONTINUOUS
 62
     3
 10
228.15000000000009
 20
-77.599999999999994
 30
0.0
 40
2.3999999999999999
 50
270.0
 51
0.0
  0
LINE
  8
OUTLINE
  6
CONTINUOUS
 62
     3
 10
229.34999999999991
 20
-79.678460999999999
 30
0.0
 11
229.34999999999991
 21
-80.0
 31
0.0
  0
LINE
  8
OUTLINE
  6
CONTINUOUS
 62
     3
 10
229.34999999999991
 20
35.0
 30
0.0
 11
229.34999999999991
 21
-35.0
 31
0.0
  0
LINE
  8
OUTLINE
  6
CONTINUOUS
 62
     3
 10
229.34999999999991
 20
-35.0
 30
0.0
 11
230.55000000000001
 21
-35.0
 31
0.0
  0
LINE
  8
OUTLINE
  6
CONTINUOUS
 62
     3
 10
229.34999999999991
 20
35.0
 30
0.0
 11
230.55000000000001
 21
35.0
 31
0.0
  0
ARC
  8
OUTLINE
  6
CONTINUOUS
 62
     3
 10
200.5874060000001
 20
-77.599999999999994
 30
0.0
 40
2.3999999999999999
 50
238.96337300000189
 51
270.0
  0
LINE
  8
OUTLINE
  6
CONTINUOUS
 62
     3
 10
200.5874060000001
 20
80.0
 30
0.0
 11
228.15000000000009
 21
80.0
 31
0.0
  0
LINE
  8
OUTLINE
  6
CONTINUOUS
 62
     3
 10
229.34999999999991
 20
80.0
 30
0.0
 11
209.34999999999991
 21
80.0
 31
0.0
  0
ARC
  8
OUTLINE
  6
CONTINUOUS
 62
     3
 10
228.15000000000009
 20
77.600000000000023
 30
0.0
 40
2.3999999999999999
 50
0.0
 51
90.0
  0
LINE
  8
OUTLINE
  6
CONTINUOUS
 62
     3
 10
229.34999999999991
 20
79.67846099999997
 30
0.0
 11
229.34999999999991
 21
80.0
 31
0.0
  0
ARC
  8
OUTLINE
  6
CONTINUOUS
 62
     3
 10
200.5874060000001
 20
77.600000000000023
 30
0.0
 40
2.3999999999999999
 50
90.0
 51
121.03662699999811
  0
LINE
  8
OUTLINE
  6
CONTINUOUS
 62
     3
 10
-230.55000000000001
 20
35.0
 30
0.0
 11
-230.55000000000001
 21
77.600000000000023
 31
0.0
  0
LINE
  8
OUTLINE
  6
CONTINUOUS
 62
     3
 10
-230.55000000000001
 20
-35.0
 30
0.0
 11
-230.55000000000001
 21
-77.599999999999994
 31
0.0
  0
LINE
  8
OUTLINE
  6
CONTINUOUS
 62
     3
 10
-200.58740599999999
 20
-80.0
 30
0.0
 11
-228.15000000000001
 21
-80.0
 31
0.0
  0
LINE
  8
OUTLINE
  6
CONTINUOUS
 62
     3
 10
-229.34999999999999
 20
-80.0
 30
0.0
 11
-209.34999999999999
 21
-80.0
 31
0.0
  0
ARC
  8
OUTLINE
  6
CONTINUOUS
 62
     3
 10
-200.58740599999999
 20
-77.599999999999994
 30
0.0
 40
2.3999999999999999
 50
270.0
 51
301.03662699999808
  0
ARC
  8
OUTLINE
  6
CONTINUOUS
 62
     3
 10
-228.15000000000001
 20
-77.599999999999994
 30
0.0
 40
2.3999999999999999
 50
180.0
 51
270.0
  0
LINE
  8
OUTLINE
  6
CONTINUOUS
 62
     3
 10
-229.34999999999999
 20
-79.678460999999999
 30
0.0
 11
-229.34999999999999
 21
-80.0
 31
0.0
  0
LINE
  8
OUTLINE
  6
CONTINUOUS
 62
     3
 10
-229.34999999999999
 20
-35.0
 30
0.0
 11
-229.34999999999999
 21
35.0
 31
0.0
  0
LINE
  8
OUTLINE
  6
CONTINUOUS
 62
     3
 10
-229.34999999999999
 20
-35.0
 30
0.0
 11
-230.55000000000001
 21
-35.0
 31
0.0
  0
LINE
  8
OUTLINE
  6
CONTINUOUS
 62
     3
 10
-229.34999999999999
 20
35.0
 30
0.0
 11
-230.55000000000001
 21
35.0
 31
0.0
  0
LINE
  8
OUTLINE
  6
CONTINUOUS
 62
     3
 10
-200.58740599999999
 20
80.0
 30
0.0
 11
-228.15000000000001
 21
80.0
 31
0.0
  0
LINE
  8
OUTLINE
  6
CONTINUOUS
 62
     3
 10
-229.34999999999999
 20
80.0
 30
0.0
 11
-209.34999999999999
 21
80.0
 31
0.0
  0
ARC
  8
OUTLINE
  6
CONTINUOUS
 62
     3
 10
-200.58740599999999
 20
77.600000000000023
 30
0.0
 40
2.3999999999999999
 50
58.963373000001909
 51
90.0
  0
ARC
  8
OUTLINE
  6
CONTINUOUS
 62
     3
 10
-228.15000000000001
 20
77.600000000000023
 30
0.0
 40
2.3999999999999999
 50
90.0
 51
180.0
  0
LINE
  8
OUTLINE
  6
CONTINUOUS
 62
     3
 10
-229.34999999999999
 20
79.67846099999997
 30
0.0
 11
-229.34999999999999
 21
80.0
 31
0.0
  0
TEXT
  8
NOTE
  6
CONTINUOUS
 62
     4
 10
-521.12483600000007
 20
-185.00401400000001
 30
0.0
 40
40.0
  1
4-M8ボルト
 41
0.9
  0
LINE
  8
NOTE
  6
CONTINUOUS
 62
     4
 39
50.0
 10
-547.81402100000003
 20
-195.383657
 30
0.0
 11
-258.71678700000012
 21
-195.383657
 31
0.0
  0
LINE
  8
NOTE
  6
CONTINUOUS
 62
     4
 39
50.0
 10
-258.71678700000012
 20
-195.383657
 30
0.0
 11
-220.19999999999999
 21
-104.0
 31
0.0
  0
LINE
  8
NOTE
  6
CONTINUOUS
 62
     4
 10
-225.0114189999999
 20
-143.189503
 30
0.0
 11
-220.19999999999999
 21
-104.0
 31
0.0
  0
LINE
  8
NOTE
  6
CONTINUOUS
 62
     4
 10
-220.19999999999999
 20
-104.0
 30
0.0
 11
-243.53284400000001
 21
-133.93339599999999
 31
0.0
  0
TEXT
  8
NOTE
  6
CONTINUOUS
 62
     4
 10
-521.73156200000005
 20
160.45139800000001
 30
0.0
 40
40.0
  1
4-M8ボルト
 41
0.9
  0
LINE
  8
NOTE
  6
CONTINUOUS
 62
     4
 39
50.0
 10
-538.42433700000004
 20
150.071755
 30
0.0
 11
-259.32351299999999
 21
150.071755
 31
0.0
  0
LINE
  8
NOTE
  6
CONTINUOUS
 62
     4
 39
50.0
 10
-259.32351299999999
 20
150.071755
 30
0.0
 11
-220.19999999999999
 21
104.0
 31
0.0
  0
LINE
  8
NOTE
  6
CONTINUOUS
 62
     4
 10
-253.18680099999989
 20
126.624565
 30
0.0
 11
-220.19999999999999
 21
104.0
 31
0.0
  0
LINE
  8
NOTE
  6
CONTINUOUS
 62
     4
 10
-220.19999999999999
 20
104.0
 30
0.0
 11
-237.45512500000001
 21
140.086849
 31
0.0
  0
LINE
  8
SIZE
  6
CONTINUOUS
 62
    30
 10
-232.0
 20
66.0
 30
0.0
 11
-232.0
 21
255.24754200000001
 31
0.0
  0
LINE
  8
SIZE
  6
CONTINUOUS
 62
    30
 10
232.0
 20
66.0
 30
0.0
 11
232.0
 21
255.24754200000001
 31
0.0
  0
LINE
  8
SIZE
  6
CONTINUOUS
 62
    30
 10
-220.0
 20
235.24754200000001
 30
0.0
 11
220.0
 21
235.24754200000001
 31
0.0
  0
CIRCLE
  8
SIZE
  6
CONTINUOUS
 62
    30
 10
-232.0
 20
235.24754200000001
 30
0.0
 40
6.0
  0
LINE
  8
SIZE
  6
CONTINUOUS
 62
    30
 10
-232.0
 20
235.24754200000001
 30
0.0
 11
-220.0
 21
235.24754200000001
 31
0.0
  0
CIRCLE
  8
SIZE
  6
CONTINUOUS
 62
    30
 10
232.0
 20
235.24754200000001
 30
0.0
 40
6.0
  0
LINE
  8
SIZE
  6
CONTINUOUS
 62
    30
 10
232.0
 20
235.24754200000001
 30
0.0
 11
220.0
 21
235.24754200000001
 31
0.0
  0
TEXT
  8
SIZE
  6
CONTINUOUS
 62
    30
 10
-75.428571428571416
 20
260.24754200000012
 30
0.0
 40
64.0
  1
464
 41
0.9
 72
     1
 11
0.0
 21
260.24754200000012
 31
0.0
  0
POINT
  8
DEFPOINTS
  6
CONTINUOUS
 62
    30
 10
-232.0
 20
46.0
 30
0.0
  0
POINT
  8
DEFPOINTS
  6
CONTINUOUS
 62
    30
 10
232.0
 20
46.0
 30
0.0
  0
POINT
  8
DEFPOINTS
  6
CONTINUOUS
 62
    30
 10
232.0
 20
235.24754200000001
 30
0.0
  0
LINE
  8
SIZE
  6
CONTINUOUS
 62
    30
 10
-217.0
 20
124.0
 30
0.0
 11
-217.0
 21
152.06690699999999
 31
0.0
  0
LINE
  8
SIZE
  6
CONTINUOUS
 62
    30
 10
217.0
 20
124.0
 30
0.0
 11
217.0
 21
152.06690699999999
 31
0.0
  0
LINE
  8
SIZE
  6
CONTINUOUS
 62
    30
 10
-205.0
 20
132.06690699999999
 30
0.0
 11
205.0
 21
132.06690699999999
 31
0.0
  0
CIRCLE
  8
SIZE
  6
CONTINUOUS
 62
    30
 10
-217.0
 20
132.06690699999999
 30
0.0
 40
6.0
  0
LINE
  8
SIZE
  6
CONTINUOUS
 62
    30
 10
-217.0
 20
132.06690699999999
 30
0.0
 11
-205.0
 21
132.06690699999999
 31
0.0
  0
CIRCLE
  8
SIZE
  6
CONTINUOUS
 62
    30
 10
217.0
 20
132.06690699999999
 30
0.0
 40
6.0
  0
LINE
  8
SIZE
  6
CONTINUOUS
 62
    30
 10
217.0
 20
132.06690699999999
 30
0.0
 11
205.0
 21
132.06690699999999
 31
0.0
  0
TEXT
  8
SIZE
  6
CONTINUOUS
 62
    30
 10
-75.428571428571416
 20
157.06690699999999
 30
0.0
 40
64.0
  1
434
 41
0.9
 72
     1
 11
0.0
 21
157.06690699999999
 31
0.0
  0
POINT
  8
DEFPOINTS
  6
CONTINUOUS
 62
    30
 10
-217.0
 20
104.0
 30
0.0
  0
POINT
  8
DEFPOINTS
  6
CONTINUOUS
 62
    30
 10
217.0
 20
104.0
 30
0.0
  0
POINT
  8
DEFPOINTS
  6
CONTINUOUS
 62
    30
 10
217.0
 20
132.06690699999999
 30
0.0
  0
LINE
  8
DETAIL
  6
CONTINUOUS
 62
     5
 39
50.0
 10
-209.34999999999999
 20
-37.0
 30
0.0
 11
-209.34999999999999
 21
37.0
 31
0.0
  0
LINE
  8
NOTE
  6
CENTER
 62
     4
 39
50.0
 10
-217.0
 20
116.39482187401561
 30
0.0
 11
-217.0
 21
67.708492913514874
 31
0.0
  0
LINE
  8
NOTE
  6
CENTER
 62
     4
 39
50.0
 10
216.99999999999989
 20
116.39482187401561
 30
0.0
 11
216.99999999999989
 21
67.708492913514874
 31
0.0
  0
ENDSEC
  0
EOF
