  0
SECTION
  2
HEADER
  9
$ACADVER
  1
AC1009
  9
$DWGCODEPAGE
  3
dos932
  9
$INSBASE
 10
0.0
 20
0.0
 30
0.0
  9
$EXTMIN
 10
-623.17084399999999
 20
-403.055545
 30
0.0
  9
$EXTMAX
 10
669.87564657142832
 20
559.58722400000011
 30
50.0
  9
$LIMMIN
 10
-2970.0
 20
-2100.0
  9
$LIMMAX
 10
2970.0
 20
2100.0
  9
$ORTHOMODE
 70
     1
  9
$REGENMODE
 70
     1
  9
$FILLMODE
 70
     1
  9
$QTEXTMODE
 70
     0
  9
$MIRRTEXT
 70
     0
  9
$LTSCALE
 40
20.0
  9
$ATTMODE
 70
     1
  9
$TEXTSIZE
 40
64.0
  9
$TRACEWID
 40
0.05
  9
$TEXTSTYLE
  7
STANDARD
  9
$CLAYER
  8
NOTE
  9
$CELTYPE
  6
CONTINUOUS
  9
$CECOLOR
 62
     7
  9
$DIMSCALE
 40
1.0
  9
$DIMASZ
 40
12.0
  9
$DIMEXO
 40
20.0
  9
$DIMDLI
 40
200.0
  9
$DIMRND
 40
0.0
  9
$DIMDLE
 40
0.0
  9
$DIMEXE
 40
20.0
  9
$DIMTP
 40
0.0
  9
$DIMTM
 40
0.0
  9
$DIMTXT
 40
64.0
  9
$DIMCEN
 40
0.09
  9
$DIMTSZ
 40
0.0
  9
$DIMTOL
 70
     0
  9
$DIMLIM
 70
     0
  9
$DIMTIH
 70
     0
  9
$DIMTOH
 70
     0
  9
$DIMSE1
 70
     0
  9
$DIMSE2
 70
     0
  9
$DIMTAD
 70
     1
  9
$DIMZIN
 70
     8
  9
$DIMBLK
  1

  9
$DIMASO
 70
     1
  9
$DIMSHO
 70
     0
  9
$DIMPOST
  1

  9
$DIMAPOST
  1

  9
$DIMALT
 70
     0
  9
$DIMALTD
 70
     2
  9
$DIMALTF
 40
25.399999999999999
  9
$DIMLFAC
 40
1.0
  9
$DIMTOFL
 70
     1
  9
$DIMTVP
 40
0.0
  9
$DIMTIX
 70
     1
  9
$DIMSOXD
 70
     0
  9
$DIMSAH
 70
     0
  9
$DIMBLK1
  1

  9
$DIMBLK2
  1

  9
$DIMSTYLE
  2
STANDARD
  9
$DIMCLRD
 70
     7
  9
$DIMCLRE
 70
     7
  9
$DIMCLRT
 70
     7
  9
$DIMTFAC
 40
1.0
  9
$DIMGAP
 40
25.0
  9
$LUNITS
 70
     2
  9
$LUPREC
 70
     4
  9
$SKETCHINC
 40
0.1
  9
$FILLETRAD
 40
3.0
  9
$AUNITS
 70
     1
  9
$AUPREC
 70
     3
  9
$MENU
  1
ACAD
  9
$ELEVATION
 40
0.0
  9
$PELEVATION
 40
0.0
  9
$THICKNESS
 40
50.0
  9
$LIMCHECK
 70
     0
  9
$CHAMFERA
 40
0.0
  9
$CHAMFERB
 40
0.0
  9
$SKPOLY
 70
     0
  9
$TDCREATE
 40
2453019.62301037
  9
$TDUPDATE
 40
2457372.647434317
  9
$TDINDWG
 40
1.7125651968
  9
$TDUSRTIMER
 40
1.7125651968
  9
$USRTIMER
 70
     1
  9
$ANGBASE
 50
0.0
  9
$ANGDIR
 70
     0
  9
$PDMODE
 70
     3
  9
$PDSIZE
 40
-2.0
  9
$PLINEWID
 40
0.0
  9
$SPLFRAME
 70
     0
  9
$SPLINETYPE
 70
     6
  9
$SPLINESEGS
 70
     8
  9
$SURFTAB1
 70
     6
  9
$SURFTAB2
 70
     6
  9
$SURFTYPE
 70
     6
  9
$SURFU
 70
     6
  9
$SURFV
 70
     6
  9
$UCSNAME
  2

  9
$UCSORG
 10
0.0
 20
0.0
 30
0.0
  9
$UCSXDIR
 10
1.0
 20
0.0
 30
0.0
  9
$UCSYDIR
 10
0.0
 20
1.0
 30
0.0
  9
$PUCSNAME
  2

  9
$PUCSORG
 10
0.0
 20
0.0
 30
0.0
  9
$PUCSXDIR
 10
1.0
 20
0.0
 30
0.0
  9
$PUCSYDIR
 10
0.0
 20
1.0
 30
0.0
  9
$USERI1
 70
     0
  9
$USERI2
 70
     0
  9
$USERI3
 70
     0
  9
$USERI4
 70
     0
  9
$USERI5
 70
     0
  9
$USERR1
 40
20.0
  9
$USERR2
 40
0.0
  9
$USERR3
 40
0.0
  9
$USERR4
 40
0.0
  9
$USERR5
 40
0.0
  9
$WORLDVIEW
 70
     1
  9
$SHADEDGE
 70
     3
  9
$SHADEDIF
 70
    70
  9
$TILEMODE
 70
     1
  9
$MAXACTVP
 70
    48
  9
$PINSBASE
 10
0.0
 20
0.0
 30
0.0
  9
$PLIMCHECK
 70
     0
  9
$PEXTMIN
 10
-100000000000000000000.0
 20
-100000000000000000000.0
 30
-100000000000000000000.0
  9
$PEXTMAX
 10
100000000000000000000.0
 20
100000000000000000000.0
 30
100000000000000000000.0
  9
$PLIMMIN
 10
0.0
 20
0.0
  9
$PLIMMAX
 10
12.0
 20
9.0
  9
$UNITMODE
 70
     0
  9
$VISRETAIN
 70
     0
  9
$PLINEGEN
 70
     0
  9
$PSLTSCALE
 70
     0
  9
$TREEDEPTH
 70
  3020
  9
$ATTDIA
 70
     0
  9
$ATTREQ
 70
     1
  9
$BLIPMODE
 70
     1
  9
$COORDS
 70
     1
  9
$DRAGMODE
 70
     2
  9
$OSMODE
 70
     0
  9
$HANDLING
 70
     0
  9
$HANDSEED
  5
E5D8
  0
ENDSEC
  0
SECTION
  2
TABLES
  0
TABLE
  2
LTYPE
 70
     4
  0
LTYPE
  2
CONTINUOUS
 70
     0
  3
実線
 72
    65
 73
     0
 40
0.0
  0
LTYPE
  2
DASHDOT
 70
     0
  3
____ _ ____ _ ____ _ ____ _ ____ _ ____ _ ____
 72
    65
 73
     4
 40
5.5
 49
4.0
 49
-0.6
 49
0.3
 49
-0.6
  0
LTYPE
  2
DASHED
 70
     0
  3
-- -- -- -- -- -- -- -- -- -- -- -- -- -- --
 72
    65
 73
     2
 40
0.75
 49
0.5
 49
-0.25
  0
LTYPE
  2
CENTER
 70
     0
  3
Center ____ _ ____ _ ____ _ ____ _ ____ _ ____
 72
    65
 73
     4
 40
1.0
 49
0.5
 49
-0.25
 49
0.0
 49
-0.25
  0
ENDTAB
  0
TABLE
  2
LAYER
 70
    12
  0
LAYER
  2
0
 70
     0
 62
     7
  6
CONTINUOUS
  0
LAYER
  2
BASIS
 70
     0
 62
     6
  6
DASHDOT
  0
LAYER
  2
OUTLINE
 70
     0
 62
     3
  6
CONTINUOUS
  0
LAYER
  2
DETAIL
 70
     0
 62
     5
  6
CONTINUOUS
  0
LAYER
  2
SIZE
 70
     0
 62
    30
  6
CONTINUOUS
  0
LAYER
  2
ARRANGE
 70
     0
 62
     1
  6
CONTINUOUS
  0
LAYER
  2
DEFPOINTS
 70
     0
 62
     7
  6
CONTINUOUS
  0
LAYER
  2
ETC
 70
     0
 62
    61
  6
CONTINUOUS
  0
LAYER
  2
NOTE
 70
     0
 62
     4
  6
CONTINUOUS
  0
LAYER
  2
FIX
 70
    64
 62
    11
  6
CONTINUOUS
  0
LAYER
  2
SERVICESPACE
 70
    64
 62
     2
  6
DASHDOT
  0
LAYER
  2
SYMBOLLINE
 70
    64
 62
    15
  6
CONTINUOUS
  0
ENDTAB
  0
TABLE
  2
STYLE
 70
     1
  0
STYLE
  2
STANDARD
 70
     0
 40
64.0
 41
0.9
 50
0.0
 71
     0
 42
64.0
  3
SIMPLEX.shx
  4
BIGFONT.shx
  0
ENDTAB
  0
TABLE
  2
APPID
 70
    15
  0
APPID
  2
ACAD
 70
     0
  0
APPID
  2
AUTOCAD_POSTSCRIPT_FIGURE
 70
     0
  0
APPID
  2
ACAD_EXEMPT_FROM_CAD_STANDARDS
 70
     0
  0
APPID
  2
ACAD_PSEXT
 70
     0
  0
APPID
  2
ACAUTHENVIRON
 70
     0
  0
APPID
  2
GENIUS_GENOENT_13
 70
     0
  0
APPID
  2
GENIUS_GENCFG_13
 70
     0
  0
APPID
  2
GENIUS_GENCFG0_13
 70
     0
  0
APPID
  2
GENIUS_GENCFG1_13
 70
     0
  0
APPID
  2
GENIUS_GENCFG2_13
 70
     0
  0
APPID
  2
GENIUS_GENCFG3_13
 70
     0
  0
APPID
  2
GENIUS_GENCFG4_13
 70
     0
  0
APPID
  2
GENIUS_GEVCFG0_13
 70
     0
  0
APPID
  2
CONTENTBLOCKICON
 70
     0
  0
APPID
  2
CONTENTBLOCKDESCRIPTION
 70
     0
  0
ENDTAB
  0
TABLE
  2
DIMSTYLE
 70
     1
  0
DIMSTYLE
  2
STANDARD
 70
     0
  3

  4

  5
_ORIGIN
  6

  7

 40
1.0
 41
12.0
 42
20.0
 43
200.0
 44
20.0
 45
0.0
 46
0.0
 47
0.0
 48
0.0
140
64.0
141
0.09
142
0.0
143
25.399999999999999
144
1.0
145
0.0
146
1.0
147
25.0
 71
     0
 72
     0
 73
     0
 74
     0
 75
     0
 76
     0
 77
     1
 78
     8
170
     0
171
     2
172
     1
173
     0
174
     1
175
     0
176
     7
177
     7
178
     7
  0
ENDTAB
  0
TABLE
  2
VIEW
 70
     1
  0
VIEW
  2
ALL
 70
     0
 40
4282.6198079999986
 10
0.0
 20
41.309904000000003
 41
5940.0
 11
0.0
 21
0.0
 31
1.0
 12
0.0
 22
0.0
 32
0.0
 42
50.0
 43
0.0
 44
0.0
 50
0.0
 71
     0
  0
ENDTAB
  0
TABLE
  2
UCS
 70
     0
  0
ENDTAB
  0
TABLE
  2
VPORT
 70
     1
  0
VPORT
  2
*ACTIVE
 70
     0
 10
0.0
 20
0.0
 11
1.0
 21
1.0
 12
525.80334940866555
 22
160.00808347726709
 13
0.0
 23
0.0
 14
1.0
 24
1.0
 15
0.0
 25
0.0
 16
0.0
 26
0.0
 36
1.0
 17
0.0
 27
0.0
 37
0.0
 40
1595.9645253520071
 41
1.29023746701847
 42
50.0
 43
0.0
 44
0.0
 50
0.0
 51
0.0
 71
     0
 72
  1000
 73
     1
 74
     0
 75
     0
 76
     0
 77
     0
 78
     0
  0
ENDTAB
  0
ENDSEC
  0
SECTION
  2
BLOCKS
  0
BLOCK
  8
0
  2
_ORIGIN
 70
     0
 10
0.0
 20
0.0
 30
0.0
  3
_ORIGIN
  1

  0
CIRCLE
  8
0
  6
CONTINUOUS
 62
     7
 10
0.0
 20
0.0
 30
0.0
 40
0.5
  0
LINE
  8
0
  6
CONTINUOUS
 62
     7
 10
0.0
 20
0.0
 30
0.0
 11
-1.0
 21
0.0
 31
0.0
  0
ENDBLK
  8
0
  0
ENDSEC
  0
SECTION
  2
ENTITIES
  0
TEXT
  8
ETC
  6
CONTINUOUS
 62
    61
 10
313.30421799999999
 20
519.58722399999999
 30
0.0
 40
40.0
  1
PS-35KW3_4
 41
0.9
  0
TEXT
  8
ETC
  6
CONTINUOUS
 62
    61
 10
309.11822400000011
 20
458.89094599999999
 30
0.0
 40
40.0
  1
システム部材
 41
0.9
  0
TEXT
  8
ETC
  6
CONTINUOUS
 62
    61
 10
359.7257259999999
 20
377.02083499999998
 30
0.0
 40
40.0
  1
PS-35KW3
 41
0.9
  0
TEXT
  8
NOTE
  6
CONTINUOUS
 62
     4
 10
-620.11625000000004
 20
269.09643000000011
 30
0.0
 40
64.0
  1
4-M8ボルト
 41
0.9
  0
LINE
  8
NOTE
  6
CONTINUOUS
 62
     4
 39
50.0
 10
-623.17084399999999
 20
258.71678700000012
 30
0.0
 11
-195.383657
 21
258.71678700000012
 31
0.0
  0
TEXT
  8
NOTE
  6
CONTINUOUS
 62
     4
 10
152.32634800000011
 20
269.70315699999992
 30
0.0
 40
64.0
  1
4-M8ボルト
 41
0.9
  0
LINE
  8
NOTE
  6
CONTINUOUS
 62
     4
 39
50.0
 10
149.27175500000001
 20
259.32351299999999
 30
0.0
 11
577.058941
 21
259.32351299999999
 31
0.0
  0
LINE
  8
NOTE
  6
CONTINUOUS
 62
     4
 39
50.0
 10
-195.383657
 20
258.71678700000012
 30
0.0
 11
-104.0
 21
220.19999999999999
 31
0.0
  0
LINE
  8
NOTE
  6
CONTINUOUS
 62
     4
 10
-143.18950300000009
 20
225.0114189999999
 30
0.0
 11
-104.0
 21
220.19999999999999
 31
0.0
  0
LINE
  8
NOTE
  6
CONTINUOUS
 62
     4
 10
-104.0
 20
220.19999999999999
 30
0.0
 11
-133.93339599999999
 21
243.53284400000001
 31
0.0
  0
LINE
  8
NOTE
  6
CONTINUOUS
 62
     4
 39
50.0
 10
149.27175500000001
 20
259.32351299999999
 30
0.0
 11
103.2
 21
220.19999999999999
 31
0.0
  0
LINE
  8
NOTE
  6
CONTINUOUS
 62
     4
 10
125.82456499999989
 20
253.18680099999989
 30
0.0
 11
103.2
 21
220.19999999999999
 31
0.0
  0
LINE
  8
NOTE
  6
CONTINUOUS
 62
     4
 10
103.2
 20
220.19999999999999
 30
0.0
 11
139.2868490000001
 21
237.45512500000001
 31
0.0
  0
CIRCLE
  8
ARRANGE
  6
CONTINUOUS
 62
     1
 10
0.0
 20
0.0
 30
0.0
 40
40.0
  0
LINE
  8
BASIS
  6
DASHDOT
 62
     6
 10
0.0
 20
264.31179300000008
 30
0.0
 11
0.0
 21
-264.31179300000002
 31
0.0
  0
LINE
  8
BASIS
  6
DASHDOT
 62
     6
 10
95.361414999999852
 20
0.0
 30
0.0
 11
-95.361414999999965
 21
0.0
 31
0.0
  0
POINT
  8
ARRANGE
  6
CONTINUOUS
 62
     1
 10
0.0
 20
0.0
 30
0.0
 39
50.0
  0
LINE
  8
BASIS
  6
DASHDOT
 62
     6
 10
95.361414999999852
 20
0.0
 30
0.0
 11
-95.361414999999965
 21
0.0
 31
0.0
  0
LINE
  8
BASIS
  6
DASHDOT
 62
     6
 10
95.361414999999852
 20
0.0
 30
0.0
 11
-95.361414999999965
 21
0.0
 31
0.0
  0
LINE
  8
BASIS
  6
DASHDOT
 62
     6
 10
95.361414999999852
 20
0.0
 30
0.0
 11
-95.361414999999965
 21
0.0
 31
0.0
  0
LINE
  8
DETAIL
  6
CONTINUOUS
 62
     5
 10
80.0
 20
-199.34999999999999
 30
0.0
 11
80.0
 21
205.34999999999999
 31
0.0
  0
LINE
  8
DETAIL
  6
CONTINUOUS
 62
     5
 10
-80.0
 20
-199.34999999999999
 30
0.0
 11
-80.0
 21
199.34999999999999
 31
0.0
  0
LINE
  8
DETAIL
  6
CONTINUOUS
 62
     5
 10
80.0
 20
-205.34999999999999
 30
0.0
 11
65.0
 21
-205.34999999999999
 31
0.0
  0
LINE
  8
DETAIL
  6
CONTINUOUS
 62
     5
 10
35.0
 20
-229.34999999999999
 30
0.0
 11
77.599999999999909
 21
-229.34999999999999
 31
0.0
  0
LINE
  8
DETAIL
  6
CONTINUOUS
 62
     5
 10
55.0
 20
-227.34999999999999
 30
0.0
 11
80.0
 21
-227.34999999999999
 31
0.0
  0
LINE
  8
DETAIL
  6
CONTINUOUS
 62
     5
 10
35.0
 20
-230.55000000000001
 30
0.0
 11
77.599999999999909
 21
-230.55000000000001
 31
0.0
  0
LINE
  8
DETAIL
  6
CONTINUOUS
 62
     5
 10
73.0
 20
-199.34999999999999
 30
0.0
 11
80.0
 21
-199.34999999999999
 31
0.0
  0
LINE
  8
DETAIL
  6
CONTINUOUS
 62
     5
 10
-80.0
 20
-200.58740599999999
 30
0.0
 11
-80.0
 21
-228.15000000000001
 31
0.0
  0
LINE
  8
DETAIL
  6
CONTINUOUS
 62
     5
 10
-35.0
 20
-207.34999999999999
 30
0.0
 11
-55.0
 21
-227.34999999999999
 31
0.0
  0
LINE
  8
DETAIL
  6
CONTINUOUS
 62
     5
 10
35.0
 20
-207.34999999999999
 30
0.0
 11
55.0
 21
-227.34999999999999
 31
0.0
  0
LINE
  8
DETAIL
  6
CONTINUOUS
 62
     5
 10
-80.0
 20
-229.34999999999999
 30
0.0
 11
-80.0
 21
-209.34999999999999
 31
0.0
  0
LINE
  8
DETAIL
  6
CONTINUOUS
 62
     5
 10
-35.0
 20
-229.34999999999999
 30
0.0
 11
-77.600000000000023
 21
-229.34999999999999
 31
0.0
  0
LINE
  8
DETAIL
  6
CONTINUOUS
 62
     5
 10
-35.0
 20
-230.55000000000001
 30
0.0
 11
-77.600000000000023
 21
-230.55000000000001
 31
0.0
  0
LINE
  8
DETAIL
  6
CONTINUOUS
 62
     5
 10
-49.75
 20
-230.55000000000001
 30
0.0
 11
-50.649999999999977
 21
-231.44999999999999
 31
0.0
  0
LINE
  8
DETAIL
  6
CONTINUOUS
 62
     5
 10
-41.350000000000023
 20
-231.44999999999999
 30
0.0
 11
-50.649999999999977
 21
-231.44999999999999
 31
0.0
  0
LINE
  8
DETAIL
  6
CONTINUOUS
 62
     5
 10
-41.350000000000023
 20
-232.0
 30
0.0
 11
-50.649999999999977
 21
-232.0
 31
0.0
  0
LINE
  8
DETAIL
  6
CONTINUOUS
 62
     5
 10
-55.0
 20
-227.34999999999999
 30
0.0
 11
-80.0
 21
-227.34999999999999
 31
0.0
  0
ARC
  8
DETAIL
  6
CONTINUOUS
 62
     5
 10
-77.600000000000023
 20
-228.15000000000001
 30
0.0
 40
1.2
 50
180.0
 51
270.0
  0
ARC
  8
DETAIL
  6
CONTINUOUS
 62
     5
 10
-77.600000000000023
 20
-228.15000000000001
 30
0.0
 40
2.3999999999999999
 50
180.0
 51
270.0
  0
LINE
  8
DETAIL
  6
DASHED
 62
     5
 10
-78.799999999999955
 20
-227.34999999999999
 30
0.0
 11
-78.799999999999955
 21
-228.15000000000001
 31
0.0
  0
LINE
  8
DETAIL
  6
CONTINUOUS
 62
     5
 10
-79.67846099999997
 20
-229.34999999999999
 30
0.0
 11
-80.0
 21
-229.34999999999999
 31
0.0
  0
LINE
  8
DETAIL
  6
CONTINUOUS
 62
     5
 10
-73.0
 20
-229.34999999999999
 30
0.0
 11
-73.0
 21
-227.34999999999999
 31
0.0
  0
LINE
  8
DETAIL
  6
CONTINUOUS
 62
     5
 10
-55.0
 20
-230.55000000000001
 30
0.0
 11
-55.0
 21
-229.34999999999999
 31
0.0
  0
LINE
  8
DETAIL
  6
CONTINUOUS
 62
     5
 10
-50.649999999999977
 20
-231.44999999999999
 30
0.0
 11
-50.649999999999977
 21
-232.0
 31
0.0
  0
LINE
  8
DETAIL
  6
CONTINUOUS
 62
     5
 10
35.0
 20
-229.34999999999999
 30
0.0
 11
-35.0
 21
-229.34999999999999
 31
0.0
  0
LINE
  8
DETAIL
  6
CONTINUOUS
 62
     5
 10
-35.0
 20
-229.34999999999999
 30
0.0
 11
-35.0
 21
-230.55000000000001
 31
0.0
  0
LINE
  8
DETAIL
  6
CONTINUOUS
 62
     5
 10
-42.25
 20
-230.55000000000001
 30
0.0
 11
-41.350000000000023
 21
-231.44999999999999
 31
0.0
  0
LINE
  8
DETAIL
  6
CONTINUOUS
 62
     5
 10
-41.350000000000023
 20
-231.44999999999999
 30
0.0
 11
-41.350000000000023
 21
-232.0
 31
0.0
  0
LINE
  8
DETAIL
  6
CONTINUOUS
 62
     5
 10
41.349999999999909
 20
-231.44999999999999
 30
0.0
 11
50.650000000000091
 21
-231.44999999999999
 31
0.0
  0
LINE
  8
DETAIL
  6
CONTINUOUS
 62
     5
 10
41.349999999999909
 20
-232.0
 30
0.0
 11
50.650000000000091
 21
-232.0
 31
0.0
  0
LINE
  8
DETAIL
  6
CONTINUOUS
 62
     5
 10
35.0
 20
-229.34999999999999
 30
0.0
 11
35.0
 21
-230.55000000000001
 31
0.0
  0
LINE
  8
DETAIL
  6
CONTINUOUS
 62
     5
 10
42.25
 20
-230.55000000000001
 30
0.0
 11
41.349999999999909
 21
-231.44999999999999
 31
0.0
  0
LINE
  8
DETAIL
  6
CONTINUOUS
 62
     5
 10
41.349999999999909
 20
-231.44999999999999
 30
0.0
 11
41.349999999999909
 21
-232.0
 31
0.0
  0
LINE
  8
DETAIL
  6
CONTINUOUS
 62
     5
 10
49.75
 20
-230.55000000000001
 30
0.0
 11
50.650000000000091
 21
-231.44999999999999
 31
0.0
  0
LINE
  8
DETAIL
  6
CONTINUOUS
 62
     5
 10
50.650000000000091
 20
-231.44999999999999
 30
0.0
 11
50.650000000000091
 21
-232.0
 31
0.0
  0
LINE
  8
DETAIL
  6
CONTINUOUS
 62
     5
 10
55.0
 20
-230.55000000000001
 30
0.0
 11
55.0
 21
-229.34999999999999
 31
0.0
  0
LINE
  8
DETAIL
  6
CONTINUOUS
 62
     5
 10
73.0
 20
-229.34999999999999
 30
0.0
 11
73.0
 21
-227.34999999999999
 31
0.0
  0
LINE
  8
DETAIL
  6
CONTINUOUS
 62
     5
 10
-40.0
 20
-179.34999999999999
 30
0.0
 11
-55.0
 21
-179.34999999999999
 31
0.0
  0
CIRCLE
  8
DETAIL
  6
CONTINUOUS
 62
     5
 10
-46.0
 20
-189.34999999999999
 30
0.0
 40
4.6500000000000004
  0
LINE
  8
DETAIL
  6
CONTINUOUS
 62
     5
 10
-55.0
 20
-179.34999999999999
 30
0.0
 11
-60.0
 21
-184.34999999999999
 31
0.0
  0
LINE
  8
DETAIL
  6
CONTINUOUS
 62
     5
 10
-80.0
 20
-213.80000000000001
 30
0.0
 11
-104.0
 21
-213.80000000000001
 31
0.0
  0
LINE
  8
DETAIL
  6
CONTINUOUS
 62
     5
 10
-80.0
 20
-220.19999999999999
 30
0.0
 11
-104.0
 21
-220.19999999999999
 31
0.0
  0
LINE
  8
DETAIL
  6
CONTINUOUS
 62
     5
 10
-80.0
 20
-213.0
 30
0.0
 11
-103.2
 21
-213.0
 31
0.0
  0
LINE
  8
DETAIL
  6
CONTINUOUS
 62
     5
 10
-80.0
 20
-221.0
 30
0.0
 11
-103.2
 21
-221.0
 31
0.0
  0
LINE
  8
DETAIL
  6
CONTINUOUS
 62
     5
 10
-103.2
 20
-221.0
 30
0.0
 11
-103.2
 21
-213.0
 31
0.0
  0
LINE
  8
DETAIL
  6
CONTINUOUS
 62
     5
 10
-103.2
 20
-221.0
 30
0.0
 11
-104.0
 21
-220.19999999999999
 31
0.0
  0
LINE
  8
DETAIL
  6
CONTINUOUS
 62
     5
 10
-104.0
 20
-213.80000000000001
 30
0.0
 11
-103.2
 21
-213.0
 31
0.0
  0
LINE
  8
DETAIL
  6
CONTINUOUS
 62
     5
 10
-104.0
 20
-220.19999999999999
 30
0.0
 11
-104.0
 21
-213.80000000000001
 31
0.0
  0
ARC
  8
DETAIL
  6
CONTINUOUS
 62
     5
 10
-65.0
 20
-200.34999999999999
 30
0.0
 40
5.0
 50
270.0
 51
0.0
  0
LINE
  8
DETAIL
  6
CONTINUOUS
 62
     5
 10
-78.799999999999955
 20
-205.34999999999999
 30
0.0
 11
-78.799999999999955
 21
-200.23593399999999
 31
0.0
  0
LINE
  8
DETAIL
  6
CONTINUOUS
 62
     5
 10
-73.0
 20
-199.34999999999999
 30
0.0
 11
-73.0
 21
-205.34999999999999
 31
0.0
  0
LINE
  8
DETAIL
  6
CONTINUOUS
 62
     5
 10
-80.0
 20
-205.34999999999999
 30
0.0
 11
-65.0
 21
-205.34999999999999
 31
0.0
  0
LINE
  8
DETAIL
  6
CONTINUOUS
 62
     5
 10
-73.0
 20
-199.34999999999999
 30
0.0
 11
-80.0
 21
-199.34999999999999
 31
0.0
  0
ARC
  8
DETAIL
  6
CONTINUOUS
 62
     5
 10
-77.600000000000023
 20
-200.58740599999999
 30
0.0
 40
2.3999999999999999
 50
148.9633729999949
 51
180.0
  0
ARC
  8
DETAIL
  6
CONTINUOUS
 62
     5
 10
-77.600000000000023
 20
-200.23593399999999
 30
0.0
 40
1.2
 50
132.41501199999809
 51
180.0
  0
LINE
  8
DETAIL
  6
CONTINUOUS
 62
     5
 10
-60.0
 20
-184.34999999999999
 30
0.0
 11
-60.0
 21
-200.34999999999999
 31
0.0
  0
LINE
  8
DETAIL
  6
CONTINUOUS
 62
     5
 10
-35.0
 20
-184.34999999999999
 30
0.0
 11
-40.0
 21
-179.34999999999999
 31
0.0
  0
LINE
  8
DETAIL
  6
CONTINUOUS
 62
     5
 10
-35.0
 20
-184.34999999999999
 30
0.0
 11
-35.0
 21
-207.34999999999999
 31
0.0
  0
LINE
  8
DETAIL
  6
CONTINUOUS
 62
     5
 10
-43.878680000000031
 20
-187.22868
 30
0.0
 11
-48.121319999999969
 21
-191.47131999999999
 31
0.0
  0
LINE
  8
DETAIL
  6
CONTINUOUS
 62
     5
 10
-48.121319999999969
 20
-187.22868
 30
0.0
 11
-43.878680000000031
 21
-191.47131999999999
 31
0.0
  0
LINE
  8
DETAIL
  6
CONTINUOUS
 62
     5
 10
55.0
 20
-179.34999999999999
 30
0.0
 11
60.0
 21
-184.34999999999999
 31
0.0
  0
LINE
  8
DETAIL
  6
CONTINUOUS
 62
     5
 10
35.0
 20
-184.34999999999999
 30
0.0
 11
40.0
 21
-179.34999999999999
 31
0.0
  0
CIRCLE
  8
DETAIL
  6
CONTINUOUS
 62
     5
 10
46.0
 20
-189.34999999999999
 30
0.0
 40
4.6500000000000004
  0
LINE
  8
DETAIL
  6
CONTINUOUS
 62
     5
 10
35.0
 20
-184.34999999999999
 30
0.0
 11
35.0
 21
-207.34999999999999
 31
0.0
  0
ARC
  8
DETAIL
  6
CONTINUOUS
 62
     5
 10
65.0
 20
-200.34999999999999
 30
0.0
 40
5.0
 50
180.0
 51
270.0
  0
LINE
  8
DETAIL
  6
CONTINUOUS
 62
     5
 10
73.0
 20
-199.34999999999999
 30
0.0
 11
73.0
 21
-205.34999999999999
 31
0.0
  0
LINE
  8
DETAIL
  6
CONTINUOUS
 62
     5
 10
43.878680000000031
 20
-187.22868
 30
0.0
 11
48.121319999999969
 21
-191.47131999999999
 31
0.0
  0
LINE
  8
DETAIL
  6
CONTINUOUS
 62
     5
 10
48.121319999999969
 20
-187.22868
 30
0.0
 11
43.878680000000031
 21
-191.47131999999999
 31
0.0
  0
LINE
  8
DETAIL
  6
CONTINUOUS
 62
     5
 10
60.0
 20
-184.34999999999999
 30
0.0
 11
60.0
 21
-200.34999999999999
 31
0.0
  0
LINE
  8
DETAIL
  6
CONTINUOUS
 62
     5
 10
40.0
 20
-179.34999999999999
 30
0.0
 11
55.0
 21
-179.34999999999999
 31
0.0
  0
LINE
  8
DETAIL
  6
CONTINUOUS
 62
     5
 10
80.0
 20
-200.58740599999999
 30
0.0
 11
80.0
 21
-228.15000000000001
 31
0.0
  0
LINE
  8
DETAIL
  6
CONTINUOUS
 62
     5
 10
80.0
 20
-229.34999999999999
 30
0.0
 11
80.0
 21
-209.34999999999999
 31
0.0
  0
ARC
  8
DETAIL
  6
CONTINUOUS
 62
     5
 10
77.599999999999909
 20
-228.15000000000001
 30
0.0
 40
1.2
 50
270.0
 51
0.0
  0
ARC
  8
DETAIL
  6
CONTINUOUS
 62
     5
 10
77.599999999999909
 20
-228.15000000000001
 30
0.0
 40
2.3999999999999999
 50
270.0
 51
0.0
  0
LINE
  8
DETAIL
  6
DASHED
 62
     5
 10
78.799999999999955
 20
-227.34999999999999
 30
0.0
 11
78.799999999999955
 21
-228.15000000000001
 31
0.0
  0
LINE
  8
DETAIL
  6
CONTINUOUS
 62
     5
 10
79.67846099999997
 20
-229.34999999999999
 30
0.0
 11
80.0
 21
-229.34999999999999
 31
0.0
  0
LINE
  8
DETAIL
  6
CONTINUOUS
 62
     5
 10
78.799999999999955
 20
-205.34999999999999
 30
0.0
 11
78.799999999999955
 21
-200.23593399999999
 31
0.0
  0
LINE
  8
DETAIL
  6
CONTINUOUS
 62
     5
 10
80.0
 20
-213.80000000000001
 30
0.0
 11
104.0
 21
-213.80000000000001
 31
0.0
  0
LINE
  8
DETAIL
  6
CONTINUOUS
 62
     5
 10
80.0
 20
-220.19999999999999
 30
0.0
 11
104.0
 21
-220.19999999999999
 31
0.0
  0
LINE
  8
DETAIL
  6
CONTINUOUS
 62
     5
 10
80.0
 20
-213.0
 30
0.0
 11
103.2
 21
-213.0
 31
0.0
  0
LINE
  8
DETAIL
  6
CONTINUOUS
 62
     5
 10
80.0
 20
-221.0
 30
0.0
 11
103.2
 21
-221.0
 31
0.0
  0
LINE
  8
DETAIL
  6
CONTINUOUS
 62
     5
 10
103.2
 20
-221.0
 30
0.0
 11
103.2
 21
-213.0
 31
0.0
  0
LINE
  8
DETAIL
  6
CONTINUOUS
 62
     5
 10
103.2
 20
-221.0
 30
0.0
 11
104.0
 21
-220.19999999999999
 31
0.0
  0
LINE
  8
DETAIL
  6
CONTINUOUS
 62
     5
 10
104.0
 20
-213.80000000000001
 30
0.0
 11
103.2
 21
-213.0
 31
0.0
  0
LINE
  8
DETAIL
  6
CONTINUOUS
 62
     5
 10
104.0
 20
-220.19999999999999
 30
0.0
 11
104.0
 21
-213.80000000000001
 31
0.0
  0
ARC
  8
DETAIL
  6
CONTINUOUS
 62
     5
 10
77.599999999999909
 20
-200.58740599999999
 30
0.0
 40
2.3999999999999999
 50
0.0
 51
31.03662700000508
  0
ARC
  8
DETAIL
  6
CONTINUOUS
 62
     5
 10
77.599999999999909
 20
-200.23593399999999
 30
0.0
 40
1.2
 50
0.0
 51
47.584988000001871
  0
LINE
  8
DETAIL
  6
CONTINUOUS
 62
     5
 10
80.0
 20
205.34999999999999
 30
0.0
 11
65.0
 21
205.34999999999999
 31
0.0
  0
LINE
  8
DETAIL
  6
CONTINUOUS
 62
     5
 10
35.0
 20
229.34999999999999
 30
0.0
 11
77.599999999999909
 21
229.34999999999999
 31
0.0
  0
LINE
  8
DETAIL
  6
CONTINUOUS
 62
     5
 10
55.0
 20
227.34999999999999
 30
0.0
 11
80.0
 21
227.34999999999999
 31
0.0
  0
LINE
  8
DETAIL
  6
CONTINUOUS
 62
     5
 10
35.0
 20
230.55000000000001
 30
0.0
 11
77.599999999999909
 21
230.55000000000001
 31
0.0
  0
LINE
  8
DETAIL
  6
CONTINUOUS
 62
     5
 10
73.0
 20
199.34999999999999
 30
0.0
 11
80.0
 21
199.34999999999999
 31
0.0
  0
LINE
  8
DETAIL
  6
CONTINUOUS
 62
     5
 10
-35.0
 20
207.34999999999999
 30
0.0
 11
-55.0
 21
227.34999999999999
 31
0.0
  0
LINE
  8
DETAIL
  6
CONTINUOUS
 62
     5
 10
-35.0
 20
229.34999999999999
 30
0.0
 11
-77.600000000000023
 21
229.34999999999999
 31
0.0
  0
LINE
  8
DETAIL
  6
CONTINUOUS
 62
     5
 10
-40.0
 20
179.34999999999999
 30
0.0
 11
-55.0
 21
179.34999999999999
 31
0.0
  0
LINE
  8
DETAIL
  6
CONTINUOUS
 62
     5
 10
-35.0
 20
230.55000000000001
 30
0.0
 11
-77.600000000000023
 21
230.55000000000001
 31
0.0
  0
LINE
  8
DETAIL
  6
CONTINUOUS
 62
     5
 10
-49.75
 20
230.55000000000001
 30
0.0
 11
-50.649999999999977
 21
231.44999999999999
 31
0.0
  0
LINE
  8
DETAIL
  6
CONTINUOUS
 62
     5
 10
-41.350000000000023
 20
231.44999999999999
 30
0.0
 11
-50.649999999999977
 21
231.44999999999999
 31
0.0
  0
LINE
  8
DETAIL
  6
CONTINUOUS
 62
     5
 10
-41.350000000000023
 20
232.0
 30
0.0
 11
-50.649999999999977
 21
232.0
 31
0.0
  0
CIRCLE
  8
DETAIL
  6
CONTINUOUS
 62
     5
 10
-46.0
 20
189.34999999999999
 30
0.0
 40
4.6500000000000004
  0
LINE
  8
DETAIL
  6
CONTINUOUS
 62
     5
 10
-55.0
 20
179.34999999999999
 30
0.0
 11
-60.0
 21
184.34999999999999
 31
0.0
  0
LINE
  8
DETAIL
  6
CONTINUOUS
 62
     5
 10
-80.0
 20
200.58740599999999
 30
0.0
 11
-80.0
 21
228.15000000000001
 31
0.0
  0
LINE
  8
DETAIL
  6
CONTINUOUS
 62
     5
 10
-80.0
 20
229.34999999999999
 30
0.0
 11
-80.0
 21
209.34999999999999
 31
0.0
  0
LINE
  8
DETAIL
  6
CONTINUOUS
 62
     5
 10
-80.0
 20
213.80000000000001
 30
0.0
 11
-104.0
 21
213.80000000000001
 31
0.0
  0
LINE
  8
DETAIL
  6
CONTINUOUS
 62
     5
 10
-80.0
 20
220.19999999999999
 30
0.0
 11
-104.0
 21
220.19999999999999
 31
0.0
  0
LINE
  8
DETAIL
  6
CONTINUOUS
 62
     5
 10
-80.0
 20
213.0
 30
0.0
 11
-103.2
 21
213.0
 31
0.0
  0
LINE
  8
DETAIL
  6
CONTINUOUS
 62
     5
 10
-80.0
 20
221.0
 30
0.0
 11
-103.2
 21
221.0
 31
0.0
  0
LINE
  8
DETAIL
  6
CONTINUOUS
 62
     5
 10
-103.2
 20
221.0
 30
0.0
 11
-103.2
 21
213.0
 31
0.0
  0
LINE
  8
DETAIL
  6
CONTINUOUS
 62
     5
 10
-104.0
 20
220.19999999999999
 30
0.0
 11
-104.0
 21
213.80000000000001
 31
0.0
  0
LINE
  8
DETAIL
  6
CONTINUOUS
 62
     5
 10
-104.0
 20
213.80000000000001
 30
0.0
 11
-103.2
 21
213.0
 31
0.0
  0
LINE
  8
DETAIL
  6
CONTINUOUS
 62
     5
 10
-103.2
 20
221.0
 30
0.0
 11
-104.0
 21
220.19999999999999
 31
0.0
  0
ARC
  8
DETAIL
  6
CONTINUOUS
 62
     5
 10
-65.0
 20
200.34999999999999
 30
0.0
 40
5.0
 50
0.0
 51
90.0
  0
LINE
  8
DETAIL
  6
CONTINUOUS
 62
     5
 10
-78.799999999999955
 20
205.34999999999999
 30
0.0
 11
-78.799999999999955
 21
200.23593399999999
 31
0.0
  0
LINE
  8
DETAIL
  6
CONTINUOUS
 62
     5
 10
-73.0
 20
199.34999999999999
 30
0.0
 11
-73.0
 21
205.34999999999999
 31
0.0
  0
LINE
  8
DETAIL
  6
CONTINUOUS
 62
     5
 10
-73.0
 20
199.34999999999999
 30
0.0
 11
-80.0
 21
199.34999999999999
 31
0.0
  0
ARC
  8
DETAIL
  6
CONTINUOUS
 62
     5
 10
-77.600000000000023
 20
200.23593399999999
 30
0.0
 40
1.2
 50
180.0
 51
227.58498800000191
  0
ARC
  8
DETAIL
  6
CONTINUOUS
 62
     5
 10
-77.600000000000023
 20
200.58740599999999
 30
0.0
 40
2.3999999999999999
 50
180.0
 51
211.0366270000051
  0
LINE
  8
DETAIL
  6
CONTINUOUS
 62
     5
 10
-60.0
 20
184.34999999999999
 30
0.0
 11
-60.0
 21
200.34999999999999
 31
0.0
  0
LINE
  8
DETAIL
  6
CONTINUOUS
 62
     5
 10
-80.0
 20
205.34999999999999
 30
0.0
 11
-65.0
 21
205.34999999999999
 31
0.0
  0
LINE
  8
DETAIL
  6
CONTINUOUS
 62
     5
 10
-55.0
 20
227.34999999999999
 30
0.0
 11
-80.0
 21
227.34999999999999
 31
0.0
  0
LINE
  8
DETAIL
  6
DASHED
 62
     5
 10
-78.799999999999955
 20
227.34999999999999
 30
0.0
 11
-78.799999999999955
 21
228.15000000000001
 31
0.0
  0
ARC
  8
DETAIL
  6
CONTINUOUS
 62
     5
 10
-77.600000000000023
 20
228.15000000000001
 30
0.0
 40
1.2
 50
90.0
 51
180.0
  0
ARC
  8
DETAIL
  6
CONTINUOUS
 62
     5
 10
-77.600000000000023
 20
228.15000000000001
 30
0.0
 40
2.3999999999999999
 50
90.0
 51
180.0
  0
LINE
  8
DETAIL
  6
CONTINUOUS
 62
     5
 10
-79.67846099999997
 20
229.34999999999999
 30
0.0
 11
-80.0
 21
229.34999999999999
 31
0.0
  0
LINE
  8
DETAIL
  6
CONTINUOUS
 62
     5
 10
-73.0
 20
229.34999999999999
 30
0.0
 11
-73.0
 21
227.34999999999999
 31
0.0
  0
LINE
  8
DETAIL
  6
CONTINUOUS
 62
     5
 10
-55.0
 20
230.55000000000001
 30
0.0
 11
-55.0
 21
229.34999999999999
 31
0.0
  0
LINE
  8
DETAIL
  6
CONTINUOUS
 62
     5
 10
-50.649999999999977
 20
231.44999999999999
 30
0.0
 11
-50.649999999999977
 21
232.0
 31
0.0
  0
LINE
  8
DETAIL
  6
CONTINUOUS
 62
     5
 10
55.0
 20
179.34999999999999
 30
0.0
 11
60.0
 21
184.34999999999999
 31
0.0
  0
LINE
  8
DETAIL
  6
CONTINUOUS
 62
     5
 10
35.0
 20
184.34999999999999
 30
0.0
 11
40.0
 21
179.34999999999999
 31
0.0
  0
LINE
  8
DETAIL
  6
CONTINUOUS
 62
     5
 10
-35.0
 20
184.34999999999999
 30
0.0
 11
-40.0
 21
179.34999999999999
 31
0.0
  0
LINE
  8
DETAIL
  6
CONTINUOUS
 62
     5
 10
40.0
 20
179.34999999999999
 30
0.0
 11
55.0
 21
179.34999999999999
 31
0.0
  0
LINE
  8
DETAIL
  6
CONTINUOUS
 62
     5
 10
-35.0
 20
229.34999999999999
 30
0.0
 11
35.0
 21
229.34999999999999
 31
0.0
  0
LINE
  8
DETAIL
  6
CONTINUOUS
 62
     5
 10
-35.0
 20
184.34999999999999
 30
0.0
 11
-35.0
 21
207.34999999999999
 31
0.0
  0
LINE
  8
DETAIL
  6
CONTINUOUS
 62
     5
 10
-43.878680000000031
 20
187.22867999999991
 30
0.0
 11
-48.121319999999969
 21
191.47131999999999
 31
0.0
  0
LINE
  8
DETAIL
  6
CONTINUOUS
 62
     5
 10
-48.121319999999969
 20
187.22867999999991
 30
0.0
 11
-43.878680000000031
 21
191.47131999999999
 31
0.0
  0
LINE
  8
DETAIL
  6
CONTINUOUS
 62
     5
 10
-35.0
 20
229.34999999999999
 30
0.0
 11
-35.0
 21
230.55000000000001
 31
0.0
  0
LINE
  8
DETAIL
  6
CONTINUOUS
 62
     5
 10
-42.25
 20
230.55000000000001
 30
0.0
 11
-41.350000000000023
 21
231.44999999999999
 31
0.0
  0
LINE
  8
DETAIL
  6
CONTINUOUS
 62
     5
 10
-41.350000000000023
 20
231.44999999999999
 30
0.0
 11
-41.350000000000023
 21
232.0
 31
0.0
  0
LINE
  8
DETAIL
  6
CONTINUOUS
 62
     5
 10
35.0
 20
207.34999999999999
 30
0.0
 11
55.0
 21
227.34999999999999
 31
0.0
  0
CIRCLE
  8
DETAIL
  6
CONTINUOUS
 62
     5
 10
46.0
 20
189.34999999999999
 30
0.0
 40
4.6500000000000004
  0
LINE
  8
DETAIL
  6
CONTINUOUS
 62
     5
 10
35.0
 20
184.34999999999999
 30
0.0
 11
35.0
 21
207.34999999999999
 31
0.0
  0
ARC
  8
DETAIL
  6
CONTINUOUS
 62
     5
 10
65.0
 20
200.34999999999999
 30
0.0
 40
5.0
 50
90.0
 51
180.0
  0
LINE
  8
DETAIL
  6
CONTINUOUS
 62
     5
 10
73.0
 20
199.34999999999999
 30
0.0
 11
73.0
 21
205.34999999999999
 31
0.0
  0
LINE
  8
DETAIL
  6
CONTINUOUS
 62
     5
 10
43.878680000000031
 20
187.22867999999991
 30
0.0
 11
48.121319999999969
 21
191.47131999999999
 31
0.0
  0
LINE
  8
DETAIL
  6
CONTINUOUS
 62
     5
 10
48.121319999999969
 20
187.22867999999991
 30
0.0
 11
43.878680000000031
 21
191.47131999999999
 31
0.0
  0
LINE
  8
DETAIL
  6
CONTINUOUS
 62
     5
 10
60.0
 20
184.34999999999999
 30
0.0
 11
60.0
 21
200.34999999999999
 31
0.0
  0
LINE
  8
DETAIL
  6
CONTINUOUS
 62
     5
 10
41.349999999999909
 20
231.44999999999999
 30
0.0
 11
50.650000000000091
 21
231.44999999999999
 31
0.0
  0
LINE
  8
DETAIL
  6
CONTINUOUS
 62
     5
 10
41.349999999999909
 20
232.0
 30
0.0
 11
50.650000000000091
 21
232.0
 31
0.0
  0
LINE
  8
DETAIL
  6
CONTINUOUS
 62
     5
 10
35.0
 20
229.34999999999999
 30
0.0
 11
35.0
 21
230.55000000000001
 31
0.0
  0
LINE
  8
DETAIL
  6
CONTINUOUS
 62
     5
 10
42.25
 20
230.55000000000001
 30
0.0
 11
41.349999999999909
 21
231.44999999999999
 31
0.0
  0
LINE
  8
DETAIL
  6
CONTINUOUS
 62
     5
 10
41.349999999999909
 20
231.44999999999999
 30
0.0
 11
41.349999999999909
 21
232.0
 31
0.0
  0
LINE
  8
DETAIL
  6
CONTINUOUS
 62
     5
 10
49.75
 20
230.55000000000001
 30
0.0
 11
50.650000000000091
 21
231.44999999999999
 31
0.0
  0
LINE
  8
DETAIL
  6
CONTINUOUS
 62
     5
 10
50.650000000000091
 20
231.44999999999999
 30
0.0
 11
50.650000000000091
 21
232.0
 31
0.0
  0
LINE
  8
DETAIL
  6
CONTINUOUS
 62
     5
 10
55.0
 20
230.55000000000001
 30
0.0
 11
55.0
 21
229.34999999999999
 31
0.0
  0
LINE
  8
DETAIL
  6
CONTINUOUS
 62
     5
 10
73.0
 20
229.34999999999999
 30
0.0
 11
73.0
 21
227.34999999999999
 31
0.0
  0
LINE
  8
DETAIL
  6
CONTINUOUS
 62
     5
 10
80.0
 20
200.58740599999999
 30
0.0
 11
80.0
 21
228.15000000000001
 31
0.0
  0
LINE
  8
DETAIL
  6
CONTINUOUS
 62
     5
 10
80.0
 20
229.34999999999999
 30
0.0
 11
80.0
 21
209.34999999999999
 31
0.0
  0
LINE
  8
DETAIL
  6
CONTINUOUS
 62
     5
 10
78.799999999999955
 20
205.34999999999999
 30
0.0
 11
78.799999999999955
 21
200.23593399999999
 31
0.0
  0
ARC
  8
DETAIL
  6
CONTINUOUS
 62
     5
 10
77.599999999999909
 20
200.58740599999999
 30
0.0
 40
2.3999999999999999
 50
328.96337299999487
 51
0.0
  0
ARC
  8
DETAIL
  6
CONTINUOUS
 62
     5
 10
77.599999999999909
 20
200.23593399999999
 30
0.0
 40
1.2
 50
312.41501199999823
 51
0.0
  0
LINE
  8
DETAIL
  6
CONTINUOUS
 62
     5
 10
80.0
 20
213.80000000000001
 30
0.0
 11
104.0
 21
213.80000000000001
 31
0.0
  0
LINE
  8
DETAIL
  6
CONTINUOUS
 62
     5
 10
80.0
 20
220.19999999999999
 30
0.0
 11
104.0
 21
220.19999999999999
 31
0.0
  0
LINE
  8
DETAIL
  6
CONTINUOUS
 62
     5
 10
80.0
 20
213.0
 30
0.0
 11
103.2
 21
213.0
 31
0.0
  0
LINE
  8
DETAIL
  6
CONTINUOUS
 62
     5
 10
80.0
 20
221.0
 30
0.0
 11
103.2
 21
221.0
 31
0.0
  0
LINE
  8
DETAIL
  6
CONTINUOUS
 62
     5
 10
103.2
 20
221.0
 30
0.0
 11
103.2
 21
213.0
 31
0.0
  0
LINE
  8
DETAIL
  6
CONTINUOUS
 62
     5
 10
104.0
 20
220.19999999999999
 30
0.0
 11
104.0
 21
213.80000000000001
 31
0.0
  0
LINE
  8
DETAIL
  6
CONTINUOUS
 62
     5
 10
104.0
 20
213.80000000000001
 30
0.0
 11
103.2
 21
213.0
 31
0.0
  0
LINE
  8
DETAIL
  6
CONTINUOUS
 62
     5
 10
103.2
 20
221.0
 30
0.0
 11
104.0
 21
220.19999999999999
 31
0.0
  0
ARC
  8
DETAIL
  6
CONTINUOUS
 62
     5
 10
77.599999999999909
 20
228.15000000000001
 30
0.0
 40
1.2
 50
0.0
 51
90.0
  0
ARC
  8
DETAIL
  6
CONTINUOUS
 62
     5
 10
77.599999999999909
 20
228.15000000000001
 30
0.0
 40
2.3999999999999999
 50
0.0
 51
90.0
  0
LINE
  8
DETAIL
  6
DASHED
 62
     5
 10
78.799999999999955
 20
227.34999999999999
 30
0.0
 11
78.799999999999955
 21
228.15000000000001
 31
0.0
  0
LINE
  8
DETAIL
  6
CONTINUOUS
 62
     5
 10
79.67846099999997
 20
229.34999999999999
 30
0.0
 11
80.0
 21
229.34999999999999
 31
0.0
  0
LINE
  8
SIZE
  6
CONTINUOUS
 62
    30
 10
80.0
 20
-247.0
 30
0.0
 11
80.0
 21
-403.055545
 31
0.0
  0
LINE
  8
SIZE
  6
CONTINUOUS
 62
    30
 10
-80.0
 20
-247.0
 30
0.0
 11
-80.0
 21
-403.055545
 31
0.0
  0
LINE
  8
SIZE
  6
CONTINUOUS
 62
    30
 10
92.0
 20
-383.055545
 30
0.0
 11
104.0
 21
-383.055545
 31
0.0
  0
LINE
  8
SIZE
  6
CONTINUOUS
 62
    30
 10
-92.0
 20
-383.055545
 30
0.0
 11
-104.0
 21
-383.055545
 31
0.0
  0
LINE
  8
SIZE
  6
CONTINUOUS
 62
    30
 10
80.0
 20
-383.055545
 30
0.0
 11
-80.0
 21
-383.055545
 31
0.0
  0
CIRCLE
  8
SIZE
  6
CONTINUOUS
 62
    30
 10
80.0
 20
-383.055545
 30
0.0
 40
6.0
  0
LINE
  8
SIZE
  6
CONTINUOUS
 62
    30
 10
80.0
 20
-383.055545
 30
0.0
 11
92.0
 21
-383.055545
 31
0.0
  0
CIRCLE
  8
SIZE
  6
CONTINUOUS
 62
    30
 10
-80.0
 20
-383.055545
 30
0.0
 40
6.0
  0
LINE
  8
SIZE
  6
CONTINUOUS
 62
    30
 10
-80.0
 20
-383.055545
 30
0.0
 11
-92.0
 21
-383.055545
 31
0.0
  0
TEXT
  8
SIZE
  6
CONTINUOUS
 62
    30
 10
-68.571428571428555
 20
-358.055545
 30
0.0
 40
64.0
  1
160
 41
0.9
 72
     1
 11
0.0
 21
-358.055545
 31
0.0
  0
POINT
  8
DEFPOINTS
  6
CONTINUOUS
 62
    30
 10
80.0
 20
-227.0
 30
0.0
  0
POINT
  8
DEFPOINTS
  6
CONTINUOUS
 62
    30
 10
-80.0
 20
-227.0
 30
0.0
  0
POINT
  8
DEFPOINTS
  6
CONTINUOUS
 62
    30
 10
-80.0
 20
-383.055545
 30
0.0
  0
LINE
  8
SIZE
  6
CONTINUOUS
 62
    30
 10
104.0
 20
-240.55000000000001
 30
0.0
 11
104.0
 21
-403.055545
 31
0.0
  0
LINE
  8
SIZE
  6
CONTINUOUS
 62
    30
 10
80.0
 20
-247.0
 30
0.0
 11
80.0
 21
-403.055545
 31
0.0
  0
LINE
  8
SIZE
  6
CONTINUOUS
 62
    30
 10
68.0
 20
-383.055545
 30
0.0
 11
56.0
 21
-383.055545
 31
0.0
  0
LINE
  8
SIZE
  6
CONTINUOUS
 62
    30
 10
116.0
 20
-383.055545
 30
0.0
 11
274.0
 21
-383.055545
 31
0.0
  0
LINE
  8
SIZE
  6
CONTINUOUS
 62
    30
 10
80.0
 20
-383.055545
 30
0.0
 11
104.0
 21
-383.055545
 31
0.0
  0
CIRCLE
  8
SIZE
  6
CONTINUOUS
 62
    30
 10
80.0
 20
-383.055545
 30
0.0
 40
6.0
  0
LINE
  8
SIZE
  6
CONTINUOUS
 62
    30
 10
80.0
 20
-383.055545
 30
0.0
 11
68.0
 21
-383.055545
 31
0.0
  0
CIRCLE
  8
SIZE
  6
CONTINUOUS
 62
    30
 10
104.0
 20
-383.055545
 30
0.0
 40
6.0
  0
LINE
  8
SIZE
  6
CONTINUOUS
 62
    30
 10
104.0
 20
-383.055545
 30
0.0
 11
116.0
 21
-383.055545
 31
0.0
  0
TEXT
  8
SIZE
  6
CONTINUOUS
 62
    30
 10
153.0
 20
-358.055545
 30
0.0
 40
64.0
  1
24
 41
0.9
 72
     1
 11
201.0
 21
-358.055545
 31
0.0
  0
POINT
  8
DEFPOINTS
  6
CONTINUOUS
 62
    30
 10
104.0
 20
-220.55000000000001
 30
0.0
  0
POINT
  8
DEFPOINTS
  6
CONTINUOUS
 62
    30
 10
80.0
 20
-227.0
 30
0.0
  0
POINT
  8
DEFPOINTS
  6
CONTINUOUS
 62
    30
 10
80.0
 20
-383.055545
 30
0.0
  0
LINE
  8
SIZE
  6
CONTINUOUS
 62
    30
 10
-80.0
 20
-247.0
 30
0.0
 11
-80.0
 21
-403.055545
 31
0.0
  0
LINE
  8
SIZE
  6
CONTINUOUS
 62
    30
 10
-104.0
 20
-240.19999999999999
 30
0.0
 11
-104.0
 21
-403.055545
 31
0.0
  0
LINE
  8
SIZE
  6
CONTINUOUS
 62
    30
 10
-68.0
 20
-383.055545
 30
0.0
 11
-56.0
 21
-383.055545
 31
0.0
  0
LINE
  8
SIZE
  6
CONTINUOUS
 62
    30
 10
-116.0
 20
-383.055545
 30
0.0
 11
-274.0
 21
-383.055545
 31
0.0
  0
LINE
  8
SIZE
  6
CONTINUOUS
 62
    30
 10
-80.0
 20
-383.055545
 30
0.0
 11
-104.0
 21
-383.055545
 31
0.0
  0
CIRCLE
  8
SIZE
  6
CONTINUOUS
 62
    30
 10
-80.0
 20
-383.055545
 30
0.0
 40
6.0
  0
LINE
  8
SIZE
  6
CONTINUOUS
 62
    30
 10
-80.0
 20
-383.055545
 30
0.0
 11
-68.0
 21
-383.055545
 31
0.0
  0
CIRCLE
  8
SIZE
  6
CONTINUOUS
 62
    30
 10
-104.0
 20
-383.055545
 30
0.0
 40
6.0
  0
LINE
  8
SIZE
  6
CONTINUOUS
 62
    30
 10
-104.0
 20
-383.055545
 30
0.0
 11
-116.0
 21
-383.055545
 31
0.0
  0
TEXT
  8
SIZE
  6
CONTINUOUS
 62
    30
 10
-249.0
 20
-358.055545
 30
0.0
 40
64.0
  1
24
 41
0.9
 72
     1
 11
-201.0
 21
-358.055545
 31
0.0
  0
POINT
  8
DEFPOINTS
  6
CONTINUOUS
 62
    30
 10
-80.0
 20
-227.0
 30
0.0
  0
POINT
  8
DEFPOINTS
  6
CONTINUOUS
 62
    30
 10
-104.0
 20
-220.19999999999999
 30
0.0
  0
POINT
  8
DEFPOINTS
  6
CONTINUOUS
 62
    30
 10
-104.0
 20
-383.055545
 30
0.0
  0
LINE
  8
OUTLINE
  6
CONTINUOUS
 62
     3
 10
80.0
 20
-199.34999999999999
 30
0.0
 11
80.0
 21
205.34999999999999
 31
0.0
  0
LINE
  8
OUTLINE
  6
CONTINUOUS
 62
     3
 10
-80.0
 20
-199.34999999999999
 30
0.0
 11
-80.0
 21
199.34999999999999
 31
0.0
  0
LINE
  8
OUTLINE
  6
CONTINUOUS
 62
     3
 10
35.0
 20
-230.55000000000001
 30
0.0
 11
77.599999999999909
 21
-230.55000000000001
 31
0.0
  0
LINE
  8
OUTLINE
  6
CONTINUOUS
 62
     3
 10
-80.0
 20
-200.58740599999999
 30
0.0
 11
-80.0
 21
-228.15000000000001
 31
0.0
  0
LINE
  8
OUTLINE
  6
CONTINUOUS
 62
     3
 10
-80.0
 20
-229.34999999999999
 30
0.0
 11
-80.0
 21
-209.34999999999999
 31
0.0
  0
LINE
  8
OUTLINE
  6
CONTINUOUS
 62
     3
 10
-35.0
 20
-230.55000000000001
 30
0.0
 11
-77.600000000000023
 21
-230.55000000000001
 31
0.0
  0
ARC
  8
OUTLINE
  6
CONTINUOUS
 62
     3
 10
-77.600000000000023
 20
-228.15000000000001
 30
0.0
 40
2.3999999999999999
 50
180.0
 51
270.0
  0
LINE
  8
OUTLINE
  6
CONTINUOUS
 62
     3
 10
-79.67846099999997
 20
-229.34999999999999
 30
0.0
 11
-80.0
 21
-229.34999999999999
 31
0.0
  0
LINE
  8
OUTLINE
  6
CONTINUOUS
 62
     3
 10
35.0
 20
-229.34999999999999
 30
0.0
 11
-35.0
 21
-229.34999999999999
 31
0.0
  0
LINE
  8
OUTLINE
  6
CONTINUOUS
 62
     3
 10
-35.0
 20
-229.34999999999999
 30
0.0
 11
-35.0
 21
-230.55000000000001
 31
0.0
  0
LINE
  8
OUTLINE
  6
CONTINUOUS
 62
     3
 10
35.0
 20
-229.34999999999999
 30
0.0
 11
35.0
 21
-230.55000000000001
 31
0.0
  0
ARC
  8
OUTLINE
  6
CONTINUOUS
 62
     3
 10
-77.600000000000023
 20
-200.58740599999999
 30
0.0
 40
2.3999999999999999
 50
148.9633729999949
 51
180.0
  0
LINE
  8
OUTLINE
  6
CONTINUOUS
 62
     3
 10
80.0
 20
-200.58740599999999
 30
0.0
 11
80.0
 21
-228.15000000000001
 31
0.0
  0
LINE
  8
OUTLINE
  6
CONTINUOUS
 62
     3
 10
80.0
 20
-229.34999999999999
 30
0.0
 11
80.0
 21
-209.34999999999999
 31
0.0
  0
ARC
  8
OUTLINE
  6
CONTINUOUS
 62
     3
 10
77.599999999999909
 20
-228.15000000000001
 30
0.0
 40
2.3999999999999999
 50
270.0
 51
0.0
  0
LINE
  8
OUTLINE
  6
CONTINUOUS
 62
     3
 10
79.67846099999997
 20
-229.34999999999999
 30
0.0
 11
80.0
 21
-229.34999999999999
 31
0.0
  0
ARC
  8
OUTLINE
  6
CONTINUOUS
 62
     3
 10
77.599999999999909
 20
-200.58740599999999
 30
0.0
 40
2.3999999999999999
 50
0.0
 51
31.03662700000508
  0
LINE
  8
OUTLINE
  6
CONTINUOUS
 62
     3
 10
35.0
 20
230.55000000000001
 30
0.0
 11
77.599999999999909
 21
230.55000000000001
 31
0.0
  0
LINE
  8
OUTLINE
  6
CONTINUOUS
 62
     3
 10
-35.0
 20
230.55000000000001
 30
0.0
 11
-77.600000000000023
 21
230.55000000000001
 31
0.0
  0
LINE
  8
OUTLINE
  6
CONTINUOUS
 62
     3
 10
-80.0
 20
200.58740599999999
 30
0.0
 11
-80.0
 21
228.15000000000001
 31
0.0
  0
LINE
  8
OUTLINE
  6
CONTINUOUS
 62
     3
 10
-80.0
 20
229.34999999999999
 30
0.0
 11
-80.0
 21
209.34999999999999
 31
0.0
  0
ARC
  8
OUTLINE
  6
CONTINUOUS
 62
     3
 10
-77.600000000000023
 20
200.58740599999999
 30
0.0
 40
2.3999999999999999
 50
180.0
 51
211.0366270000051
  0
ARC
  8
OUTLINE
  6
CONTINUOUS
 62
     3
 10
-77.600000000000023
 20
228.15000000000001
 30
0.0
 40
2.3999999999999999
 50
90.0
 51
180.0
  0
LINE
  8
OUTLINE
  6
CONTINUOUS
 62
     3
 10
-79.67846099999997
 20
229.34999999999999
 30
0.0
 11
-80.0
 21
229.34999999999999
 31
0.0
  0
LINE
  8
OUTLINE
  6
CONTINUOUS
 62
     3
 10
-35.0
 20
229.34999999999999
 30
0.0
 11
35.0
 21
229.34999999999999
 31
0.0
  0
LINE
  8
OUTLINE
  6
CONTINUOUS
 62
     3
 10
-35.0
 20
229.34999999999999
 30
0.0
 11
-35.0
 21
230.55000000000001
 31
0.0
  0
LINE
  8
OUTLINE
  6
CONTINUOUS
 62
     3
 10
35.0
 20
229.34999999999999
 30
0.0
 11
35.0
 21
230.55000000000001
 31
0.0
  0
LINE
  8
OUTLINE
  6
CONTINUOUS
 62
     3
 10
80.0
 20
200.58740599999999
 30
0.0
 11
80.0
 21
228.15000000000001
 31
0.0
  0
LINE
  8
OUTLINE
  6
CONTINUOUS
 62
     3
 10
80.0
 20
229.34999999999999
 30
0.0
 11
80.0
 21
209.34999999999999
 31
0.0
  0
ARC
  8
OUTLINE
  6
CONTINUOUS
 62
     3
 10
77.599999999999909
 20
200.58740599999999
 30
0.0
 40
2.3999999999999999
 50
328.96337299999487
 51
0.0
  0
ARC
  8
OUTLINE
  6
CONTINUOUS
 62
     3
 10
77.599999999999909
 20
228.15000000000001
 30
0.0
 40
2.3999999999999999
 50
0.0
 51
90.0
  0
LINE
  8
OUTLINE
  6
CONTINUOUS
 62
     3
 10
79.67846099999997
 20
229.34999999999999
 30
0.0
 11
80.0
 21
229.34999999999999
 31
0.0
  0
LINE
  8
SIZE
  6
CONTINUOUS
 62
    30
 10
66.0
 20
232.0
 30
0.0
 11
362.20764700000001
 21
232.0
 31
0.0
  0
LINE
  8
SIZE
  6
CONTINUOUS
 62
    30
 10
66.0
 20
-232.0
 30
0.0
 11
362.20764700000001
 21
-232.0
 31
0.0
  0
LINE
  8
SIZE
  6
CONTINUOUS
 62
    30
 10
342.20764700000001
 20
220.0
 30
0.0
 11
342.20764700000001
 21
-220.0
 31
0.0
  0
CIRCLE
  8
SIZE
  6
CONTINUOUS
 62
    30
 10
342.20764700000001
 20
232.0
 30
0.0
 40
6.0
  0
LINE
  8
SIZE
  6
CONTINUOUS
 62
    30
 10
342.20764700000001
 20
232.0
 30
0.0
 11
342.20764700000001
 21
220.0
 31
0.0
  0
CIRCLE
  8
SIZE
  6
CONTINUOUS
 62
    30
 10
342.20764700000001
 20
-232.0
 30
0.0
 40
6.0
  0
LINE
  8
SIZE
  6
CONTINUOUS
 62
    30
 10
342.20764700000001
 20
-232.0
 30
0.0
 11
342.20764700000001
 21
-220.0
 31
0.0
  0
TEXT
  8
SIZE
  6
CONTINUOUS
 62
    30
 10
317.20764700000001
 20
-75.428571428571416
 30
0.0
 40
64.0
  1
464
 50
90.0
 41
0.9
 72
     1
 11
317.20764700000001
 21
0.0
 31
0.0
  0
POINT
  8
DEFPOINTS
  6
CONTINUOUS
 62
    30
 10
46.0
 20
232.0
 30
0.0
  0
POINT
  8
DEFPOINTS
  6
CONTINUOUS
 62
    30
 10
46.0
 20
-232.0
 30
0.0
  0
POINT
  8
DEFPOINTS
  6
CONTINUOUS
 62
    30
 10
342.20764700000001
 20
-232.0
 30
0.0
  0
LINE
  8
SIZE
  6
CONTINUOUS
 62
    30
 10
124.0
 20
217.0
 30
0.0
 11
245.0199889999999
 21
217.0
 31
0.0
  0
LINE
  8
SIZE
  6
CONTINUOUS
 62
    30
 10
124.0
 20
-217.0
 30
0.0
 11
245.0199889999999
 21
-217.0
 31
0.0
  0
LINE
  8
SIZE
  6
CONTINUOUS
 62
    30
 10
225.0199889999999
 20
205.0
 30
0.0
 11
225.0199889999999
 21
-205.0
 31
0.0
  0
CIRCLE
  8
SIZE
  6
CONTINUOUS
 62
    30
 10
225.0199889999999
 20
217.0
 30
0.0
 40
6.0
  0
LINE
  8
SIZE
  6
CONTINUOUS
 62
    30
 10
225.0199889999999
 20
217.0
 30
0.0
 11
225.0199889999999
 21
205.0
 31
0.0
  0
CIRCLE
  8
SIZE
  6
CONTINUOUS
 62
    30
 10
225.0199889999999
 20
-217.0
 30
0.0
 40
6.0
  0
LINE
  8
SIZE
  6
CONTINUOUS
 62
    30
 10
225.0199889999999
 20
-217.0
 30
0.0
 11
225.0199889999999
 21
-205.0
 31
0.0
  0
TEXT
  8
SIZE
  6
CONTINUOUS
 62
    30
 10
200.0199889999999
 20
-75.428571428571416
 30
0.0
 40
64.0
  1
434
 50
90.0
 41
0.9
 72
     1
 11
200.0199889999999
 21
0.0
 31
0.0
  0
POINT
  8
DEFPOINTS
  6
CONTINUOUS
 62
    30
 10
104.0
 20
217.0
 30
0.0
  0
POINT
  8
DEFPOINTS
  6
CONTINUOUS
 62
    30
 10
104.0
 20
-217.0
 30
0.0
  0
POINT
  8
DEFPOINTS
  6
CONTINUOUS
 62
    30
 10
225.0199889999999
 20
-217.0
 30
0.0
  0
LINE
  8
DETAIL
  6
CONTINUOUS
 62
     5
 39
50.0
 10
-37.0
 20
209.34999999999999
 30
0.0
 11
37.0
 21
209.34999999999999
 31
0.0
  0
LINE
  8
NOTE
  6
CENTER
 62
     4
 39
50.0
 10
115.03340640220991
 20
217.0
 30
0.0
 11
61.46256809757233
 21
217.0
 31
0.0
  0
LINE
  8
NOTE
  6
CENTER
 62
     4
 39
50.0
 10
115.03340640220991
 20
-216.99999999999989
 30
0.0
 11
61.46256809757233
 21
-216.99999999999989
 31
0.0
  0
ENDSEC
  0
EOF
