  0
SECTION
  2
HEADER
  9
$ACADVER
  1
AC1009
  9
$DWGCODEPAGE
  3
dos932
  9
$INSBASE
 10
0.0
 20
0.0
 30
0.0
  9
$EXTMIN
 10
-443.669112
 20
-424.575794
 30
-0.001526
  9
$EXTMAX
 10
800.326549
 20
679.000863
 30
50.001526
  9
$LIMMIN
 10
-2970.0
 20
-2100.0
  9
$LIMMAX
 10
2970.0
 20
2100.0
  9
$ORTHOMODE
 70
     1
  9
$REGENMODE
 70
     1
  9
$FILLMODE
 70
     1
  9
$QTEXTMODE
 70
     0
  9
$MIRRTEXT
 70
     0
  9
$DRAGMODE
 70
     2
  9
$LTSCALE
 40
20.0
  9
$OSMODE
 70
  3071
  9
$ATTMODE
 70
     1
  9
$TEXTSIZE
 40
64.0
  9
$TRACEWID
 40
0.05
  9
$TEXTSTYLE
  7
STANDARD
  9
$CLAYER
  8
SIZE
  9
$CELTYPE
  6
CONTINUOUS
  9
$CECOLOR
 62
     7
  9
$DIMSCALE
 40
1.0
  9
$DIMASZ
 40
12.0
  9
$DIMEXO
 40
20.0
  9
$DIMDLI
 40
200.0
  9
$DIMRND
 40
0.0
  9
$DIMDLE
 40
0.0
  9
$DIMEXE
 40
20.0
  9
$DIMTP
 40
0.0
  9
$DIMTM
 40
0.0
  9
$DIMTXT
 40
64.0
  9
$DIMCEN
 40
0.09
  9
$DIMTSZ
 40
0.0
  9
$DIMTOL
 70
     0
  9
$DIMLIM
 70
     0
  9
$DIMTIH
 70
     0
  9
$DIMTOH
 70
     0
  9
$DIMSE1
 70
     0
  9
$DIMSE2
 70
     0
  9
$DIMTAD
 70
     1
  9
$DIMZIN
 70
     8
  9
$DIMBLK
  1
DOT1
  9
$DIMASO
 70
     1
  9
$DIMSHO
 70
     0
  9
$DIMPOST
  1

  9
$DIMAPOST
  1

  9
$DIMALT
 70
     0
  9
$DIMALTD
 70
     2
  9
$DIMALTF
 40
25.4
  9
$DIMLFAC
 40
1.0
  9
$DIMTOFL
 70
     1
  9
$DIMTVP
 40
0.0
  9
$DIMTIX
 70
     1
  9
$DIMSOXD
 70
     0
  9
$DIMSAH
 70
     1
  9
$DIMBLK1
  1
_ORIGIN
  9
$DIMBLK2
  1
_ORIGIN
  9
$DIMSTYLE
  2
STANDARD
  9
$DIMCLRD
 70
     7
  9
$DIMCLRE
 70
     7
  9
$DIMCLRT
 70
     7
  9
$DIMTFAC
 40
1.0
  9
$DIMGAP
 40
25.0
  9
$LUNITS
 70
     2
  9
$LUPREC
 70
     4
  9
$SKETCHINC
 40
0.1
  9
$FILLETRAD
 40
3.0
  9
$AUNITS
 70
     1
  9
$AUPREC
 70
     3
  9
$MENU
  1
ACAD
  9
$ELEVATION
 40
0.0
  9
$PELEVATION
 40
0.0
  9
$THICKNESS
 40
50.0
  9
$LIMCHECK
 70
     0
  9
$BLIPMODE
 70
     0
  9
$CHAMFERA
 40
0.0
  9
$CHAMFERB
 40
0.0
  9
$SKPOLY
 70
     0
  9
$TDCREATE
 40
2453019.62301037
  9
$TDUPDATE
 40
2454943.792938217
  9
$TDINDWG
 40
1.6479512731
  9
$TDUSRTIMER
 40
1.6479512731
  9
$USRTIMER
 70
     1
  9
$ANGBASE
 50
0.0
  9
$ANGDIR
 70
     0
  9
$PDMODE
 70
     3
  9
$PDSIZE
 40
-2.0
  9
$PLINEWID
 40
0.0
  9
$COORDS
 70
     2
  9
$SPLFRAME
 70
     0
  9
$SPLINETYPE
 70
     6
  9
$SPLINESEGS
 70
     8
  9
$ATTDIA
 70
     1
  9
$ATTREQ
 70
     1
  9
$HANDLING
 70
     0
  9
$HANDSEED
  5
E35E
  9
$SURFTAB1
 70
     6
  9
$SURFTAB2
 70
     6
  9
$SURFTYPE
 70
     6
  9
$SURFU
 70
     6
  9
$SURFV
 70
     6
  9
$UCSNAME
  2

  9
$UCSORG
 10
0.0
 20
0.0
 30
0.0
  9
$UCSXDIR
 10
1.0
 20
0.0
 30
0.0
  9
$UCSYDIR
 10
0.0
 20
1.0
 30
0.0
  9
$PUCSNAME
  2

  9
$PUCSORG
 10
0.0
 20
0.0
 30
0.0
  9
$PUCSXDIR
 10
1.0
 20
0.0
 30
0.0
  9
$PUCSYDIR
 10
0.0
 20
1.0
 30
0.0
  9
$USERI1
 70
     0
  9
$USERI2
 70
     0
  9
$USERI3
 70
     0
  9
$USERI4
 70
     0
  9
$USERI5
 70
     0
  9
$USERR1
 40
20.0
  9
$USERR2
 40
0.0
  9
$USERR3
 40
0.0
  9
$USERR4
 40
0.0
  9
$USERR5
 40
0.0
  9
$WORLDVIEW
 70
     1
  9
$SHADEDGE
 70
     3
  9
$SHADEDIF
 70
    70
  9
$TILEMODE
 70
     1
  9
$MAXACTVP
 70
    48
  9
$PINSBASE
 10
0.0
 20
0.0
 30
0.0
  9
$PLIMCHECK
 70
     0
  9
$PEXTMIN
 10
-100000000000000000000.0
 20
-100000000000000000000.0
 30
-100000000000000000000.0
  9
$PEXTMAX
 10
100000000000000000000.0
 20
100000000000000000000.0
 30
100000000000000000000.0
  9
$PLIMMIN
 10
0.0
 20
0.0
  9
$PLIMMAX
 10
12.0
 20
9.0
  9
$UNITMODE
 70
     0
  9
$VISRETAIN
 70
     0
  9
$PLINEGEN
 70
     0
  9
$PSLTSCALE
 70
     0
  9
$TREEDEPTH
 70
  3020
  0
ENDSEC
  0
SECTION
  2
TABLES
  0
TABLE
  2
LTYPE
 70
     2
  0
LTYPE
  2
CONTINUOUS
 70
     0
  3
実線
 72
    65
 73
     0
 40
0.0
  0
LTYPE
  2
DASHDOT
 70
     0
  3
____ _ ____ _ ____ _ ____ _ ____ _ ____ _ ____
 72
    65
 73
     4
 40
5.5
 49
4.0
 49
-0.6
 49
0.3
 49
-0.6
  0
ENDTAB
  0
TABLE
  2
LAYER
 70
    12
  0
LAYER
  2
0
 70
     0
 62
     7
  6
CONTINUOUS
  0
LAYER
  2
BASIS
 70
     0
 62
     6
  6
DASHDOT
  0
LAYER
  2
OUTLINE
 70
     0
 62
     3
  6
CONTINUOUS
  0
LAYER
  2
DETAIL
 70
     0
 62
     5
  6
CONTINUOUS
  0
LAYER
  2
SIZE
 70
     0
 62
    30
  6
CONTINUOUS
  0
LAYER
  2
ARRANGE
 70
     0
 62
     1
  6
CONTINUOUS
  0
LAYER
  2
DEFPOINTS
 70
     0
 62
     7
  6
CONTINUOUS
  0
LAYER
  2
ETC
 70
     0
 62
    61
  6
CONTINUOUS
  0
LAYER
  2
FIX
 70
     0
 62
    11
  6
CONTINUOUS
  0
LAYER
  2
NOTE
 70
     0
 62
     4
  6
CONTINUOUS
  0
LAYER
  2
SERVICESPACE
 70
    64
 62
     2
  6
DASHDOT
  0
LAYER
  2
SYMBOLLINE
 70
    64
 62
    15
  6
CONTINUOUS
  0
ENDTAB
  0
TABLE
  2
STYLE
 70
     1
  0
STYLE
  2
STANDARD
 70
     0
 40
64.0
 41
0.9
 50
0.0
 71
     0
 42
64.0
  3
SIMPLEX.shx
  4
BIGFONT.shx
  0
ENDTAB
  0
TABLE
  2
APPID
 70
    15
  0
APPID
  2
ACAD
 70
     0
  0
APPID
  2
AUTOCAD_POSTSCRIPT_FIGURE
 70
     0
  0
APPID
  2
ACAD_EXEMPT_FROM_CAD_STANDARDS
 70
     0
  0
APPID
  2
ACAD_PSEXT
 70
     0
  0
APPID
  2
ACAUTHENVIRON
 70
     0
  0
APPID
  2
GENIUS_GENOENT_13
 70
     0
  0
APPID
  2
GENIUS_GENCFG_13
 70
     0
  0
APPID
  2
GENIUS_GENCFG0_13
 70
     0
  0
APPID
  2
GENIUS_GENCFG1_13
 70
     0
  0
APPID
  2
GENIUS_GENCFG2_13
 70
     0
  0
APPID
  2
GENIUS_GENCFG3_13
 70
     0
  0
APPID
  2
GENIUS_GENCFG4_13
 70
     0
  0
APPID
  2
GENIUS_GEVCFG0_13
 70
     0
  0
APPID
  2
CONTENTBLOCKICON
 70
     0
  0
APPID
  2
CONTENTBLOCKDESCRIPTION
 70
     0
  0
ENDTAB
  0
TABLE
  2
DIMSTYLE
 70
     1
  0
DIMSTYLE
  2
STANDARD
 70
     0
  3

  4

  5

  6

  7

 40
1.0
 41
0.18
 42
0.0625
 43
0.38
 44
0.18
 45
0.0
 46
0.0
 47
0.0
 48
0.0
140
0.18
141
0.09
142
0.0
143
25.4
144
1.0
145
0.0
146
1.0
147
0.09
 71
     0
 72
     0
 73
     1
 74
     1
 75
     0
 76
     0
 77
     0
 78
     0
170
     0
171
     2
172
     0
173
     0
174
     0
175
     0
176
     7
177
     7
178
     7
  0
ENDTAB
  0
TABLE
  2
VIEW
 70
     1
  0
VIEW
  2
ALL
 70
     0
 40
4282.619808
 10
0.0
 20
41.309904
 41
5940.0
 11
0.0
 21
0.0
 31
1.0
 12
0.0
 22
0.0
 32
0.0
 42
50.0
 43
0.0
 44
0.0
 50
0.0
 71
     0
  0
ENDTAB
  0
TABLE
  2
UCS
 70
     0
  0
ENDTAB
  0
TABLE
  2
VPORT
 70
     1
  0
VPORT
  2
*ACTIVE
 70
     0
 10
0.0
 20
0.0
 11
1.0
 21
1.0
 12
178.328719
 22
127.212534
 13
0.0
 23
0.0
 14
1.0
 24
1.0
 15
0.0
 25
0.0
 16
0.0
 26
0.0
 36
1.0
 17
0.0
 27
0.0
 37
0.0
 40
1112.5125
 41
1.631081
 42
50.0
 43
0.0
 44
0.0
 50
0.0
 51
0.0
 71
     0
 72
  1000
 73
     1
 74
     0
 75
     0
 76
     0
 77
     0
 78
     0
  0
ENDTAB
  0
ENDSEC
  0
SECTION
  2
BLOCKS
  0
BLOCK
  8
0
  2
DOT1
 70
     0
 10
0.0
 20
0.0
 30
0.0
  3
DOT1
  1

  0
CIRCLE
  8
SIZE
  6
CONTINUOUS
 62
     7
 10
0.0
 20
0.0
 30
0.0
 40
3.0
  0
ENDBLK
  8
0
  0
BLOCK
  8
0
  2
_ORIGIN
 70
     0
 10
0.0
 20
0.0
 30
0.0
  3
_ORIGIN
  1

  0
CIRCLE
  8
0
  6
CONTINUOUS
 62
     7
 10
0.0
 20
0.0
 30
0.0
 40
0.5
  0
LINE
  8
0
  6
CONTINUOUS
 62
     7
 10
0.0
 20
0.0
 30
0.0
 11
-1.0
 21
0.0
 31
0.0
  0
ENDBLK
  8
0
  0
ENDSEC
  0
SECTION
  2
ENTITIES
  0
TEXT
  8
ETC
  6
CONTINUOUS
 62
    61
 10
436.648149
 20
638.822497
 30
0.0
 40
40.0
  1
PS-35SHA3_4
 41
0.9
  0
TEXT
  8
ETC
  6
CONTINUOUS
 62
    61
 10
432.462155
 20
578.126218
 30
0.0
 40
40.0
  1
システム部材
 41
0.9
  0
TEXT
  8
ETC
  6
CONTINUOUS
 62
    61
 10
483.069658
 20
496.256107
 30
0.0
 40
40.0
  1
PS-35SHA3
 41
0.9
  0
CIRCLE
  8
ARRANGE
  6
CONTINUOUS
 62
     1
 10
0.0
 20
0.0
 30
0.0
 40
40.0
  0
POINT
  8
ARRANGE
  6
CONTINUOUS
 62
     1
 10
0.0
 20
0.0
 30
0.0
 39
50.0
  0
TEXT
  8
ETC
  6
CONTINUOUS
 62
    61
 10
483.069658
 20
426.256107
 30
0.0
 40
40.0
  1
PS-35SHXA3
 41
0.9
  0
LINE
  8
BASIS
  6
DASHDOT
 62
     6
 39
50.0
 10
80.492834
 20
0.0
 30
0.0
 11
-113.252319
 21
0.0
 31
0.0
  0
CIRCLE
  8
FIX
  6
CONTINUOUS
 62
    11
 10
0.0
 20
-217.0
 30
0.0
 40
6.0
  0
CIRCLE
  8
FIX
  6
CONTINUOUS
 62
    11
 10
0.0
 20
217.0
 30
0.0
 40
6.0
  0
CIRCLE
  8
FIX
  6
CONTINUOUS
 62
    11
 10
0.0
 20
-217.0
 30
0.0
 40
4.0
  0
LINE
  8
NOTE
  6
CONTINUOUS
 62
     4
 10
-20.0
 20
-217.0
 30
0.0
 11
20.0
 21
-217.0
 31
0.0
  0
LINE
  8
NOTE
  6
CONTINUOUS
 62
     4
 10
-20.0
 20
-125.0
 30
0.0
 11
20.0
 21
-125.0
 31
0.0
  0
CIRCLE
  8
FIX
  6
CONTINUOUS
 62
    11
 10
0.0
 20
-125.0
 30
0.0
 40
4.0
  0
LINE
  8
NOTE
  6
CONTINUOUS
 62
     4
 10
0.0
 20
-125.0
 30
0.0
 11
12.896139
 21
-162.864094
 31
0.0
  0
LINE
  8
NOTE
  6
CONTINUOUS
 62
     4
 10
30.100431
 20
-151.343198
 30
0.0
 11
0.0
 21
-125.0
 31
0.0
  0
LINE
  8
NOTE
  6
CONTINUOUS
 62
     4
 10
0.0
 20
217.0
 30
0.0
 11
38.290972
 21
228.56726
 31
0.0
  0
LINE
  8
NOTE
  6
CONTINUOUS
 62
     4
 10
27.377324
 20
246.163027
 30
0.0
 11
0.0
 21
217.0
 31
0.0
  0
LINE
  8
NOTE
  6
CONTINUOUS
 62
     4
 10
0.0
 20
-125.0
 30
0.0
 11
137.199309
 21
-326.365777
 31
0.0
  0
LINE
  8
NOTE
  6
CONTINUOUS
 62
     4
 10
0.0
 20
217.0
 30
0.0
 11
110.312776
 21
281.888969
 31
0.0
  0
LINE
  8
NOTE
  6
CONTINUOUS
 62
     4
 10
-20.0
 20
125.0
 30
0.0
 11
20.0
 21
125.0
 31
0.0
  0
CIRCLE
  8
FIX
  6
CONTINUOUS
 62
    11
 10
0.0
 20
125.0
 30
0.0
 40
4.0
  0
CIRCLE
  8
FIX
  6
CONTINUOUS
 62
    11
 10
0.0
 20
217.0
 30
0.0
 40
4.0
  0
LINE
  8
NOTE
  6
CONTINUOUS
 62
     4
 10
-20.0
 20
217.0
 30
0.0
 11
20.0
 21
217.0
 31
0.0
  0
LINE
  8
OUTLINE
  6
CONTINUOUS
 62
     3
 10
-2.0
 20
229.0
 30
0.0
 11
-2.0
 21
-229.0
 31
0.0
  0
LINE
  8
OUTLINE
  6
CONTINUOUS
 62
     3
 10
-60.0
 20
179.5
 30
0.0
 11
-60.0
 21
-179.5
 31
0.0
  0
LINE
  8
OUTLINE
  6
CONTINUOUS
 62
     3
 10
0.0
 20
229.0
 30
0.0
 11
0.0
 21
-229.0
 31
0.0
  0
LINE
  8
OUTLINE
  6
CONTINUOUS
 62
     3
 10
-60.0
 20
179.5
 30
0.0
 11
-60.0
 21
-179.5
 31
0.0
  0
LINE
  8
OUTLINE
  6
CONTINUOUS
 62
     3
 10
-2.0
 20
229.0
 30
0.0
 11
-2.0
 21
-229.0
 31
0.0
  0
LINE
  8
OUTLINE
  6
CONTINUOUS
 62
     3
 10
0.0
 20
229.0
 30
0.0
 11
0.0
 21
-229.0
 31
0.0
  0
LINE
  8
OUTLINE
  6
CONTINUOUS
 62
     3
 10
-60.0
 20
-179.5
 30
0.0
 11
-53.0
 21
-186.5
 31
0.0
  0
LINE
  8
OUTLINE
  6
CONTINUOUS
 62
     3
 10
-60.0
 20
-179.5
 30
0.0
 11
-53.0
 21
-186.5
 31
0.0
  0
LINE
  8
OUTLINE
  6
CONTINUOUS
 62
     3
 10
-2.0
 20
-186.5
 30
0.0
 11
-53.0
 21
-186.5
 31
0.0
  0
LINE
  8
OUTLINE
  6
CONTINUOUS
 62
     3
 10
0.0
 20
-229.0
 30
0.0
 11
-2.0
 21
-229.0
 31
0.0
  0
LINE
  8
OUTLINE
  6
CONTINUOUS
 62
     3
 10
-2.0
 20
-186.5
 30
0.0
 11
-53.0
 21
-186.5
 31
0.0
  0
LINE
  8
OUTLINE
  6
CONTINUOUS
 62
     3
 10
0.0
 20
-229.0
 30
0.0
 11
-2.0
 21
-229.0
 31
0.0
  0
LINE
  8
OUTLINE
  6
CONTINUOUS
 62
     3
 10
0.0
 20
-105.0
 30
0.0
 11
0.0
 21
-145.0
 31
0.0
  0
LINE
  8
OUTLINE
  6
CONTINUOUS
 62
     3
 10
0.0
 20
105.0
 30
0.0
 11
0.0
 21
145.0
 31
0.0
  0
LINE
  8
OUTLINE
  6
CONTINUOUS
 62
     3
 10
-53.0
 20
186.5
 30
0.0
 11
-60.0
 21
179.5
 31
0.0
  0
LINE
  8
OUTLINE
  6
CONTINUOUS
 62
     3
 10
-53.0
 20
186.5
 30
0.0
 11
-60.0
 21
179.5
 31
0.0
  0
LINE
  8
OUTLINE
  6
CONTINUOUS
 62
     3
 10
-2.0
 20
186.5
 30
0.0
 11
-53.0
 21
186.5
 31
0.0
  0
LINE
  8
OUTLINE
  6
CONTINUOUS
 62
     3
 10
0.0
 20
229.0
 30
0.0
 11
-2.0
 21
229.0
 31
0.0
  0
LINE
  8
OUTLINE
  6
CONTINUOUS
 62
     3
 10
-2.0
 20
186.5
 30
0.0
 11
-53.0
 21
186.5
 31
0.0
  0
LINE
  8
OUTLINE
  6
CONTINUOUS
 62
     3
 10
0.0
 20
229.0
 30
0.0
 11
-2.0
 21
229.0
 31
0.0
  0
LINE
  8
NOTE
  6
CONTINUOUS
 62
     4
 10
137.199309
 20
-326.365777
 30
0.0
 11
324.565815
 21
-326.365777
 31
0.0
  0
LINE
  8
NOTE
  6
CONTINUOUS
 62
     4
 10
110.312776
 20
281.888969
 30
0.0
 11
345.047464
 21
281.888969
 31
0.0
  0
LINE
  8
SIZE
  6
CONTINUOUS
 62
    30
 10
-60.0
 20
218.0
 30
0.0
 11
-60.0
 21
370.569769
 31
0.0
  0
LINE
  8
SIZE
  6
CONTINUOUS
 62
    30
 10
0.0
 20
269.0
 30
0.0
 11
0.0
 21
370.569769
 31
0.0
  0
LINE
  8
SIZE
  6
CONTINUOUS
 62
    30
 10
-72.0
 20
350.569769
 30
0.0
 11
-84.0
 21
350.569769
 31
0.0
  0
LINE
  8
SIZE
  6
CONTINUOUS
 62
    30
 10
12.0
 20
350.569769
 30
0.0
 11
24.0
 21
350.569769
 31
0.0
  0
LINE
  8
SIZE
  6
CONTINUOUS
 62
    30
 10
-60.0
 20
350.569769
 30
0.0
 11
0.0
 21
350.569769
 31
0.0
  0
CIRCLE
  8
SIZE
  6
CONTINUOUS
 62
    30
 10
-60.0
 20
350.569769
 30
0.0
 40
6.0
  0
LINE
  8
SIZE
  6
CONTINUOUS
 62
    30
 10
-60.0
 20
350.569769
 30
0.0
 11
-72.0
 21
350.569769
 31
0.0
  0
CIRCLE
  8
SIZE
  6
CONTINUOUS
 62
    30
 10
0.0
 20
350.569769
 30
0.0
 40
6.0
  0
LINE
  8
SIZE
  6
CONTINUOUS
 62
    30
 10
0.0
 20
350.569769
 30
0.0
 11
12.0
 21
350.569769
 31
0.0
  0
TEXT
  8
SIZE
  6
CONTINUOUS
 62
    30
 10
-84.144
 20
375.569769
 30
0.0
 40
64.0
  1
60
 50
0.0
 41
0.9
 51
0.0
  7
STANDARD
 71
     0
 72
     1
 11
-30.0
 21
375.569769
 31
0.0
210
0.0
220
0.0
230
1.0
  0
POINT
  8
DEFPOINTS
  6
CONTINUOUS
 62
    30
 10
-60.0
 20
198.0
 30
0.0
  0
POINT
  8
DEFPOINTS
  6
CONTINUOUS
 62
    30
 10
0.0
 20
249.0
 30
0.0
  0
POINT
  8
DEFPOINTS
  6
CONTINUOUS
 62
    30
 10
0.0
 20
350.569769
 30
0.0
  0
LINE
  8
SIZE
  6
CONTINUOUS
 62
    30
 10
60.0
 20
125.0
 30
0.0
 11
232.975244
 21
125.0
 31
0.0
  0
LINE
  8
SIZE
  6
CONTINUOUS
 62
    30
 10
60.0
 20
-125.0
 30
0.0
 11
232.975244
 21
-125.0
 31
0.0
  0
LINE
  8
SIZE
  6
CONTINUOUS
 62
    30
 10
212.975244
 20
113.0
 30
0.0
 11
212.975244
 21
-113.0
 31
0.0
  0
CIRCLE
  8
SIZE
  6
CONTINUOUS
 62
    30
 10
212.975244
 20
125.0
 30
0.0
 40
6.0
  0
LINE
  8
SIZE
  6
CONTINUOUS
 62
    30
 10
212.975244
 20
125.0
 30
0.0
 11
212.975244
 21
113.0
 31
0.0
  0
CIRCLE
  8
SIZE
  6
CONTINUOUS
 62
    30
 10
212.975244
 20
-125.0
 30
0.0
 40
6.0
  0
LINE
  8
SIZE
  6
CONTINUOUS
 62
    30
 10
212.975244
 20
-125.0
 30
0.0
 11
212.975244
 21
-113.0
 31
0.0
  0
TEXT
  8
SIZE
  6
CONTINUOUS
 62
    30
 10
187.975244
 20
-80.928
 30
0.0
 40
64.0
  1
250
 50
90.0
 41
0.9
 51
0.0
  7
STANDARD
 71
     0
 72
     1
 11
187.975244
 21
0.0
 31
0.0
210
0.0
220
0.0
230
1.0
  0
POINT
  8
DEFPOINTS
  6
CONTINUOUS
 62
    30
 10
40.0
 20
125.0
 30
0.0
  0
POINT
  8
DEFPOINTS
  6
CONTINUOUS
 62
    30
 10
40.0
 20
-125.0
 30
0.0
  0
POINT
  8
DEFPOINTS
  6
CONTINUOUS
 62
    30
 10
212.975244
 20
-125.0
 30
0.0
  0
LINE
  8
SIZE
  6
CONTINUOUS
 62
    30
 10
60.0
 20
217.0
 30
0.0
 11
360.163548
 21
217.0
 31
0.0
  0
LINE
  8
SIZE
  6
CONTINUOUS
 62
    30
 10
60.0
 20
-217.0
 30
0.0
 11
360.163548
 21
-217.0
 31
0.0
  0
LINE
  8
SIZE
  6
CONTINUOUS
 62
    30
 10
340.163548
 20
205.0
 30
0.0
 11
340.163548
 21
-205.0
 31
0.0
  0
CIRCLE
  8
SIZE
  6
CONTINUOUS
 62
    30
 10
340.163548
 20
217.0
 30
0.0
 40
6.0
  0
LINE
  8
SIZE
  6
CONTINUOUS
 62
    30
 10
340.163548
 20
217.0
 30
0.0
 11
340.163548
 21
205.0
 31
0.0
  0
CIRCLE
  8
SIZE
  6
CONTINUOUS
 62
    30
 10
340.163548
 20
-217.0
 30
0.0
 40
6.0
  0
LINE
  8
SIZE
  6
CONTINUOUS
 62
    30
 10
340.163548
 20
-217.0
 30
0.0
 11
340.163548
 21
-205.0
 31
0.0
  0
TEXT
  8
SIZE
  6
CONTINUOUS
 62
    30
 10
315.163548
 20
-81.504
 30
0.0
 40
64.0
  1
434
 50
90.0
 41
0.9
 51
0.0
  7
STANDARD
 71
     0
 72
     1
 11
315.163548
 21
0.0
 31
0.0
210
0.0
220
0.0
230
1.0
  0
POINT
  8
DEFPOINTS
  6
CONTINUOUS
 62
    30
 10
40.0
 20
217.0
 30
0.0
  0
POINT
  8
DEFPOINTS
  6
CONTINUOUS
 62
    30
 10
40.0
 20
-217.0
 30
0.0
  0
POINT
  8
DEFPOINTS
  6
CONTINUOUS
 62
    30
 10
340.163548
 20
-217.0
 30
0.0
  0
LINE
  8
SIZE
  6
CONTINUOUS
 62
    30
 10
-93.0
 20
186.5
 30
0.0
 11
-201.977098
 21
186.5
 31
0.0
  0
LINE
  8
SIZE
  6
CONTINUOUS
 62
    30
 10
-93.0
 20
-186.5
 30
0.0
 11
-201.977098
 21
-186.5
 31
0.0
  0
LINE
  8
SIZE
  6
CONTINUOUS
 62
    30
 10
-181.977098
 20
174.5
 30
0.0
 11
-181.977098
 21
-174.5
 31
0.0
  0
CIRCLE
  8
SIZE
  6
CONTINUOUS
 62
    30
 10
-181.977098
 20
186.5
 30
0.0
 40
6.0
  0
LINE
  8
SIZE
  6
CONTINUOUS
 62
    30
 10
-181.977098
 20
186.5
 30
0.0
 11
-181.977098
 21
174.5
 31
0.0
  0
CIRCLE
  8
SIZE
  6
CONTINUOUS
 62
    30
 10
-181.977098
 20
-186.5
 30
0.0
 40
6.0
  0
LINE
  8
SIZE
  6
CONTINUOUS
 62
    30
 10
-181.977098
 20
-186.5
 30
0.0
 11
-181.977098
 21
-174.5
 31
0.0
  0
TEXT
  8
SIZE
  6
CONTINUOUS
 62
    30
 10
-206.977098
 20
-114.912
 30
0.0
 40
64.0
  1
□373
 50
90.0
 41
0.9
 51
0.0
  7
STANDARD
 71
     0
 72
     1
 11
-206.977098
 21
0.0
 31
0.0
210
0.0
220
0.0
230
1.0
  0
POINT
  8
DEFPOINTS
  6
CONTINUOUS
 62
    30
 10
-73.0
 20
186.5
 30
0.0
  0
POINT
  8
DEFPOINTS
  6
CONTINUOUS
 62
    30
 10
-73.0
 20
-186.5
 30
0.0
  0
POINT
  8
DEFPOINTS
  6
CONTINUOUS
 62
    30
 10
-181.977098
 20
-186.5
 30
0.0
  0
LINE
  8
SIZE
  6
CONTINUOUS
 62
    30
 10
-42.0
 20
229.0
 30
0.0
 11
-324.536253
 21
229.0
 31
0.0
  0
LINE
  8
SIZE
  6
CONTINUOUS
 62
    30
 10
-42.0
 20
-229.0
 30
0.0
 11
-324.536253
 21
-229.0
 31
0.0
  0
LINE
  8
SIZE
  6
CONTINUOUS
 62
    30
 10
-304.536253
 20
217.0
 30
0.0
 11
-304.536253
 21
-217.0
 31
0.0
  0
CIRCLE
  8
SIZE
  6
CONTINUOUS
 62
    30
 10
-304.536253
 20
229.0
 30
0.0
 40
6.0
  0
LINE
  8
SIZE
  6
CONTINUOUS
 62
    30
 10
-304.536253
 20
229.0
 30
0.0
 11
-304.536253
 21
217.0
 31
0.0
  0
CIRCLE
  8
SIZE
  6
CONTINUOUS
 62
    30
 10
-304.536253
 20
-229.0
 30
0.0
 40
6.0
  0
LINE
  8
SIZE
  6
CONTINUOUS
 62
    30
 10
-304.536253
 20
-229.0
 30
0.0
 11
-304.536253
 21
-217.0
 31
0.0
  0
TEXT
  8
SIZE
  6
CONTINUOUS
 62
    30
 10
-329.536253
 20
-80.928
 30
0.0
 40
64.0
  1
458
 50
90.0
 41
0.9
 51
0.0
  7
STANDARD
 71
     0
 72
     1
 11
-329.536253
 21
0.0
 31
0.0
210
0.0
220
0.0
230
1.0
  0
POINT
  8
DEFPOINTS
  6
CONTINUOUS
 62
    30
 10
-22.0
 20
229.0
 30
0.0
  0
POINT
  8
DEFPOINTS
  6
CONTINUOUS
 62
    30
 10
-22.0
 20
-229.0
 30
0.0
  0
POINT
  8
DEFPOINTS
  6
CONTINUOUS
 62
    30
 10
-304.536253
 20
-229.0
 30
0.0
  0
LINE
  8
SIZE
  6
CONTINUOUS
 62
    30
 10
-105.0
 20
-185.261602
 30
0.0
 11
-105.0
 21
-424.376672
 31
0.0
  0
LINE
  8
SIZE
  6
CONTINUOUS
 62
    30
 10
0.0
 20
-269.0
 30
0.0
 11
0.0
 21
-424.376672
 31
0.0
  0
LINE
  8
SIZE
  6
CONTINUOUS
 62
    30
 10
-12.0
 20
-404.376672
 30
0.0
 11
-93.0
 21
-404.376672
 31
0.0
  0
LINE
  8
SIZE
  6
CONTINUOUS
 62
    30
 10
-105.0
 20
-404.376672
 30
0.0
 11
-443.48
 21
-404.376672
 31
0.0
  0
CIRCLE
  8
SIZE
  6
CONTINUOUS
 62
    30
 10
0.0
 20
-404.376672
 30
0.0
 40
6.0
  0
LINE
  8
SIZE
  6
CONTINUOUS
 62
    30
 10
0.0
 20
-404.376672
 30
0.0
 11
-12.0
 21
-404.376672
 31
0.0
  0
CIRCLE
  8
SIZE
  6
CONTINUOUS
 62
    30
 10
-105.0
 20
-404.376672
 30
0.0
 40
6.0
  0
LINE
  8
SIZE
  6
CONTINUOUS
 62
    30
 10
-105.0
 20
-404.376672
 30
0.0
 11
-93.0
 21
-404.376672
 31
0.0
  0
TEXT
  8
SIZE
  6
CONTINUOUS
 62
    30
 10
-424.528
 20
-379.376672
 30
0.0
 40
64.0
  1
105以下
 50
0.0
 41
0.9
 51
0.0
  7
STANDARD
 71
     0
 72
     1
 11
-280.24
 21
-379.376672
 31
0.0
210
0.0
220
0.0
230
1.0
  0
POINT
  8
DEFPOINTS
  6
CONTINUOUS
 62
    30
 10
-105.0
 20
-165.261602
 30
0.0
  0
POINT
  8
DEFPOINTS
  6
CONTINUOUS
 62
    30
 10
0.0
 20
-249.0
 30
0.0
  0
POINT
  8
DEFPOINTS
  6
CONTINUOUS
 62
    30
 10
0.0
 20
-404.376672
 30
0.0
  0
LINE
  8
DETAIL
  6
CONTINUOUS
 62
     5
 10
-2.0
 20
229.0
 30
0.0
 11
-2.0
 21
-229.0
 31
0.0
  0
LINE
  8
DETAIL
  6
CONTINUOUS
 62
     5
 10
-60.0
 20
179.5
 30
0.0
 11
-60.0
 21
-179.5
 31
0.0
  0
LINE
  8
DETAIL
  6
CONTINUOUS
 62
     5
 10
0.0
 20
229.0
 30
0.0
 11
0.0
 21
-229.0
 31
0.0
  0
LINE
  8
DETAIL
  6
CONTINUOUS
 62
     5
 10
-60.0
 20
179.5
 30
0.0
 11
-60.0
 21
-179.5
 31
0.0
  0
LINE
  8
DETAIL
  6
CONTINUOUS
 62
     5
 10
-2.0
 20
229.0
 30
0.0
 11
-2.0
 21
-229.0
 31
0.0
  0
LINE
  8
DETAIL
  6
CONTINUOUS
 62
     5
 10
0.0
 20
229.0
 30
0.0
 11
0.0
 21
-229.0
 31
0.0
  0
LINE
  8
DETAIL
  6
CONTINUOUS
 62
     5
 10
-60.0
 20
-179.5
 30
0.0
 11
-53.0
 21
-186.5
 31
0.0
  0
LINE
  8
DETAIL
  6
CONTINUOUS
 62
     5
 10
-60.0
 20
-179.5
 30
0.0
 11
-53.0
 21
-186.5
 31
0.0
  0
LINE
  8
DETAIL
  6
CONTINUOUS
 62
     5
 10
-2.0
 20
-186.5
 30
0.0
 11
-53.0
 21
-186.5
 31
0.0
  0
LINE
  8
DETAIL
  6
CONTINUOUS
 62
     5
 10
0.0
 20
-229.0
 30
0.0
 11
-2.0
 21
-229.0
 31
0.0
  0
LINE
  8
DETAIL
  6
CONTINUOUS
 62
     5
 10
-2.0
 20
-186.5
 30
0.0
 11
-53.0
 21
-186.5
 31
0.0
  0
LINE
  8
DETAIL
  6
CONTINUOUS
 62
     5
 10
0.0
 20
-229.0
 30
0.0
 11
-2.0
 21
-229.0
 31
0.0
  0
ARC
  8
DETAIL
  6
CONTINUOUS
 62
     5
 10
-103.5
 20
-145.261602
 30
0.0
 40
0.9
 50
145.009932
 51
10.0
  0
ARC
  8
DETAIL
  6
CONTINUOUS
 62
     5
 10
-103.5
 20
-145.261602
 30
0.0
 40
1.5
 50
145.009932
 51
10.0
  0
LINE
  8
DETAIL
  6
CONTINUOUS
 62
     5
 10
-102.991067
 20
-142.965012
 30
0.0
 11
-102.400182
 21
-142.860823
 31
0.0
  0
LINE
  8
DETAIL
  6
CONTINUOUS
 62
     5
 10
-102.022788
 20
-145.00113
 30
0.0
 11
-102.400182
 21
-142.860823
 31
0.0
  0
LINE
  8
DETAIL
  6
CONTINUOUS
 62
     5
 10
-102.613673
 20
-145.105319
 30
0.0
 11
-102.991067
 21
-142.965012
 31
0.0
  0
LINE
  8
DETAIL
  6
CONTINUOUS
 62
     5
 10
-60.0
 20
-123.927758
 30
0.0
 11
-99.452929
 21
-137.910162
 31
0.0
  0
LINE
  8
DETAIL
  6
CONTINUOUS
 62
     5
 10
-60.0
 20
-123.25
 30
0.0
 11
-99.852257
 21
-137.434345
 31
0.0
  0
LINE
  8
DETAIL
  6
CONTINUOUS
 62
     5
 10
-99.854685
 20
-137.437813
 30
0.0
 11
-104.728877
 21
-144.401451
 31
0.0
  0
LINE
  8
DETAIL
  6
CONTINUOUS
 62
     5
 10
-99.505683
 20
-137.985531
 30
0.0
 11
-104.237326
 21
-144.745511
 31
0.0
  0
LINE
  8
DETAIL
  6
CONTINUOUS
 62
     5
 10
0.0
 20
-105.0
 30
0.0
 11
0.0
 21
-145.0
 31
0.0
  0
LINE
  8
DETAIL
  6
CONTINUOUS
 62
     5
 10
0.0
 20
105.0
 30
0.0
 11
0.0
 21
145.0
 31
0.0
  0
LINE
  8
DETAIL
  6
CONTINUOUS
 62
     5
 10
-53.0
 20
186.5
 30
0.0
 11
-60.0
 21
179.5
 31
0.0
  0
LINE
  8
DETAIL
  6
CONTINUOUS
 62
     5
 10
-53.0
 20
186.5
 30
0.0
 11
-60.0
 21
179.5
 31
0.0
  0
LINE
  8
DETAIL
  6
CONTINUOUS
 62
     5
 10
-2.0
 20
186.5
 30
0.0
 11
-53.0
 21
186.5
 31
0.0
  0
LINE
  8
DETAIL
  6
CONTINUOUS
 62
     5
 10
0.0
 20
229.0
 30
0.0
 11
-2.0
 21
229.0
 31
0.0
  0
LINE
  8
DETAIL
  6
CONTINUOUS
 62
     5
 10
-2.0
 20
186.5
 30
0.0
 11
-53.0
 21
186.5
 31
0.0
  0
LINE
  8
DETAIL
  6
CONTINUOUS
 62
     5
 10
0.0
 20
229.0
 30
0.0
 11
-2.0
 21
229.0
 31
0.0
  0
TEXT
  8
NOTE
  6
CONTINUOUS
 62
     4
 10
153.656473
 20
298.36897
 30
0.0
 40
40.0
  1
4-φ12
 41
0.9
  0
TEXT
  8
NOTE
  6
CONTINUOUS
 62
     4
 10
153.656473
 20
-310.702891
 30
0.0
 40
40.0
  1
8-φ8
 41
0.9
  0
ENDSEC
  0
EOF
