  0
SECTION
  2
HEADER
  9
$ACADVER
  1
AC1009
  9
$DWGCODEPAGE
  3
dos932
  9
$INSBASE
 10
0.0
 20
0.0
 30
0.0
  9
$EXTMIN
 10
-669.355757
 20
-289.993274
 30
-0.001526
  9
$EXTMAX
 10
678.872692
 20
806.533822
 30
50.001526
  9
$LIMMIN
 10
-2970.0
 20
-2100.0
  9
$LIMMAX
 10
2970.0
 20
2100.0
  9
$ORTHOMODE
 70
     1
  9
$REGENMODE
 70
     1
  9
$FILLMODE
 70
     1
  9
$QTEXTMODE
 70
     0
  9
$MIRRTEXT
 70
     0
  9
$DRAGMODE
 70
     2
  9
$LTSCALE
 40
5.0
  9
$OSMODE
 70
  3071
  9
$ATTMODE
 70
     1
  9
$TEXTSIZE
 40
64.0
  9
$TRACEWID
 40
0.05
  9
$TEXTSTYLE
  7
STANDARD
  9
$CLAYER
  8
SIZE
  9
$CELTYPE
  6
CONTINUOUS
  9
$CECOLOR
 62
     7
  9
$DIMSCALE
 40
1.0
  9
$DIMASZ
 40
12.0
  9
$DIMEXO
 40
20.0
  9
$DIMDLI
 40
200.0
  9
$DIMRND
 40
0.0
  9
$DIMDLE
 40
0.0
  9
$DIMEXE
 40
20.0
  9
$DIMTP
 40
0.0
  9
$DIMTM
 40
0.0
  9
$DIMTXT
 40
64.0
  9
$DIMCEN
 40
0.09
  9
$DIMTSZ
 40
0.0
  9
$DIMTOL
 70
     0
  9
$DIMLIM
 70
     0
  9
$DIMTIH
 70
     0
  9
$DIMTOH
 70
     0
  9
$DIMSE1
 70
     0
  9
$DIMSE2
 70
     0
  9
$DIMTAD
 70
     1
  9
$DIMZIN
 70
     8
  9
$DIMBLK
  1
DOT1
  9
$DIMASO
 70
     1
  9
$DIMSHO
 70
     0
  9
$DIMPOST
  1

  9
$DIMAPOST
  1

  9
$DIMALT
 70
     0
  9
$DIMALTD
 70
     2
  9
$DIMALTF
 40
25.4
  9
$DIMLFAC
 40
1.0
  9
$DIMTOFL
 70
     1
  9
$DIMTVP
 40
0.0
  9
$DIMTIX
 70
     1
  9
$DIMSOXD
 70
     0
  9
$DIMSAH
 70
     1
  9
$DIMBLK1
  1
_ORIGIN
  9
$DIMBLK2
  1
_ORIGIN
  9
$DIMSTYLE
  2
STANDARD
  9
$DIMCLRD
 70
     7
  9
$DIMCLRE
 70
     7
  9
$DIMCLRT
 70
     7
  9
$DIMTFAC
 40
1.0
  9
$DIMGAP
 40
25.0
  9
$LUNITS
 70
     2
  9
$LUPREC
 70
     4
  9
$SKETCHINC
 40
0.1
  9
$FILLETRAD
 40
3.0
  9
$AUNITS
 70
     1
  9
$AUPREC
 70
     3
  9
$MENU
  1
ACAD
  9
$ELEVATION
 40
0.0
  9
$PELEVATION
 40
0.0
  9
$THICKNESS
 40
50.0
  9
$LIMCHECK
 70
     0
  9
$BLIPMODE
 70
     0
  9
$CHAMFERA
 40
0.0
  9
$CHAMFERB
 40
0.0
  9
$SKPOLY
 70
     0
  9
$TDCREATE
 40
2453019.62301037
  9
$TDUPDATE
 40
2454524.462794352
  9
$TDINDWG
 40
1.1561915625
  9
$TDUSRTIMER
 40
1.1561915625
  9
$USRTIMER
 70
     1
  9
$ANGBASE
 50
0.0
  9
$ANGDIR
 70
     0
  9
$PDMODE
 70
     3
  9
$PDSIZE
 40
-2.0
  9
$PLINEWID
 40
0.0
  9
$COORDS
 70
     1
  9
$SPLFRAME
 70
     0
  9
$SPLINETYPE
 70
     6
  9
$SPLINESEGS
 70
     8
  9
$ATTDIA
 70
     1
  9
$ATTREQ
 70
     1
  9
$HANDLING
 70
     0
  9
$HANDSEED
  5
ACB2
  9
$SURFTAB1
 70
     6
  9
$SURFTAB2
 70
     6
  9
$SURFTYPE
 70
     6
  9
$SURFU
 70
     6
  9
$SURFV
 70
     6
  9
$UCSNAME
  2

  9
$UCSORG
 10
0.0
 20
0.0
 30
0.0
  9
$UCSXDIR
 10
1.0
 20
0.0
 30
0.0
  9
$UCSYDIR
 10
0.0
 20
1.0
 30
0.0
  9
$PUCSNAME
  2

  9
$PUCSORG
 10
0.0
 20
0.0
 30
0.0
  9
$PUCSXDIR
 10
1.0
 20
0.0
 30
0.0
  9
$PUCSYDIR
 10
0.0
 20
1.0
 30
0.0
  9
$USERI1
 70
     0
  9
$USERI2
 70
     0
  9
$USERI3
 70
     0
  9
$USERI4
 70
     0
  9
$USERI5
 70
     0
  9
$USERR1
 40
20.0
  9
$USERR2
 40
0.0
  9
$USERR3
 40
0.0
  9
$USERR4
 40
0.0
  9
$USERR5
 40
0.0
  9
$WORLDVIEW
 70
     1
  9
$SHADEDGE
 70
     3
  9
$SHADEDIF
 70
    70
  9
$TILEMODE
 70
     1
  9
$MAXACTVP
 70
    48
  9
$PINSBASE
 10
0.0
 20
0.0
 30
0.0
  9
$PLIMCHECK
 70
     0
  9
$PEXTMIN
 10
-100000000000000000000.0
 20
-100000000000000000000.0
 30
-100000000000000000000.0
  9
$PEXTMAX
 10
100000000000000000000.0
 20
100000000000000000000.0
 30
100000000000000000000.0
  9
$PLIMMIN
 10
0.0
 20
0.0
  9
$PLIMMAX
 10
12.0
 20
9.0
  9
$UNITMODE
 70
     0
  9
$VISRETAIN
 70
     0
  9
$PLINEGEN
 70
     0
  9
$PSLTSCALE
 70
     0
  9
$TREEDEPTH
 70
  3020
  0
ENDSEC
  0
SECTION
  2
TABLES
  0
TABLE
  2
LTYPE
 70
     2
  0
LTYPE
  2
CONTINUOUS
 70
     0
  3
実線
 72
    65
 73
     0
 40
0.0
  0
LTYPE
  2
DASHDOT
 70
     0
  3
____ _ ____ _ ____ _ ____ _ ____ _ ____ _ ____
 72
    65
 73
     4
 40
5.5
 49
4.0
 49
-0.6
 49
0.3
 49
-0.6
  0
ENDTAB
  0
TABLE
  2
LAYER
 70
    12
  0
LAYER
  2
0
 70
     0
 62
     7
  6
CONTINUOUS
  0
LAYER
  2
BASIS
 70
     0
 62
     6
  6
DASHDOT
  0
LAYER
  2
OUTLINE
 70
     0
 62
     3
  6
CONTINUOUS
  0
LAYER
  2
DETAIL
 70
     0
 62
     5
  6
CONTINUOUS
  0
LAYER
  2
SIZE
 70
     0
 62
    30
  6
CONTINUOUS
  0
LAYER
  2
ARRANGE
 70
     0
 62
     1
  6
CONTINUOUS
  0
LAYER
  2
DEFPOINTS
 70
     0
 62
     7
  6
CONTINUOUS
  0
LAYER
  2
ETC
 70
     0
 62
    61
  6
CONTINUOUS
  0
LAYER
  2
FIX
 70
     0
 62
    11
  6
CONTINUOUS
  0
LAYER
  2
NOTE
 70
     0
 62
     4
  6
CONTINUOUS
  0
LAYER
  2
SERVICESPACE
 70
    64
 62
     2
  6
DASHDOT
  0
LAYER
  2
SYMBOLLINE
 70
    64
 62
    15
  6
CONTINUOUS
  0
ENDTAB
  0
TABLE
  2
STYLE
 70
     1
  0
STYLE
  2
STANDARD
 70
     0
 40
64.0
 41
0.9
 50
0.0
 71
     0
 42
64.0
  3
SIMPLEX.shx
  4
BIGFONT.shx
  0
ENDTAB
  0
TABLE
  2
APPID
 70
    13
  0
APPID
  2
ACAD
 70
     0
  0
APPID
  2
AUTOCAD_POSTSCRIPT_FIGURE
 70
     0
  0
APPID
  2
ACAD_EXEMPT_FROM_CAD_STANDARDS
 70
     0
  0
APPID
  2
ACAD_PSEXT
 70
     0
  0
APPID
  2
ACAUTHENVIRON
 70
     0
  0
APPID
  2
GENIUS_GENOENT_13
 70
     0
  0
APPID
  2
GENIUS_GENCFG_13
 70
     0
  0
APPID
  2
GENIUS_GENCFG0_13
 70
     0
  0
APPID
  2
GENIUS_GENCFG1_13
 70
     0
  0
APPID
  2
GENIUS_GENCFG2_13
 70
     0
  0
APPID
  2
GENIUS_GENCFG3_13
 70
     0
  0
APPID
  2
GENIUS_GENCFG4_13
 70
     0
  0
APPID
  2
GENIUS_GEVCFG0_13
 70
     0
  0
ENDTAB
  0
TABLE
  2
DIMSTYLE
 70
     1
  0
DIMSTYLE
  2
STANDARD
 70
     0
  3

  4

  5

  6

  7

 40
1.0
 41
0.18
 42
0.0625
 43
0.38
 44
0.18
 45
0.0
 46
0.0
 47
0.0
 48
0.0
140
0.18
141
0.09
142
0.0
143
25.4
144
1.0
145
0.0
146
1.0
147
0.09
 71
     0
 72
     0
 73
     1
 74
     1
 75
     0
 76
     0
 77
     0
 78
     0
170
     0
171
     2
172
     0
173
     0
174
     0
175
     0
176
     7
177
     7
178
     7
  0
ENDTAB
  0
TABLE
  2
VIEW
 70
     1
  0
VIEW
  2
ALL
 70
     0
 40
4282.619808
 10
0.0
 20
41.309904
 41
5940.0
 11
0.0
 21
0.0
 31
1.0
 12
0.0
 22
0.0
 32
0.0
 42
50.0
 43
0.0
 44
0.0
 50
0.0
 71
     0
  0
ENDTAB
  0
TABLE
  2
UCS
 70
     0
  0
ENDTAB
  0
TABLE
  2
VPORT
 70
     1
  0
VPORT
  2
*ACTIVE
 70
     0
 10
0.0
 20
0.0
 11
1.0
 21
1.0
 12
4.758467
 22
258.270274
 13
0.0
 23
0.0
 14
1.0
 24
1.0
 15
0.0
 25
0.0
 16
0.0
 26
0.0
 36
1.0
 17
0.0
 27
0.0
 37
0.0
 40
1109.529394
 41
1.754455
 42
50.0
 43
0.0
 44
0.0
 50
0.0
 51
0.0
 71
     0
 72
  1000
 73
     1
 74
     0
 75
     0
 76
     0
 77
     0
 78
     0
  0
ENDTAB
  0
ENDSEC
  0
SECTION
  2
BLOCKS
  0
BLOCK
  8
0
  2
DOT1
 70
     0
 10
0.0
 20
0.0
 30
0.0
  3
DOT1
  1

  0
CIRCLE
  8
SIZE
  6
CONTINUOUS
 62
     7
 10
0.0
 20
0.0
 30
0.0
 40
3.0
  0
ENDBLK
  8
0
  0
BLOCK
  8
0
  2
_ORIGIN
 70
     0
 10
0.0
 20
0.0
 30
0.0
  3
_ORIGIN
  1

  0
CIRCLE
  8
0
  6
CONTINUOUS
 62
     7
 10
0.0
 20
0.0
 30
0.0
 40
0.5
  0
LINE
  8
0
  6
CONTINUOUS
 62
     7
 10
0.0
 20
0.0
 30
0.0
 11
-1.0
 21
0.0
 31
0.0
  0
ENDBLK
  8
0
  0
ENDSEC
  0
SECTION
  2
ENTITIES
  0
TEXT
  8
ETC
  6
CONTINUOUS
 62
    61
 10
358.114041
 20
707.056403
 30
0.0
 40
40.0
  1
PS-35TW3_3
 41
0.9
  0
TEXT
  8
ETC
  6
CONTINUOUS
 62
    61
 10
353.928047
 20
646.360124
 30
0.0
 40
40.0
  1
システム部材
 41
0.9
  0
TEXT
  8
ETC
  6
CONTINUOUS
 62
    61
 10
404.53555
 20
564.490013
 30
0.0
 40
40.0
  1
PS-35TW3
 41
0.9
  0
CIRCLE
  8
ARRANGE
  6
CONTINUOUS
 62
     1
 10
0.0
 20
0.0
 30
0.0
 40
40.0
  0
LINE
  8
BASIS
  6
DASHDOT
 62
     6
 10
-283.655051
 20
0.0
 30
0.0
 11
301.858993
 21
0.0
 31
0.0
  0
LINE
  8
BASIS
  6
DASHDOT
 62
     6
 10
0.0
 20
293.787778
 30
0.0
 11
0.0
 21
-289.791678
 31
0.0
  0
POINT
  8
ARRANGE
  6
CONTINUOUS
 62
     1
 10
0.0
 20
0.0
 30
0.0
 39
50.0
  0
LINE
  8
DETAIL
  6
CONTINUOUS
 62
     5
 10
-230.2
 20
190.25
 30
0.0
 11
-239.75
 21
190.25
 31
0.0
  0
LINE
  8
DETAIL
  6
CONTINUOUS
 62
     5
 10
-230.2
 20
202.25
 30
0.0
 11
-239.75
 21
202.25
 31
0.0
  0
LINE
  8
DETAIL
  6
CONTINUOUS
 62
     5
 10
-226.5
 20
210.75
 30
0.0
 11
-226.5
 21
225.5
 31
0.0
  0
LINE
  8
DETAIL
  6
CONTINUOUS
 62
     5
 10
-227.5
 20
210.75
 30
0.0
 11
-227.5
 21
225.5
 31
0.0
  0
LINE
  8
DETAIL
  6
CONTINUOUS
 62
     5
 10
-210.75
 20
226.5
 30
0.0
 11
-224.5
 21
226.5
 31
0.0
  0
LINE
  8
DETAIL
  6
CONTINUOUS
 62
     5
 10
-182.0
 20
227.5
 30
0.0
 11
-174.0
 21
227.5
 31
0.0
  0
LINE
  8
DETAIL
  6
CONTINUOUS
 62
     5
 10
-227.5
 20
174.0
 30
0.0
 11
-227.5
 21
182.0
 31
0.0
  0
LINE
  8
DETAIL
  6
CONTINUOUS
 62
     5
 10
-226.5
 20
173.0
 30
0.0
 11
-226.5
 21
182.0
 31
0.0
  0
LINE
  8
DETAIL
  6
CONTINUOUS
 62
     5
 10
-229.0
 20
225.5
 30
0.0
 11
-239.75
 21
225.5
 31
0.0
  0
LINE
  8
DETAIL
  6
CONTINUOUS
 62
     5
 10
-173.0
 20
226.5
 30
0.0
 11
-182.0
 21
226.5
 31
0.0
  0
LINE
  8
DETAIL
  6
CONTINUOUS
 62
     5
 10
-224.5
 20
228.0
 30
0.0
 11
-224.5
 21
227.5
 31
0.0
  0
LINE
  8
BASIS
  6
DASHDOT
 62
     6
 10
0.0
 20
293.787778
 30
0.0
 11
0.0
 21
-289.791678
 31
0.0
  0
LINE
  8
BASIS
  6
DASHDOT
 62
     6
 10
301.858993
 20
0.0
 30
0.0
 11
-283.655051
 21
0.0
 31
0.0
  0
LINE
  8
DETAIL
  6
CONTINUOUS
 62
     5
 10
-225.5
 20
224.5
 30
0.0
 11
-225.5
 21
225.5
 31
0.0
  0
LINE
  8
DETAIL
  6
CONTINUOUS
 62
     5
 10
-226.5
 20
212.5
 30
0.0
 11
-226.0
 21
212.5
 31
0.0
  0
LINE
  8
DETAIL
  6
CONTINUOUS
 62
     5
 10
-226.5
 20
214.5
 30
0.0
 11
-226.0
 21
214.5
 31
0.0
  0
LINE
  8
DETAIL
  6
CONTINUOUS
 62
     5
 10
-224.5
 20
239.75
 30
0.0
 11
-224.5
 21
230.0
 31
0.0
  0
LINE
  8
DETAIL
  6
CONTINUOUS
 62
     5
 10
-225.5
 20
212.5
 30
0.0
 11
-225.5
 21
212.75
 31
0.0
  0
LINE
  8
DETAIL
  6
CONTINUOUS
 62
     5
 10
-227.5
 20
223.5
 30
0.0
 11
-226.5
 21
223.5
 31
0.0
  0
LINE
  8
DETAIL
  6
CONTINUOUS
 62
     5
 10
-226.5
 20
225.5
 30
0.0
 11
-228.0
 21
225.5
 31
0.0
  0
LINE
  8
DETAIL
  6
CONTINUOUS
 62
     5
 10
-224.5
 20
227.5
 30
0.0
 11
-210.75
 21
227.5
 31
0.0
  0
LINE
  8
DETAIL
  6
CONTINUOUS
 62
     5
 10
-239.75
 20
225.5
 30
0.0
 11
-239.75
 21
202.25
 31
0.0
  0
LINE
  8
DETAIL
  6
CONTINUOUS
 62
     5
 10
-239.75
 20
190.25
 30
0.0
 11
-239.75
 21
0.0
 31
0.0
  0
LINE
  8
DETAIL
  6
CONTINUOUS
 62
     5
 10
0.0
 20
239.75
 30
0.0
 11
-224.5
 21
239.75
 31
0.0
  0
ARC
  8
DETAIL
  6
CONTINUOUS
 62
     5
 10
-224.5
 20
225.5
 30
0.0
 40
1.0
 50
150.0
 51
180.0
  0
ARC
  8
DETAIL
  6
CONTINUOUS
 62
     5
 10
-224.5
 20
225.5
 30
0.0
 40
2.0
 50
90.0
 51
180.0
  0
LINE
  8
DETAIL
  6
CONTINUOUS
 62
     5
 10
-226.0
 20
212.5
 30
0.0
 11
-225.5
 21
212.5
 31
0.0
  0
ARC
  8
DETAIL
  6
CONTINUOUS
 62
     5
 10
-224.5
 20
225.5
 30
0.0
 40
1.0
 50
90.0
 51
150.0
  0
LINE
  8
BASIS
  6
DASHDOT
 62
     6
 10
0.0
 20
293.787778
 30
0.0
 11
0.0
 21
-289.791678
 31
0.0
  0
LINE
  8
DETAIL
  6
CONTINUOUS
 62
     5
 10
-172.5
 20
226.0
 30
0.0
 11
-182.0
 21
226.0
 31
0.0
  0
LINE
  8
DETAIL
  6
CONTINUOUS
 62
     5
 10
-210.75
 20
226.0
 30
0.0
 11
-225.366025
 21
226.0
 31
0.0
  0
LINE
  8
DETAIL
  6
CONTINUOUS
 62
     5
 10
-226.436492
 20
226.0
 30
0.0
 11
-240.0
 21
226.0
 31
0.0
  0
LINE
  8
DETAIL
  6
CONTINUOUS
 62
     5
 10
0.0
 20
272.0
 30
0.0
 11
-262.0
 21
272.0
 31
0.0
  0
ARC
  8
DETAIL
  6
CONTINUOUS
 62
     5
 10
-262.0
 20
262.0
 30
0.0
 40
10.0
 50
90.0
 51
180.0
  0
LINE
  8
DETAIL
  6
CONTINUOUS
 62
     5
 10
-272.0
 20
262.0
 30
0.0
 11
-272.0
 21
242.0
 31
0.0
  0
LINE
  8
DETAIL
  6
CONTINUOUS
 62
     5
 10
0.0
 20
240.0
 30
0.0
 11
-240.0
 21
240.0
 31
0.0
  0
LINE
  8
DETAIL
  6
CONTINUOUS
 62
     5
 10
-240.0
 20
226.0
 30
0.0
 11
-240.0
 21
242.0
 31
0.0
  0
LINE
  8
DETAIL
  6
CONTINUOUS
 62
     5
 10
-240.0
 20
242.0
 30
0.0
 11
-242.0
 21
242.0
 31
0.0
  0
LINE
  8
DETAIL
  6
CONTINUOUS
 62
     5
 10
-242.0
 20
242.0
 30
0.0
 11
-272.0
 21
242.0
 31
0.0
  0
LINE
  8
DETAIL
  6
CONTINUOUS
 62
     5
 10
-229.0
 20
226.0
 30
0.0
 11
-240.0
 21
226.0
 31
0.0
  0
LINE
  8
DETAIL
  6
CONTINUOUS
 62
     5
 10
-226.0
 20
182.0
 30
0.0
 11
-226.0
 21
172.5
 31
0.0
  0
LINE
  8
DETAIL
  6
CONTINUOUS
 62
     5
 10
-226.0
 20
212.5
 30
0.0
 11
-226.0
 21
210.75
 31
0.0
  0
LINE
  8
DETAIL
  6
CONTINUOUS
 62
     5
 10
-226.436492
 20
226.0
 30
0.0
 11
-228.0
 21
226.0
 31
0.0
  0
LINE
  8
DETAIL
  6
CONTINUOUS
 62
     5
 10
-272.0
 20
242.0
 30
0.0
 11
-272.0
 21
0.0
 31
0.0
  0
LINE
  8
DETAIL
  6
CONTINUOUS
 62
     5
 10
-242.0
 20
242.0
 30
0.0
 11
-242.0
 21
240.5
 31
0.0
  0
ARC
  8
DETAIL
  6
CONTINUOUS
 62
     5
 10
-262.0
 20
262.0
 30
0.0
 40
10.0
 50
90.0
 51
180.0
  0
LINE
  8
DETAIL
  6
CONTINUOUS
 62
     5
 10
-272.0
 20
262.0
 30
0.0
 11
-272.0
 21
242.0
 31
0.0
  0
LINE
  8
DETAIL
  6
CONTINUOUS
 62
     5
 10
-240.8
 20
240.5
 30
0.0
 11
-240.8
 21
0.0
 31
0.0
  0
LINE
  8
DETAIL
  6
CONTINUOUS
 62
     5
 10
-240.0
 20
226.0
 30
0.0
 11
-240.0
 21
0.0
 31
0.0
  0
LINE
  8
DETAIL
  6
CONTINUOUS
 62
     5
 10
-240.0
 20
240.5
 30
0.0
 11
-240.0
 21
226.0
 31
0.0
  0
LINE
  8
DETAIL
  6
CONTINUOUS
 62
     5
 10
-240.0
 20
240.5
 30
0.0
 11
-242.0
 21
240.5
 31
0.0
  0
LINE
  8
DETAIL
  6
CONTINUOUS
 62
     5
 10
-242.0
 20
241.5
 30
0.0
 11
-272.0
 21
241.5
 31
0.0
  0
LINE
  8
DETAIL
  6
CONTINUOUS
 62
     5
 10
-242.0
 20
272.0
 30
0.0
 11
-262.0
 21
272.0
 31
0.0
  0
LINE
  8
DETAIL
  6
CONTINUOUS
 62
     5
 10
-228.0
 20
210.75
 30
0.0
 11
-228.0
 21
228.0
 31
0.0
  0
LINE
  8
DETAIL
  6
CONTINUOUS
 62
     5
 10
-229.0
 20
210.75
 30
0.0
 11
-229.0
 21
228.0
 31
0.0
  0
LINE
  8
DETAIL
  6
CONTINUOUS
 62
     5
 10
-229.0
 20
0.0
 30
0.0
 11
-229.0
 21
182.0
 31
0.0
  0
LINE
  8
DETAIL
  6
CONTINUOUS
 62
     5
 10
-214.0
 20
230.0
 30
0.0
 11
-214.0
 21
229.0
 31
0.0
  0
LINE
  8
DETAIL
  6
CONTINUOUS
 62
     5
 10
-216.0
 20
230.0
 30
0.0
 11
-216.0
 21
229.0
 31
0.0
  0
LINE
  8
DETAIL
  6
CONTINUOUS
 62
     5
 10
-225.0
 20
171.5
 30
0.0
 11
-225.0
 21
0.0
 31
0.0
  0
LINE
  8
DETAIL
  6
CONTINUOUS
 62
     5
 10
-228.0
 20
174.5
 30
0.0
 11
-228.0
 21
182.0
 31
0.0
  0
LINE
  8
DETAIL
  6
CONTINUOUS
 62
     5
 10
-225.0
 20
171.5
 30
0.0
 11
-228.0
 21
174.5
 31
0.0
  0
LINE
  8
DETAIL
  6
CONTINUOUS
 62
     5
 10
-229.0
 20
174.5
 30
0.0
 11
-228.0
 21
174.5
 31
0.0
  0
LINE
  8
DETAIL
  6
CONTINUOUS
 62
     5
 10
-214.0
 20
229.0
 30
0.0
 11
-227.0
 21
229.0
 31
0.0
  0
LINE
  8
DETAIL
  6
CONTINUOUS
 62
     5
 10
-214.0
 20
230.0
 30
0.0
 11
-227.0
 21
230.0
 31
0.0
  0
ARC
  8
DETAIL
  6
CONTINUOUS
 62
     5
 10
-227.0
 20
228.0
 30
0.0
 40
2.0
 50
90.0
 51
180.0
  0
ARC
  8
DETAIL
  6
CONTINUOUS
 62
     5
 10
-227.0
 20
228.0
 30
0.0
 40
1.0
 50
90.0
 51
180.0
  0
LINE
  8
DETAIL
  6
CONTINUOUS
 62
     5
 10
-218.732412
 20
212.934136
 30
0.0
 11
-221.065864
 21
215.267588
 31
0.0
  0
ARC
  8
DETAIL
  6
CONTINUOUS
 62
     5
 10
-215.833274
 20
215.833274
 30
0.0
 40
4.1
 50
225.0
 51
45.0
  0
LINE
  8
DETAIL
  6
CONTINUOUS
 62
     5
 10
-212.934136
 20
218.732412
 30
0.0
 11
-215.267588
 21
221.065864
 31
0.0
  0
ARC
  8
DETAIL
  6
CONTINUOUS
 62
     5
 10
-218.166726
 20
218.166726
 30
0.0
 40
4.1
 50
45.0
 51
225.0
  0
LINE
  8
DETAIL
  6
CONTINUOUS
 62
     5
 10
-226.0
 20
182.0
 30
0.0
 11
-230.2
 21
182.0
 31
0.0
  0
LINE
  8
DETAIL
  6
CONTINUOUS
 62
     5
 10
-182.0
 20
230.2
 30
0.0
 11
-182.0
 21
226.0
 31
0.0
  0
LINE
  8
DETAIL
  6
CONTINUOUS
 62
     5
 10
-230.2
 20
210.75
 30
0.0
 11
-223.5
 21
210.75
 31
0.0
  0
LINE
  8
DETAIL
  6
CONTINUOUS
 62
     5
 10
-223.5
 20
212.75
 30
0.0
 11
-226.0
 21
212.75
 31
0.0
  0
LINE
  8
DETAIL
  6
CONTINUOUS
 62
     5
 10
-210.75
 20
223.5
 30
0.0
 11
-210.75
 21
230.2
 31
0.0
  0
LINE
  8
DETAIL
  6
CONTINUOUS
 62
     5
 10
-212.75
 20
226.0
 30
0.0
 11
-212.75
 21
223.5
 31
0.0
  0
LINE
  8
DETAIL
  6
CONTINUOUS
 62
     5
 10
-224.0
 20
226.0
 30
0.0
 11
-212.75
 21
226.0
 31
0.0
  0
LINE
  8
DETAIL
  6
CONTINUOUS
 62
     5
 10
-182.0
 20
230.2
 30
0.0
 11
-210.75
 21
230.2
 31
0.0
  0
LINE
  8
DETAIL
  6
CONTINUOUS
 62
     5
 10
-226.0
 20
212.75
 30
0.0
 11
-226.0
 21
224.0
 31
0.0
  0
LINE
  8
DETAIL
  6
CONTINUOUS
 62
     5
 10
-230.2
 20
210.75
 30
0.0
 11
-230.2
 21
182.0
 31
0.0
  0
LINE
  8
DETAIL
  6
CONTINUOUS
 62
     5
 10
-225.964466
 20
172.464466
 30
0.0
 11
-178.464466
 21
219.964466
 31
0.0
  0
LINE
  8
DETAIL
  6
CONTINUOUS
 62
     5
 10
-224.0
 20
226.0
 30
0.0
 11
-226.0
 21
224.0
 31
0.0
  0
CIRCLE
  8
DETAIL
  6
CONTINUOUS
 62
     5
 10
-217.0
 20
217.0
 30
0.0
 40
4.0
  0
ARC
  8
DETAIL
  6
CONTINUOUS
 62
     5
 10
-223.5
 20
211.75
 30
0.0
 40
1.0
 50
270.0
 51
90.0
  0
ARC
  8
DETAIL
  6
CONTINUOUS
 62
     5
 10
-211.75
 20
223.5
 30
0.0
 40
1.0
 50
180.0
 51
0.0
  0
ARC
  8
DETAIL
  6
CONTINUOUS
 62
     5
 10
-215.833274
 20
215.833274
 30
0.0
 40
4.1
 50
225.0
 51
45.0
  0
ARC
  8
DETAIL
  6
CONTINUOUS
 62
     5
 10
-218.166726
 20
218.166726
 30
0.0
 40
4.1
 50
45.0
 51
225.0
  0
LINE
  8
DETAIL
  6
CONTINUOUS
 62
     5
 10
-218.732412
 20
212.934136
 30
0.0
 11
-221.065864
 21
215.267588
 31
0.0
  0
LINE
  8
DETAIL
  6
CONTINUOUS
 62
     5
 10
-212.934136
 20
218.732412
 30
0.0
 11
-215.267588
 21
221.065864
 31
0.0
  0
LINE
  8
DETAIL
  6
CONTINUOUS
 62
     5
 10
-225.5
 20
224.5
 30
0.0
 11
-224.0
 21
226.0
 31
0.0
  0
LINE
  8
DETAIL
  6
CONTINUOUS
 62
     5
 10
-225.5
 20
212.75
 30
0.0
 11
-223.5
 21
212.75
 31
0.0
  0
LINE
  8
DETAIL
  6
CONTINUOUS
 62
     5
 10
-182.0
 20
226.0
 30
0.0
 11
-182.0
 21
226.0
 31
0.0
  0
LINE
  8
DETAIL
  6
CONTINUOUS
 62
     5
 10
-226.5
 20
182.0
 30
0.0
 11
-226.0
 21
182.0
 31
0.0
  0
LINE
  8
DETAIL
  6
CONTINUOUS
 62
     5
 10
-210.75
 20
226.5
 30
0.0
 11
-210.75
 21
226.0
 31
0.0
  0
LINE
  8
DETAIL
  6
CONTINUOUS
 62
     5
 10
-212.75
 20
223.5
 30
0.0
 11
-212.75
 21
226.0
 31
0.0
  0
LINE
  8
DETAIL
  6
CONTINUOUS
 62
     5
 10
-223.5
 20
210.75
 30
0.0
 11
-226.0
 21
210.75
 31
0.0
  0
LINE
  8
DETAIL
  6
CONTINUOUS
 62
     5
 10
-172.464466
 20
225.964466
 30
0.0
 11
-225.964466
 21
172.464466
 31
0.0
  0
ARC
  8
DETAIL
  6
CONTINUOUS
 62
     5
 10
-211.75
 20
223.5
 30
0.0
 40
1.0
 50
180.0
 51
0.0
  0
ARC
  8
DETAIL
  6
CONTINUOUS
 62
     5
 10
-223.5
 20
211.75
 30
0.0
 40
1.0
 50
270.0
 51
90.0
  0
LINE
  8
DETAIL
  6
CONTINUOUS
 62
     5
 10
-212.75
 20
226.0
 30
0.0
 11
-224.0
 21
226.0
 31
0.0
  0
LINE
  8
DETAIL
  6
CONTINUOUS
 62
     5
 10
-226.0
 20
210.75
 30
0.0
 11
-226.5
 21
210.75
 31
0.0
  0
LINE
  8
DETAIL
  6
CONTINUOUS
 62
     5
 10
-210.75
 20
226.0
 30
0.0
 11
-210.75
 21
223.5
 31
0.0
  0
LINE
  8
DETAIL
  6
CONTINUOUS
 62
     5
 10
-182.0
 20
226.0
 30
0.0
 11
-182.0
 21
226.5
 31
0.0
  0
CIRCLE
  8
DETAIL
  6
CONTINUOUS
 62
     5
 10
-217.0
 20
217.0
 30
0.0
 40
4.0
  0
LINE
  8
DETAIL
  6
CONTINUOUS
 62
     5
 10
-199.25
 20
231.5
 30
0.0
 11
-193.25
 21
231.5
 31
0.0
  0
LINE
  8
DETAIL
  6
CONTINUOUS
 62
     5
 10
-227.0
 20
229.0
 30
0.0
 11
-210.75
 21
229.0
 31
0.0
  0
LINE
  8
DETAIL
  6
CONTINUOUS
 62
     5
 10
-227.0
 20
228.0
 30
0.0
 11
-210.75
 21
228.0
 31
0.0
  0
LINE
  8
DETAIL
  6
CONTINUOUS
 62
     5
 10
0.0
 20
225.0
 30
0.0
 11
-171.5
 21
225.0
 31
0.0
  0
LINE
  8
DETAIL
  6
CONTINUOUS
 62
     5
 10
-182.0
 20
229.0
 30
0.0
 11
0.0
 21
229.0
 31
0.0
  0
LINE
  8
DETAIL
  6
CONTINUOUS
 62
     5
 10
-182.0
 20
228.0
 30
0.0
 11
-174.5
 21
228.0
 31
0.0
  0
LINE
  8
DETAIL
  6
CONTINUOUS
 62
     5
 10
-171.5
 20
225.0
 30
0.0
 11
-174.5
 21
228.0
 31
0.0
  0
LINE
  8
DETAIL
  6
CONTINUOUS
 62
     5
 10
-174.5
 20
228.0
 30
0.0
 11
-174.5
 21
232.0
 31
0.0
  0
LINE
  8
DETAIL
  6
CONTINUOUS
 62
     5
 10
-192.25
 20
230.5
 30
0.0
 11
-192.25
 21
230.2
 31
0.0
  0
LINE
  8
DETAIL
  6
CONTINUOUS
 62
     5
 10
-200.25
 20
230.5
 30
0.0
 11
-200.25
 21
230.2
 31
0.0
  0
LINE
  8
DETAIL
  6
CONTINUOUS
 62
     5
 10
-225.0
 20
229.0
 30
0.0
 11
-225.0
 21
228.0
 31
0.0
  0
LINE
  8
DETAIL
  6
CONTINUOUS
 62
     5
 10
-227.0
 20
229.0
 30
0.0
 11
-227.0
 21
228.0
 31
0.0
  0
LINE
  8
DETAIL
  6
CONTINUOUS
 62
     5
 10
-193.25
 20
231.5
 30
0.0
 11
-192.25
 21
230.5
 31
0.0
  0
LINE
  8
DETAIL
  6
CONTINUOUS
 62
     5
 10
-199.25
 20
231.5
 30
0.0
 11
-200.25
 21
230.5
 31
0.0
  0
LINE
  8
DETAIL
  6
CONTINUOUS
 62
     5
 10
-229.0
 20
153.0
 30
0.0
 11
-229.8
 21
153.0
 31
0.0
  0
LINE
  8
DETAIL
  6
CONTINUOUS
 62
     5
 10
-229.8
 20
135.9
 30
0.0
 11
-229.8
 21
153.0
 31
0.0
  0
LINE
  8
DETAIL
  6
CONTINUOUS
 62
     5
 10
-229.0
 20
135.9
 30
0.0
 11
-229.8
 21
135.9
 31
0.0
  0
LINE
  8
DETAIL
  6
CONTINUOUS
 62
     5
 10
-229.0
 20
135.9
 30
0.0
 11
-229.0
 21
153.0
 31
0.0
  0
ARC
  8
DETAIL
  6
CONTINUOUS
 62
     5
 10
-226.2
 20
145.5
 30
0.0
 40
6.1
 50
129.601965
 51
230.398017
  0
LINE
  8
DETAIL
  6
CONTINUOUS
 62
     5
 10
-229.8
 20
150.2
 30
0.0
 11
-229.8
 21
140.8
 31
0.0
  0
LINE
  8
DETAIL
  6
CONTINUOUS
 62
     5
 10
-229.8
 20
140.8
 30
0.0
 11
-230.088445
 21
140.8
 31
0.0
  0
LINE
  8
DETAIL
  6
CONTINUOUS
 62
     5
 10
-229.8
 20
150.2
 30
0.0
 11
-230.088445
 21
150.2
 31
0.0
  0
LINE
  8
DETAIL
  6
CONTINUOUS
 62
     5
 10
-230.088445
 20
140.8
 30
0.0
 11
-230.088445
 21
150.2
 31
0.0
  0
LINE
  8
DETAIL
  6
CONTINUOUS
 62
     5
 10
-221.880415
 20
216.429339
 30
0.0
 11
-220.986954
 21
217.3228
 31
0.0
  0
LINE
  8
DETAIL
  6
CONTINUOUS
 62
     5
 10
-216.429339
 20
221.880415
 30
0.0
 11
-217.3228
 21
220.986954
 31
0.0
  0
LINE
  8
DETAIL
  6
CONTINUOUS
 62
     5
 10
-210.75
 20
223.821782
 30
0.0
 11
-212.75
 21
223.821782
 31
0.0
  0
LINE
  8
DETAIL
  6
CONTINUOUS
 62
     5
 10
-223.821782
 20
210.75
 30
0.0
 11
-223.821782
 21
212.75
 31
0.0
  0
LINE
  8
NOTE
  6
CONTINUOUS
 62
     4
 10
-257.0
 20
237.0
 30
0.0
 11
-257.0
 21
277.0
 31
0.0
  0
LINE
  8
NOTE
  6
CONTINUOUS
 62
     4
 10
-277.0
 20
257.0
 30
0.0
 11
-237.0
 21
257.0
 31
0.0
  0
LINE
  8
NOTE
  6
CONTINUOUS
 62
     4
 10
257.0
 20
237.0
 30
0.0
 11
257.0
 21
277.0
 31
0.0
  0
LINE
  8
NOTE
  6
CONTINUOUS
 62
     4
 10
237.0
 20
257.0
 30
0.0
 11
277.0
 21
257.0
 31
0.0
  0
LINE
  8
NOTE
  6
CONTINUOUS
 62
     4
 10
257.0
 20
-277.0
 30
0.0
 11
257.0
 21
-237.0
 31
0.0
  0
LINE
  8
NOTE
  6
CONTINUOUS
 62
     4
 10
237.0
 20
-257.0
 30
0.0
 11
277.0
 21
-257.0
 31
0.0
  0
LINE
  8
NOTE
  6
CONTINUOUS
 62
     4
 10
-257.0
 20
-277.0
 30
0.0
 11
-257.0
 21
-237.0
 31
0.0
  0
LINE
  8
NOTE
  6
CONTINUOUS
 62
     4
 10
-277.0
 20
-257.0
 30
0.0
 11
-237.0
 21
-257.0
 31
0.0
  0
LINE
  8
SIZE
  6
CONTINUOUS
 62
    30
 10
257.0
 20
297.0
 30
0.0
 11
257.0
 21
618.642064
 31
0.0
  0
LINE
  8
SIZE
  6
CONTINUOUS
 62
    30
 10
-257.0
 20
297.0
 30
0.0
 11
-257.0
 21
618.642064
 31
0.0
  0
LINE
  8
SIZE
  6
CONTINUOUS
 62
    30
 10
245.0
 20
598.642064
 30
0.0
 11
-245.0
 21
598.642064
 31
0.0
  0
CIRCLE
  8
SIZE
  6
CONTINUOUS
 62
    30
 10
257.0
 20
598.642064
 30
0.0
 40
6.0
  0
LINE
  8
SIZE
  6
CONTINUOUS
 62
    30
 10
257.0
 20
598.642064
 30
0.0
 11
245.0
 21
598.642064
 31
0.0
  0
CIRCLE
  8
SIZE
  6
CONTINUOUS
 62
    30
 10
-257.0
 20
598.642064
 30
0.0
 40
6.0
  0
LINE
  8
SIZE
  6
CONTINUOUS
 62
    30
 10
-257.0
 20
598.642064
 30
0.0
 11
-245.0
 21
598.642064
 31
0.0
  0
TEXT
  8
SIZE
  6
CONTINUOUS
 62
    30
 10
-58.046162
 20
623.642064
 30
0.0
 40
64.0
  1
514
 50
0.0
 41
0.9
 51
0.0
  7
STANDARD
 71
     0
 72
     1
 11
17.121838
 21
623.642064
 31
0.0
210
0.0
220
0.0
230
1.0
  0
POINT
  8
DEFPOINTS
  6
CONTINUOUS
 62
    30
 10
257.0
 20
277.0
 30
0.0
  0
POINT
  8
DEFPOINTS
  6
CONTINUOUS
 62
    30
 10
-257.0
 20
277.0
 30
0.0
  0
POINT
  8
DEFPOINTS
  6
CONTINUOUS
 62
    30
 10
-257.0
 20
598.642064
 30
0.0
  0
LINE
  8
SIZE
  6
CONTINUOUS
 62
    30
 10
-272.0
 20
282.0
 30
0.0
 11
-272.0
 21
737.468828
 31
0.0
  0
LINE
  8
SIZE
  6
CONTINUOUS
 62
    30
 10
272.0
 20
282.0
 30
0.0
 11
272.0
 21
737.468828
 31
0.0
  0
LINE
  8
SIZE
  6
CONTINUOUS
 62
    30
 10
-260.0
 20
717.468828
 30
0.0
 11
260.0
 21
717.468828
 31
0.0
  0
CIRCLE
  8
SIZE
  6
CONTINUOUS
 62
    30
 10
-272.0
 20
717.468828
 30
0.0
 40
6.0
  0
LINE
  8
SIZE
  6
CONTINUOUS
 62
    30
 10
-272.0
 20
717.468828
 30
0.0
 11
-260.0
 21
717.468828
 31
0.0
  0
CIRCLE
  8
SIZE
  6
CONTINUOUS
 62
    30
 10
272.0
 20
717.468828
 30
0.0
 40
6.0
  0
LINE
  8
SIZE
  6
CONTINUOUS
 62
    30
 10
272.0
 20
717.468828
 30
0.0
 11
260.0
 21
717.468828
 31
0.0
  0
TEXT
  8
SIZE
  6
CONTINUOUS
 62
    30
 10
-81.504
 20
742.468828
 30
0.0
 40
64.0
  1
544
 50
0.0
 41
0.9
 51
0.0
  7
STANDARD
 71
     0
 72
     1
 11
0.0
 21
742.468828
 31
0.0
210
0.0
220
0.0
230
1.0
  0
POINT
  8
DEFPOINTS
  6
CONTINUOUS
 62
    30
 10
-272.0
 20
262.0
 30
0.0
  0
POINT
  8
DEFPOINTS
  6
CONTINUOUS
 62
    30
 10
272.0
 20
262.0
 30
0.0
  0
POINT
  8
DEFPOINTS
  6
CONTINUOUS
 62
    30
 10
272.0
 20
717.468828
 30
0.0
  0
LINE
  8
DETAIL
  6
CONTINUOUS
 62
     5
 10
0.0
 20
232.0
 30
0.0
 11
-232.0
 21
232.0
 31
0.0
  0
LINE
  8
DETAIL
  6
CONTINUOUS
 62
     5
 10
-232.0
 20
232.0
 30
0.0
 11
-232.0
 21
0.0
 31
0.0
  0
LINE
  8
NOTE
  6
CONTINUOUS
 62
     4
 10
-217.0
 20
197.0
 30
0.0
 11
-217.0
 21
237.0
 31
0.0
  0
LINE
  8
NOTE
  6
CONTINUOUS
 62
     4
 10
-237.0
 20
217.0
 30
0.0
 11
-197.0
 21
217.0
 31
0.0
  0
LINE
  8
NOTE
  6
CONTINUOUS
 62
     4
 10
217.0
 20
197.0
 30
0.0
 11
217.0
 21
237.0
 31
0.0
  0
LINE
  8
NOTE
  6
CONTINUOUS
 62
     4
 10
197.0
 20
217.0
 30
0.0
 11
237.0
 21
217.0
 31
0.0
  0
LINE
  8
NOTE
  6
CONTINUOUS
 62
     4
 10
217.0
 20
-237.0
 30
0.0
 11
217.0
 21
-197.0
 31
0.0
  0
LINE
  8
NOTE
  6
CONTINUOUS
 62
     4
 10
197.0
 20
-217.0
 30
0.0
 11
237.0
 21
-217.0
 31
0.0
  0
LINE
  8
NOTE
  6
CONTINUOUS
 62
     4
 10
-217.0
 20
-237.0
 30
0.0
 11
-217.0
 21
-197.0
 31
0.0
  0
LINE
  8
NOTE
  6
CONTINUOUS
 62
     4
 10
-237.0
 20
-217.0
 30
0.0
 11
-197.0
 21
-217.0
 31
0.0
  0
LINE
  8
SIZE
  6
CONTINUOUS
 62
    30
 10
-217.0
 20
257.0
 30
0.0
 11
-217.0
 21
364.031404
 31
0.0
  0
LINE
  8
SIZE
  6
CONTINUOUS
 62
    30
 10
217.0
 20
257.0
 30
0.0
 11
217.0
 21
364.031404
 31
0.0
  0
LINE
  8
SIZE
  6
CONTINUOUS
 62
    30
 10
-205.0
 20
344.031404
 30
0.0
 11
205.0
 21
344.031404
 31
0.0
  0
CIRCLE
  8
SIZE
  6
CONTINUOUS
 62
    30
 10
-217.0
 20
344.031404
 30
0.0
 40
6.0
  0
LINE
  8
SIZE
  6
CONTINUOUS
 62
    30
 10
-217.0
 20
344.031404
 30
0.0
 11
-205.0
 21
344.031404
 31
0.0
  0
CIRCLE
  8
SIZE
  6
CONTINUOUS
 62
    30
 10
217.0
 20
344.031404
 30
0.0
 40
6.0
  0
LINE
  8
SIZE
  6
CONTINUOUS
 62
    30
 10
217.0
 20
344.031404
 30
0.0
 11
205.0
 21
344.031404
 31
0.0
  0
TEXT
  8
SIZE
  6
CONTINUOUS
 62
    30
 10
-81.504
 20
369.031404
 30
0.0
 40
64.0
  1
434
 50
0.0
 41
0.9
 51
0.0
  7
STANDARD
 71
     0
 72
     1
 11
0.0
 21
369.031404
 31
0.0
210
0.0
220
0.0
230
1.0
  0
POINT
  8
DEFPOINTS
  6
CONTINUOUS
 62
    30
 10
-217.0
 20
237.0
 30
0.0
  0
POINT
  8
DEFPOINTS
  6
CONTINUOUS
 62
    30
 10
217.0
 20
237.0
 30
0.0
  0
POINT
  8
DEFPOINTS
  6
CONTINUOUS
 62
    30
 10
217.0
 20
344.031404
 30
0.0
  0
LINE
  8
SIZE
  6
CONTINUOUS
 62
    30
 10
-257.0
 20
217.0
 30
0.0
 11
-348.516645
 21
217.0
 31
0.0
  0
LINE
  8
SIZE
  6
CONTINUOUS
 62
    30
 10
-257.0
 20
-217.0
 30
0.0
 11
-348.516645
 21
-217.0
 31
0.0
  0
LINE
  8
SIZE
  6
CONTINUOUS
 62
    30
 10
-328.516645
 20
205.0
 30
0.0
 11
-328.516645
 21
-205.0
 31
0.0
  0
CIRCLE
  8
SIZE
  6
CONTINUOUS
 62
    30
 10
-328.516645
 20
217.0
 30
0.0
 40
6.0
  0
LINE
  8
SIZE
  6
CONTINUOUS
 62
    30
 10
-328.516645
 20
217.0
 30
0.0
 11
-328.516645
 21
205.0
 31
0.0
  0
CIRCLE
  8
SIZE
  6
CONTINUOUS
 62
    30
 10
-328.516645
 20
-217.0
 30
0.0
 40
6.0
  0
LINE
  8
SIZE
  6
CONTINUOUS
 62
    30
 10
-328.516645
 20
-217.0
 30
0.0
 11
-328.516645
 21
-205.0
 31
0.0
  0
TEXT
  8
SIZE
  6
CONTINUOUS
 62
    30
 10
-353.516645
 20
-81.504
 30
0.0
 40
64.0
  1
434
 50
90.0
 41
0.9
 51
0.0
  7
STANDARD
 71
     0
 72
     1
 11
-353.516645
 21
0.0
 31
0.0
210
0.0
220
0.0
230
1.0
  0
POINT
  8
DEFPOINTS
  6
CONTINUOUS
 62
    30
 10
-237.0
 20
217.0
 30
0.0
  0
POINT
  8
DEFPOINTS
  6
CONTINUOUS
 62
    30
 10
-237.0
 20
-217.0
 30
0.0
  0
POINT
  8
DEFPOINTS
  6
CONTINUOUS
 62
    30
 10
-328.516645
 20
-217.0
 30
0.0
  0
LINE
  8
SIZE
  6
CONTINUOUS
 62
    30
 10
-297.0
 20
257.0
 30
0.0
 11
-482.876711
 21
257.0
 31
0.0
  0
LINE
  8
SIZE
  6
CONTINUOUS
 62
    30
 10
-297.0
 20
-257.0
 30
0.0
 11
-482.876711
 21
-257.0
 31
0.0
  0
LINE
  8
SIZE
  6
CONTINUOUS
 62
    30
 10
-462.876711
 20
245.0
 30
0.0
 11
-462.876711
 21
-245.0
 31
0.0
  0
CIRCLE
  8
SIZE
  6
CONTINUOUS
 62
    30
 10
-462.876711
 20
257.0
 30
0.0
 40
6.0
  0
LINE
  8
SIZE
  6
CONTINUOUS
 62
    30
 10
-462.876711
 20
257.0
 30
0.0
 11
-462.876711
 21
245.0
 31
0.0
  0
CIRCLE
  8
SIZE
  6
CONTINUOUS
 62
    30
 10
-462.876711
 20
-257.0
 30
0.0
 40
6.0
  0
LINE
  8
SIZE
  6
CONTINUOUS
 62
    30
 10
-462.876711
 20
-257.0
 30
0.0
 11
-462.876711
 21
-245.0
 31
0.0
  0
TEXT
  8
SIZE
  6
CONTINUOUS
 62
    30
 10
-487.876711
 20
-75.168
 30
0.0
 40
64.0
  1
514
 50
90.0
 41
0.9
 51
0.0
  7
STANDARD
 71
     0
 72
     1
 11
-487.876711
 21
0.0
 31
0.0
210
0.0
220
0.0
230
1.0
  0
POINT
  8
DEFPOINTS
  6
CONTINUOUS
 62
    30
 10
-277.0
 20
257.0
 30
0.0
  0
POINT
  8
DEFPOINTS
  6
CONTINUOUS
 62
    30
 10
-277.0
 20
-257.0
 30
0.0
  0
POINT
  8
DEFPOINTS
  6
CONTINUOUS
 62
    30
 10
-462.876711
 20
-257.0
 30
0.0
  0
LINE
  8
SIZE
  6
CONTINUOUS
 62
    30
 10
-282.0
 20
272.0
 30
0.0
 11
-600.008956
 21
272.0
 31
0.0
  0
LINE
  8
SIZE
  6
CONTINUOUS
 62
    30
 10
-282.0
 20
-272.0
 30
0.0
 11
-600.008956
 21
-272.0
 31
0.0
  0
LINE
  8
SIZE
  6
CONTINUOUS
 62
    30
 10
-580.008956
 20
260.0
 30
0.0
 11
-580.008956
 21
-260.0
 31
0.0
  0
CIRCLE
  8
SIZE
  6
CONTINUOUS
 62
    30
 10
-580.008956
 20
272.0
 30
0.0
 40
6.0
  0
LINE
  8
SIZE
  6
CONTINUOUS
 62
    30
 10
-580.008956
 20
272.0
 30
0.0
 11
-580.008956
 21
260.0
 31
0.0
  0
CIRCLE
  8
SIZE
  6
CONTINUOUS
 62
    30
 10
-580.008956
 20
-272.0
 30
0.0
 40
6.0
  0
LINE
  8
SIZE
  6
CONTINUOUS
 62
    30
 10
-580.008956
 20
-272.0
 30
0.0
 11
-580.008956
 21
-260.0
 31
0.0
  0
TEXT
  8
SIZE
  6
CONTINUOUS
 62
    30
 10
-605.008956
 20
-81.504
 30
0.0
 40
64.0
  1
544
 50
90.0
 41
0.9
 51
0.0
  7
STANDARD
 71
     0
 72
     1
 11
-605.008956
 21
0.0
 31
0.0
210
0.0
220
0.0
230
1.0
  0
POINT
  8
DEFPOINTS
  6
CONTINUOUS
 62
    30
 10
-262.0
 20
272.0
 30
0.0
  0
POINT
  8
DEFPOINTS
  6
CONTINUOUS
 62
    30
 10
-262.0
 20
-272.0
 30
0.0
  0
POINT
  8
DEFPOINTS
  6
CONTINUOUS
 62
    30
 10
-580.008956
 20
-272.0
 30
0.0
  0
TEXT
  8
NOTE
  6
CONTINUOUS
 62
     4
 10
-606.233308
 20
403.590741
 30
0.0
 40
64.0
  1
4-φ16
 41
0.9
  0
LINE
  8
NOTE
  6
CONTINUOUS
 62
     4
 39
50.0
 10
-609.182079
 20
379.847312
 30
0.0
 11
-360.995644
 21
379.847312
 31
0.0
  0
LINE
  8
NOTE
  6
CONTINUOUS
 62
     4
 39
50.0
 10
-360.995644
 20
379.847312
 30
0.0
 11
-259.760752
 21
261.756916
 31
0.0
  0
LINE
  8
NOTE
  6
CONTINUOUS
 62
     4
 10
-293.933331
 20
282.547174
 30
0.0
 11
-259.760752
 21
261.756916
 31
0.0
  0
LINE
  8
NOTE
  6
CONTINUOUS
 62
     4
 10
-259.760752
 20
261.756916
 30
0.0
 11
-278.959945
 21
296.848097
 31
0.0
  0
TEXT
  8
NOTE
  6
CONTINUOUS
 62
     4
 10
341.039876
 20
-120.943873
 30
0.0
 40
64.0
  1
4-M8
 41
0.9
  0
LINE
  8
NOTE
  6
CONTINUOUS
 62
     4
 39
50.0
 10
338.091105
 20
-144.687302
 30
0.0
 11
586.277541
 21
-144.687302
 31
0.0
  0
LINE
  8
NOTE
  6
CONTINUOUS
 62
     4
 10
248.494586
 20
-186.133914
 30
0.0
 11
220.63033
 21
-214.832054
 31
0.0
  0
LINE
  8
NOTE
  6
CONTINUOUS
 62
     4
 10
220.63033
 20
-214.832054
 30
0.0
 11
259.110554
 21
-203.910865
 31
0.0
  0
LINE
  8
NOTE
  6
CONTINUOUS
 62
     4
 39
50.0
 10
338.091105
 20
-144.687302
 30
0.0
 11
220.63033
 21
-214.832054
 31
0.0
  0
CIRCLE
  8
FIX
  6
CONTINUOUS
 62
    11
 39
50.0
 10
-217.0
 20
217.0
 30
0.0
 40
4.0
  0
CIRCLE
  8
FIX
  6
CONTINUOUS
 62
    11
 39
50.0
 10
217.0
 20
217.0
 30
0.0
 40
4.0
  0
CIRCLE
  8
FIX
  6
CONTINUOUS
 62
    11
 39
50.0
 10
217.0
 20
-217.0
 30
0.0
 40
4.0
  0
CIRCLE
  8
FIX
  6
CONTINUOUS
 62
    11
 39
50.0
 10
-217.0
 20
-217.0
 30
0.0
 40
4.0
  0
LINE
  8
DETAIL
  6
CONTINUOUS
 62
     5
 10
230.2
 20
190.25
 30
0.0
 11
239.75
 21
190.25
 31
0.0
  0
LINE
  8
DETAIL
  6
CONTINUOUS
 62
     5
 10
230.2
 20
202.25
 30
0.0
 11
239.75
 21
202.25
 31
0.0
  0
LINE
  8
DETAIL
  6
CONTINUOUS
 62
     5
 10
226.5
 20
210.75
 30
0.0
 11
226.5
 21
225.5
 31
0.0
  0
LINE
  8
DETAIL
  6
CONTINUOUS
 62
     5
 10
227.5
 20
210.75
 30
0.0
 11
227.5
 21
225.5
 31
0.0
  0
LINE
  8
DETAIL
  6
CONTINUOUS
 62
     5
 10
210.75
 20
226.5
 30
0.0
 11
224.5
 21
226.5
 31
0.0
  0
LINE
  8
DETAIL
  6
CONTINUOUS
 62
     5
 10
182.0
 20
227.5
 30
0.0
 11
174.0
 21
227.5
 31
0.0
  0
LINE
  8
DETAIL
  6
CONTINUOUS
 62
     5
 10
227.5
 20
174.0
 30
0.0
 11
227.5
 21
182.0
 31
0.0
  0
LINE
  8
DETAIL
  6
CONTINUOUS
 62
     5
 10
226.5
 20
173.0
 30
0.0
 11
226.5
 21
182.0
 31
0.0
  0
LINE
  8
DETAIL
  6
CONTINUOUS
 62
     5
 10
229.0
 20
225.5
 30
0.0
 11
239.75
 21
225.5
 31
0.0
  0
LINE
  8
DETAIL
  6
CONTINUOUS
 62
     5
 10
173.0
 20
226.5
 30
0.0
 11
182.0
 21
226.5
 31
0.0
  0
LINE
  8
DETAIL
  6
CONTINUOUS
 62
     5
 10
224.5
 20
228.0
 30
0.0
 11
224.5
 21
227.5
 31
0.0
  0
LINE
  8
DETAIL
  6
CONTINUOUS
 62
     5
 10
225.5
 20
224.5
 30
0.0
 11
225.5
 21
225.5
 31
0.0
  0
LINE
  8
DETAIL
  6
CONTINUOUS
 62
     5
 10
226.5
 20
212.5
 30
0.0
 11
226.0
 21
212.5
 31
0.0
  0
LINE
  8
DETAIL
  6
CONTINUOUS
 62
     5
 10
226.5
 20
214.5
 30
0.0
 11
226.0
 21
214.5
 31
0.0
  0
LINE
  8
DETAIL
  6
CONTINUOUS
 62
     5
 10
224.5
 20
239.75
 30
0.0
 11
224.5
 21
230.0
 31
0.0
  0
LINE
  8
DETAIL
  6
CONTINUOUS
 62
     5
 10
225.5
 20
212.5
 30
0.0
 11
225.5
 21
212.75
 31
0.0
  0
LINE
  8
DETAIL
  6
CONTINUOUS
 62
     5
 10
227.5
 20
223.5
 30
0.0
 11
226.5
 21
223.5
 31
0.0
  0
LINE
  8
DETAIL
  6
CONTINUOUS
 62
     5
 10
226.5
 20
225.5
 30
0.0
 11
228.0
 21
225.5
 31
0.0
  0
LINE
  8
DETAIL
  6
CONTINUOUS
 62
     5
 10
224.5
 20
227.5
 30
0.0
 11
210.75
 21
227.5
 31
0.0
  0
LINE
  8
DETAIL
  6
CONTINUOUS
 62
     5
 10
239.75
 20
225.5
 30
0.0
 11
239.75
 21
202.25
 31
0.0
  0
LINE
  8
DETAIL
  6
CONTINUOUS
 62
     5
 10
239.75
 20
190.25
 30
0.0
 11
239.75
 21
0.0
 31
0.0
  0
LINE
  8
DETAIL
  6
CONTINUOUS
 62
     5
 10
0.0
 20
239.75
 30
0.0
 11
224.5
 21
239.75
 31
0.0
  0
ARC
  8
DETAIL
  6
CONTINUOUS
 62
     5
 10
224.5
 20
225.5
 30
0.0
 40
1.0
 50
0.0
 51
30.0
  0
ARC
  8
DETAIL
  6
CONTINUOUS
 62
     5
 10
224.5
 20
225.5
 30
0.0
 40
2.0
 50
0.0
 51
90.0
  0
LINE
  8
DETAIL
  6
CONTINUOUS
 62
     5
 10
226.0
 20
212.5
 30
0.0
 11
225.5
 21
212.5
 31
0.0
  0
ARC
  8
DETAIL
  6
CONTINUOUS
 62
     5
 10
224.5
 20
225.5
 30
0.0
 40
1.0
 50
30.0
 51
90.0
  0
LINE
  8
DETAIL
  6
CONTINUOUS
 62
     5
 10
172.5
 20
226.0
 30
0.0
 11
182.0
 21
226.0
 31
0.0
  0
LINE
  8
DETAIL
  6
CONTINUOUS
 62
     5
 10
210.75
 20
226.0
 30
0.0
 11
225.366025
 21
226.0
 31
0.0
  0
LINE
  8
DETAIL
  6
CONTINUOUS
 62
     5
 10
226.436492
 20
226.0
 30
0.0
 11
240.0
 21
226.0
 31
0.0
  0
LINE
  8
DETAIL
  6
CONTINUOUS
 62
     5
 10
0.0
 20
272.0
 30
0.0
 11
262.0
 21
272.0
 31
0.0
  0
ARC
  8
DETAIL
  6
CONTINUOUS
 62
     5
 10
262.0
 20
262.0
 30
0.0
 40
10.0
 50
0.0
 51
90.0
  0
LINE
  8
DETAIL
  6
CONTINUOUS
 62
     5
 10
272.0
 20
262.0
 30
0.0
 11
272.0
 21
242.0
 31
0.0
  0
LINE
  8
DETAIL
  6
CONTINUOUS
 62
     5
 10
0.0
 20
240.0
 30
0.0
 11
240.0
 21
240.0
 31
0.0
  0
LINE
  8
DETAIL
  6
CONTINUOUS
 62
     5
 10
240.0
 20
226.0
 30
0.0
 11
240.0
 21
242.0
 31
0.0
  0
LINE
  8
DETAIL
  6
CONTINUOUS
 62
     5
 10
240.0
 20
242.0
 30
0.0
 11
242.0
 21
242.0
 31
0.0
  0
LINE
  8
DETAIL
  6
CONTINUOUS
 62
     5
 10
242.0
 20
242.0
 30
0.0
 11
272.0
 21
242.0
 31
0.0
  0
LINE
  8
DETAIL
  6
CONTINUOUS
 62
     5
 10
229.0
 20
226.0
 30
0.0
 11
240.0
 21
226.0
 31
0.0
  0
LINE
  8
DETAIL
  6
CONTINUOUS
 62
     5
 10
226.0
 20
182.0
 30
0.0
 11
226.0
 21
172.5
 31
0.0
  0
LINE
  8
DETAIL
  6
CONTINUOUS
 62
     5
 10
226.0
 20
212.5
 30
0.0
 11
226.0
 21
210.75
 31
0.0
  0
LINE
  8
DETAIL
  6
CONTINUOUS
 62
     5
 10
226.436492
 20
226.0
 30
0.0
 11
228.0
 21
226.0
 31
0.0
  0
LINE
  8
DETAIL
  6
CONTINUOUS
 62
     5
 10
272.0
 20
242.0
 30
0.0
 11
272.0
 21
0.0
 31
0.0
  0
LINE
  8
DETAIL
  6
CONTINUOUS
 62
     5
 10
242.0
 20
242.0
 30
0.0
 11
242.0
 21
240.5
 31
0.0
  0
ARC
  8
DETAIL
  6
CONTINUOUS
 62
     5
 10
262.0
 20
262.0
 30
0.0
 40
10.0
 50
0.0
 51
90.0
  0
LINE
  8
DETAIL
  6
CONTINUOUS
 62
     5
 10
272.0
 20
262.0
 30
0.0
 11
272.0
 21
242.0
 31
0.0
  0
LINE
  8
DETAIL
  6
CONTINUOUS
 62
     5
 10
240.8
 20
240.5
 30
0.0
 11
240.8
 21
0.0
 31
0.0
  0
LINE
  8
DETAIL
  6
CONTINUOUS
 62
     5
 10
240.0
 20
226.0
 30
0.0
 11
240.0
 21
0.0
 31
0.0
  0
LINE
  8
DETAIL
  6
CONTINUOUS
 62
     5
 10
240.0
 20
240.5
 30
0.0
 11
240.0
 21
226.0
 31
0.0
  0
LINE
  8
DETAIL
  6
CONTINUOUS
 62
     5
 10
240.0
 20
240.5
 30
0.0
 11
242.0
 21
240.5
 31
0.0
  0
LINE
  8
DETAIL
  6
CONTINUOUS
 62
     5
 10
242.0
 20
241.5
 30
0.0
 11
272.0
 21
241.5
 31
0.0
  0
LINE
  8
DETAIL
  6
CONTINUOUS
 62
     5
 10
242.0
 20
272.0
 30
0.0
 11
262.0
 21
272.0
 31
0.0
  0
LINE
  8
DETAIL
  6
CONTINUOUS
 62
     5
 10
228.0
 20
210.75
 30
0.0
 11
228.0
 21
228.0
 31
0.0
  0
LINE
  8
DETAIL
  6
CONTINUOUS
 62
     5
 10
229.0
 20
210.75
 30
0.0
 11
229.0
 21
228.0
 31
0.0
  0
LINE
  8
DETAIL
  6
CONTINUOUS
 62
     5
 10
229.0
 20
0.0
 30
0.0
 11
229.0
 21
182.0
 31
0.0
  0
LINE
  8
DETAIL
  6
CONTINUOUS
 62
     5
 10
214.0
 20
230.0
 30
0.0
 11
214.0
 21
229.0
 31
0.0
  0
LINE
  8
DETAIL
  6
CONTINUOUS
 62
     5
 10
216.0
 20
230.0
 30
0.0
 11
216.0
 21
229.0
 31
0.0
  0
LINE
  8
DETAIL
  6
CONTINUOUS
 62
     5
 10
225.0
 20
171.5
 30
0.0
 11
225.0
 21
0.0
 31
0.0
  0
LINE
  8
DETAIL
  6
CONTINUOUS
 62
     5
 10
228.0
 20
174.5
 30
0.0
 11
228.0
 21
182.0
 31
0.0
  0
LINE
  8
DETAIL
  6
CONTINUOUS
 62
     5
 10
225.0
 20
171.5
 30
0.0
 11
228.0
 21
174.5
 31
0.0
  0
LINE
  8
DETAIL
  6
CONTINUOUS
 62
     5
 10
229.0
 20
174.5
 30
0.0
 11
228.0
 21
174.5
 31
0.0
  0
LINE
  8
DETAIL
  6
CONTINUOUS
 62
     5
 10
214.0
 20
229.0
 30
0.0
 11
227.0
 21
229.0
 31
0.0
  0
LINE
  8
DETAIL
  6
CONTINUOUS
 62
     5
 10
214.0
 20
230.0
 30
0.0
 11
227.0
 21
230.0
 31
0.0
  0
ARC
  8
DETAIL
  6
CONTINUOUS
 62
     5
 10
227.0
 20
228.0
 30
0.0
 40
2.0
 50
0.0
 51
90.0
  0
ARC
  8
DETAIL
  6
CONTINUOUS
 62
     5
 10
227.0
 20
228.0
 30
0.0
 40
1.0
 50
0.0
 51
90.0
  0
LINE
  8
DETAIL
  6
CONTINUOUS
 62
     5
 10
218.732412
 20
212.934136
 30
0.0
 11
221.065864
 21
215.267588
 31
0.0
  0
ARC
  8
DETAIL
  6
CONTINUOUS
 62
     5
 10
215.833274
 20
215.833274
 30
0.0
 40
4.1
 50
135.0
 51
315.0
  0
LINE
  8
DETAIL
  6
CONTINUOUS
 62
     5
 10
212.934136
 20
218.732412
 30
0.0
 11
215.267588
 21
221.065864
 31
0.0
  0
ARC
  8
DETAIL
  6
CONTINUOUS
 62
     5
 10
218.166726
 20
218.166726
 30
0.0
 40
4.1
 50
315.0
 51
135.0
  0
LINE
  8
DETAIL
  6
CONTINUOUS
 62
     5
 10
226.0
 20
182.0
 30
0.0
 11
230.2
 21
182.0
 31
0.0
  0
LINE
  8
DETAIL
  6
CONTINUOUS
 62
     5
 10
182.0
 20
230.2
 30
0.0
 11
182.0
 21
226.0
 31
0.0
  0
LINE
  8
DETAIL
  6
CONTINUOUS
 62
     5
 10
230.2
 20
210.75
 30
0.0
 11
223.5
 21
210.75
 31
0.0
  0
LINE
  8
DETAIL
  6
CONTINUOUS
 62
     5
 10
223.5
 20
212.75
 30
0.0
 11
226.0
 21
212.75
 31
0.0
  0
LINE
  8
DETAIL
  6
CONTINUOUS
 62
     5
 10
210.75
 20
223.5
 30
0.0
 11
210.75
 21
230.2
 31
0.0
  0
LINE
  8
DETAIL
  6
CONTINUOUS
 62
     5
 10
212.75
 20
226.0
 30
0.0
 11
212.75
 21
223.5
 31
0.0
  0
LINE
  8
DETAIL
  6
CONTINUOUS
 62
     5
 10
224.0
 20
226.0
 30
0.0
 11
212.75
 21
226.0
 31
0.0
  0
LINE
  8
DETAIL
  6
CONTINUOUS
 62
     5
 10
182.0
 20
230.2
 30
0.0
 11
210.75
 21
230.2
 31
0.0
  0
LINE
  8
DETAIL
  6
CONTINUOUS
 62
     5
 10
226.0
 20
212.75
 30
0.0
 11
226.0
 21
224.0
 31
0.0
  0
LINE
  8
DETAIL
  6
CONTINUOUS
 62
     5
 10
230.2
 20
210.75
 30
0.0
 11
230.2
 21
182.0
 31
0.0
  0
LINE
  8
DETAIL
  6
CONTINUOUS
 62
     5
 10
219.964466
 20
178.464466
 30
0.0
 11
178.464466
 21
219.964466
 31
0.0
  0
LINE
  8
DETAIL
  6
CONTINUOUS
 62
     5
 10
224.0
 20
226.0
 30
0.0
 11
226.0
 21
224.0
 31
0.0
  0
CIRCLE
  8
DETAIL
  6
CONTINUOUS
 62
     5
 10
217.0
 20
217.0
 30
0.0
 40
4.0
  0
ARC
  8
DETAIL
  6
CONTINUOUS
 62
     5
 10
223.5
 20
211.75
 30
0.0
 40
1.0
 50
90.0
 51
270.0
  0
ARC
  8
DETAIL
  6
CONTINUOUS
 62
     5
 10
211.75
 20
223.5
 30
0.0
 40
1.0
 50
180.0
 51
0.0
  0
ARC
  8
DETAIL
  6
CONTINUOUS
 62
     5
 10
215.833274
 20
215.833274
 30
0.0
 40
4.1
 50
135.0
 51
315.0
  0
ARC
  8
DETAIL
  6
CONTINUOUS
 62
     5
 10
218.166726
 20
218.166726
 30
0.0
 40
4.1
 50
315.0
 51
135.0
  0
LINE
  8
DETAIL
  6
CONTINUOUS
 62
     5
 10
218.732412
 20
212.934136
 30
0.0
 11
221.065864
 21
215.267588
 31
0.0
  0
LINE
  8
DETAIL
  6
CONTINUOUS
 62
     5
 10
212.934136
 20
218.732412
 30
0.0
 11
215.267588
 21
221.065864
 31
0.0
  0
LINE
  8
DETAIL
  6
CONTINUOUS
 62
     5
 10
225.5
 20
224.5
 30
0.0
 11
224.0
 21
226.0
 31
0.0
  0
LINE
  8
DETAIL
  6
CONTINUOUS
 62
     5
 10
225.5
 20
212.75
 30
0.0
 11
223.5
 21
212.75
 31
0.0
  0
LINE
  8
DETAIL
  6
CONTINUOUS
 62
     5
 10
226.5
 20
182.0
 30
0.0
 11
226.0
 21
182.0
 31
0.0
  0
LINE
  8
DETAIL
  6
CONTINUOUS
 62
     5
 10
210.75
 20
226.5
 30
0.0
 11
210.75
 21
226.0
 31
0.0
  0
LINE
  8
DETAIL
  6
CONTINUOUS
 62
     5
 10
212.75
 20
223.5
 30
0.0
 11
212.75
 21
226.0
 31
0.0
  0
LINE
  8
DETAIL
  6
CONTINUOUS
 62
     5
 10
225.3
 20
208.75
 30
0.0
 11
226.5
 21
208.75
 31
0.0
  0
LINE
  8
DETAIL
  6
CONTINUOUS
 62
     5
 10
223.5
 20
210.75
 30
0.0
 11
226.0
 21
210.75
 31
0.0
  0
LINE
  8
DETAIL
  6
CONTINUOUS
 62
     5
 10
172.464466
 20
225.964466
 30
0.0
 11
225.964466
 21
172.464466
 31
0.0
  0
ARC
  8
DETAIL
  6
CONTINUOUS
 62
     5
 10
211.75
 20
223.5
 30
0.0
 40
1.0
 50
180.0
 51
0.0
  0
ARC
  8
DETAIL
  6
CONTINUOUS
 62
     5
 10
223.5
 20
211.75
 30
0.0
 40
1.0
 50
90.0
 51
270.0
  0
LINE
  8
DETAIL
  6
CONTINUOUS
 62
     5
 10
212.75
 20
226.0
 30
0.0
 11
224.0
 21
226.0
 31
0.0
  0
LINE
  8
DETAIL
  6
CONTINUOUS
 62
     5
 10
226.0
 20
182.0
 30
0.0
 11
226.0
 21
182.0
 31
0.0
  0
LINE
  8
DETAIL
  6
CONTINUOUS
 62
     5
 10
226.0
 20
210.75
 30
0.0
 11
226.5
 21
210.75
 31
0.0
  0
LINE
  8
DETAIL
  6
CONTINUOUS
 62
     5
 10
210.75
 20
226.0
 30
0.0
 11
210.75
 21
223.5
 31
0.0
  0
LINE
  8
DETAIL
  6
CONTINUOUS
 62
     5
 10
182.0
 20
226.0
 30
0.0
 11
182.0
 21
226.5
 31
0.0
  0
CIRCLE
  8
DETAIL
  6
CONTINUOUS
 62
     5
 10
217.0
 20
217.0
 30
0.0
 40
4.0
  0
LINE
  8
DETAIL
  6
CONTINUOUS
 62
     5
 10
199.25
 20
231.5
 30
0.0
 11
193.25
 21
231.5
 31
0.0
  0
LINE
  8
DETAIL
  6
CONTINUOUS
 62
     5
 10
227.0
 20
229.0
 30
0.0
 11
210.75
 21
229.0
 31
0.0
  0
LINE
  8
DETAIL
  6
CONTINUOUS
 62
     5
 10
227.0
 20
228.0
 30
0.0
 11
210.75
 21
228.0
 31
0.0
  0
LINE
  8
DETAIL
  6
CONTINUOUS
 62
     5
 10
0.0
 20
225.0
 30
0.0
 11
171.5
 21
225.0
 31
0.0
  0
LINE
  8
DETAIL
  6
CONTINUOUS
 62
     5
 10
182.0
 20
229.0
 30
0.0
 11
0.0
 21
229.0
 31
0.0
  0
LINE
  8
DETAIL
  6
CONTINUOUS
 62
     5
 10
182.0
 20
228.0
 30
0.0
 11
174.5
 21
228.0
 31
0.0
  0
LINE
  8
DETAIL
  6
CONTINUOUS
 62
     5
 10
171.5
 20
225.0
 30
0.0
 11
174.5
 21
228.0
 31
0.0
  0
LINE
  8
DETAIL
  6
CONTINUOUS
 62
     5
 10
174.5
 20
228.0
 30
0.0
 11
174.5
 21
232.0
 31
0.0
  0
LINE
  8
DETAIL
  6
CONTINUOUS
 62
     5
 10
192.25
 20
230.5
 30
0.0
 11
192.25
 21
230.2
 31
0.0
  0
LINE
  8
DETAIL
  6
CONTINUOUS
 62
     5
 10
200.25
 20
230.5
 30
0.0
 11
200.25
 21
230.2
 31
0.0
  0
LINE
  8
DETAIL
  6
CONTINUOUS
 62
     5
 10
225.0
 20
229.0
 30
0.0
 11
225.0
 21
228.0
 31
0.0
  0
LINE
  8
DETAIL
  6
CONTINUOUS
 62
     5
 10
227.0
 20
229.0
 30
0.0
 11
227.0
 21
228.0
 31
0.0
  0
LINE
  8
DETAIL
  6
CONTINUOUS
 62
     5
 10
193.25
 20
231.5
 30
0.0
 11
192.25
 21
230.5
 31
0.0
  0
LINE
  8
DETAIL
  6
CONTINUOUS
 62
     5
 10
199.25
 20
231.5
 30
0.0
 11
200.25
 21
230.5
 31
0.0
  0
LINE
  8
DETAIL
  6
CONTINUOUS
 62
     5
 10
229.0
 20
153.0
 30
0.0
 11
229.8
 21
153.0
 31
0.0
  0
LINE
  8
DETAIL
  6
CONTINUOUS
 62
     5
 10
229.8
 20
135.9
 30
0.0
 11
229.8
 21
153.0
 31
0.0
  0
LINE
  8
DETAIL
  6
CONTINUOUS
 62
     5
 10
229.0
 20
135.9
 30
0.0
 11
229.8
 21
135.9
 31
0.0
  0
LINE
  8
DETAIL
  6
CONTINUOUS
 62
     5
 10
229.0
 20
135.9
 30
0.0
 11
229.0
 21
153.0
 31
0.0
  0
ARC
  8
DETAIL
  6
CONTINUOUS
 62
     5
 10
226.2
 20
145.5
 30
0.0
 40
6.1
 50
309.601983
 51
50.398035
  0
LINE
  8
DETAIL
  6
CONTINUOUS
 62
     5
 10
229.8
 20
150.2
 30
0.0
 11
229.8
 21
140.8
 31
0.0
  0
LINE
  8
DETAIL
  6
CONTINUOUS
 62
     5
 10
229.8
 20
140.8
 30
0.0
 11
230.088445
 21
140.8
 31
0.0
  0
LINE
  8
DETAIL
  6
CONTINUOUS
 62
     5
 10
229.8
 20
150.2
 30
0.0
 11
230.088445
 21
150.2
 31
0.0
  0
LINE
  8
DETAIL
  6
CONTINUOUS
 62
     5
 10
230.088445
 20
140.8
 30
0.0
 11
230.088445
 21
150.2
 31
0.0
  0
LINE
  8
DETAIL
  6
CONTINUOUS
 62
     5
 10
221.880415
 20
216.429339
 30
0.0
 11
220.986954
 21
217.3228
 31
0.0
  0
LINE
  8
DETAIL
  6
CONTINUOUS
 62
     5
 10
216.429339
 20
221.880415
 30
0.0
 11
217.3228
 21
220.986954
 31
0.0
  0
LINE
  8
DETAIL
  6
CONTINUOUS
 62
     5
 10
210.75
 20
223.821782
 30
0.0
 11
212.75
 21
223.821782
 31
0.0
  0
LINE
  8
DETAIL
  6
CONTINUOUS
 62
     5
 10
223.821782
 20
210.75
 30
0.0
 11
223.821782
 21
212.75
 31
0.0
  0
LINE
  8
DETAIL
  6
CONTINUOUS
 62
     5
 10
0.0
 20
232.0
 30
0.0
 11
232.0
 21
232.0
 31
0.0
  0
LINE
  8
DETAIL
  6
CONTINUOUS
 62
     5
 10
232.0
 20
232.0
 30
0.0
 11
232.0
 21
0.0
 31
0.0
  0
LINE
  8
DETAIL
  6
CONTINUOUS
 62
     5
 10
-230.2
 20
-190.25
 30
0.0
 11
-239.75
 21
-190.25
 31
0.0
  0
LINE
  8
DETAIL
  6
CONTINUOUS
 62
     5
 10
-230.2
 20
-202.25
 30
0.0
 11
-239.75
 21
-202.25
 31
0.0
  0
LINE
  8
DETAIL
  6
CONTINUOUS
 62
     5
 10
-226.5
 20
-210.75
 30
0.0
 11
-226.5
 21
-225.5
 31
0.0
  0
LINE
  8
DETAIL
  6
CONTINUOUS
 62
     5
 10
-227.5
 20
-210.75
 30
0.0
 11
-227.5
 21
-225.5
 31
0.0
  0
LINE
  8
DETAIL
  6
CONTINUOUS
 62
     5
 10
-210.75
 20
-226.5
 30
0.0
 11
-224.5
 21
-226.5
 31
0.0
  0
LINE
  8
DETAIL
  6
CONTINUOUS
 62
     5
 10
-182.0
 20
-227.5
 30
0.0
 11
-174.0
 21
-227.5
 31
0.0
  0
LINE
  8
DETAIL
  6
CONTINUOUS
 62
     5
 10
-227.5
 20
-174.0
 30
0.0
 11
-227.5
 21
-182.0
 31
0.0
  0
LINE
  8
DETAIL
  6
CONTINUOUS
 62
     5
 10
-226.5
 20
-173.0
 30
0.0
 11
-226.5
 21
-182.0
 31
0.0
  0
LINE
  8
DETAIL
  6
CONTINUOUS
 62
     5
 10
-229.0
 20
-225.5
 30
0.0
 11
-239.75
 21
-225.5
 31
0.0
  0
LINE
  8
DETAIL
  6
CONTINUOUS
 62
     5
 10
-173.0
 20
-226.5
 30
0.0
 11
-182.0
 21
-226.5
 31
0.0
  0
LINE
  8
DETAIL
  6
CONTINUOUS
 62
     5
 10
-224.5
 20
-228.0
 30
0.0
 11
-224.5
 21
-227.5
 31
0.0
  0
LINE
  8
DETAIL
  6
CONTINUOUS
 62
     5
 10
-225.5
 20
-224.5
 30
0.0
 11
-225.5
 21
-225.5
 31
0.0
  0
LINE
  8
DETAIL
  6
CONTINUOUS
 62
     5
 10
-226.5
 20
-212.5
 30
0.0
 11
-226.0
 21
-212.5
 31
0.0
  0
LINE
  8
DETAIL
  6
CONTINUOUS
 62
     5
 10
-226.5
 20
-214.5
 30
0.0
 11
-226.0
 21
-214.5
 31
0.0
  0
LINE
  8
DETAIL
  6
CONTINUOUS
 62
     5
 10
-224.5
 20
-239.75
 30
0.0
 11
-224.5
 21
-230.0
 31
0.0
  0
LINE
  8
DETAIL
  6
CONTINUOUS
 62
     5
 10
-225.5
 20
-212.5
 30
0.0
 11
-225.5
 21
-212.75
 31
0.0
  0
LINE
  8
DETAIL
  6
CONTINUOUS
 62
     5
 10
-227.5
 20
-223.5
 30
0.0
 11
-226.5
 21
-223.5
 31
0.0
  0
LINE
  8
DETAIL
  6
CONTINUOUS
 62
     5
 10
-226.5
 20
-225.5
 30
0.0
 11
-228.0
 21
-225.5
 31
0.0
  0
LINE
  8
DETAIL
  6
CONTINUOUS
 62
     5
 10
-224.5
 20
-227.5
 30
0.0
 11
-210.75
 21
-227.5
 31
0.0
  0
LINE
  8
DETAIL
  6
CONTINUOUS
 62
     5
 10
-239.75
 20
-225.5
 30
0.0
 11
-239.75
 21
-202.25
 31
0.0
  0
LINE
  8
DETAIL
  6
CONTINUOUS
 62
     5
 10
-239.75
 20
-190.25
 30
0.0
 11
-239.75
 21
0.0
 31
0.0
  0
LINE
  8
DETAIL
  6
CONTINUOUS
 62
     5
 10
0.0
 20
-239.75
 30
0.0
 11
-224.5
 21
-239.75
 31
0.0
  0
ARC
  8
DETAIL
  6
CONTINUOUS
 62
     5
 10
-224.5
 20
-225.5
 30
0.0
 40
1.0
 50
180.0
 51
210.0
  0
ARC
  8
DETAIL
  6
CONTINUOUS
 62
     5
 10
-224.5
 20
-225.5
 30
0.0
 40
2.0
 50
180.0
 51
270.0
  0
LINE
  8
DETAIL
  6
CONTINUOUS
 62
     5
 10
-226.0
 20
-212.5
 30
0.0
 11
-225.5
 21
-212.5
 31
0.0
  0
ARC
  8
DETAIL
  6
CONTINUOUS
 62
     5
 10
-224.5
 20
-225.5
 30
0.0
 40
1.0
 50
210.0
 51
270.0
  0
LINE
  8
DETAIL
  6
CONTINUOUS
 62
     5
 10
-172.5
 20
-226.0
 30
0.0
 11
-182.0
 21
-226.0
 31
0.0
  0
LINE
  8
DETAIL
  6
CONTINUOUS
 62
     5
 10
-210.75
 20
-226.0
 30
0.0
 11
-225.366025
 21
-226.0
 31
0.0
  0
LINE
  8
DETAIL
  6
CONTINUOUS
 62
     5
 10
-226.436492
 20
-226.0
 30
0.0
 11
-240.0
 21
-226.0
 31
0.0
  0
LINE
  8
DETAIL
  6
CONTINUOUS
 62
     5
 10
0.0
 20
-272.0
 30
0.0
 11
-262.0
 21
-272.0
 31
0.0
  0
ARC
  8
DETAIL
  6
CONTINUOUS
 62
     5
 10
-262.0
 20
-262.0
 30
0.0
 40
10.0
 50
180.0
 51
270.0
  0
LINE
  8
DETAIL
  6
CONTINUOUS
 62
     5
 10
-272.0
 20
-262.0
 30
0.0
 11
-272.0
 21
-242.0
 31
0.0
  0
LINE
  8
DETAIL
  6
CONTINUOUS
 62
     5
 10
0.0
 20
-240.0
 30
0.0
 11
-240.0
 21
-240.0
 31
0.0
  0
LINE
  8
DETAIL
  6
CONTINUOUS
 62
     5
 10
-240.0
 20
-226.0
 30
0.0
 11
-240.0
 21
-242.0
 31
0.0
  0
LINE
  8
DETAIL
  6
CONTINUOUS
 62
     5
 10
-240.0
 20
-242.0
 30
0.0
 11
-242.0
 21
-242.0
 31
0.0
  0
LINE
  8
DETAIL
  6
CONTINUOUS
 62
     5
 10
-242.0
 20
-242.0
 30
0.0
 11
-272.0
 21
-242.0
 31
0.0
  0
LINE
  8
DETAIL
  6
CONTINUOUS
 62
     5
 10
-229.0
 20
-226.0
 30
0.0
 11
-240.0
 21
-226.0
 31
0.0
  0
LINE
  8
DETAIL
  6
CONTINUOUS
 62
     5
 10
-226.0
 20
-182.0
 30
0.0
 11
-226.0
 21
-172.5
 31
0.0
  0
LINE
  8
DETAIL
  6
CONTINUOUS
 62
     5
 10
-226.0
 20
-212.5
 30
0.0
 11
-226.0
 21
-210.75
 31
0.0
  0
LINE
  8
DETAIL
  6
CONTINUOUS
 62
     5
 10
-226.436492
 20
-226.0
 30
0.0
 11
-228.0
 21
-226.0
 31
0.0
  0
LINE
  8
DETAIL
  6
CONTINUOUS
 62
     5
 10
-272.0
 20
-242.0
 30
0.0
 11
-272.0
 21
0.0
 31
0.0
  0
LINE
  8
DETAIL
  6
CONTINUOUS
 62
     5
 10
-242.0
 20
-242.0
 30
0.0
 11
-242.0
 21
-240.5
 31
0.0
  0
ARC
  8
DETAIL
  6
CONTINUOUS
 62
     5
 10
-262.0
 20
-262.0
 30
0.0
 40
10.0
 50
180.0
 51
270.0
  0
LINE
  8
DETAIL
  6
CONTINUOUS
 62
     5
 10
-272.0
 20
-262.0
 30
0.0
 11
-272.0
 21
-242.0
 31
0.0
  0
LINE
  8
DETAIL
  6
CONTINUOUS
 62
     5
 10
-240.8
 20
-240.5
 30
0.0
 11
-240.8
 21
0.0
 31
0.0
  0
LINE
  8
DETAIL
  6
CONTINUOUS
 62
     5
 10
-240.0
 20
-226.0
 30
0.0
 11
-240.0
 21
0.0
 31
0.0
  0
LINE
  8
DETAIL
  6
CONTINUOUS
 62
     5
 10
-240.0
 20
-240.5
 30
0.0
 11
-240.0
 21
-226.0
 31
0.0
  0
LINE
  8
DETAIL
  6
CONTINUOUS
 62
     5
 10
-240.0
 20
-240.5
 30
0.0
 11
-242.0
 21
-240.5
 31
0.0
  0
LINE
  8
DETAIL
  6
CONTINUOUS
 62
     5
 10
-242.0
 20
-241.5
 30
0.0
 11
-272.0
 21
-241.5
 31
0.0
  0
LINE
  8
DETAIL
  6
CONTINUOUS
 62
     5
 10
-242.0
 20
-272.0
 30
0.0
 11
-262.0
 21
-272.0
 31
0.0
  0
LINE
  8
DETAIL
  6
CONTINUOUS
 62
     5
 10
-228.0
 20
-210.75
 30
0.0
 11
-228.0
 21
-228.0
 31
0.0
  0
LINE
  8
DETAIL
  6
CONTINUOUS
 62
     5
 10
-229.0
 20
-210.75
 30
0.0
 11
-229.0
 21
-228.0
 31
0.0
  0
LINE
  8
DETAIL
  6
CONTINUOUS
 62
     5
 10
-229.0
 20
0.0
 30
0.0
 11
-229.0
 21
-182.0
 31
0.0
  0
LINE
  8
DETAIL
  6
CONTINUOUS
 62
     5
 10
-214.0
 20
-230.0
 30
0.0
 11
-214.0
 21
-229.0
 31
0.0
  0
LINE
  8
DETAIL
  6
CONTINUOUS
 62
     5
 10
-216.0
 20
-230.0
 30
0.0
 11
-216.0
 21
-229.0
 31
0.0
  0
LINE
  8
DETAIL
  6
CONTINUOUS
 62
     5
 10
-225.0
 20
-171.5
 30
0.0
 11
-225.0
 21
0.0
 31
0.0
  0
LINE
  8
DETAIL
  6
CONTINUOUS
 62
     5
 10
-228.0
 20
-174.5
 30
0.0
 11
-228.0
 21
-182.0
 31
0.0
  0
LINE
  8
DETAIL
  6
CONTINUOUS
 62
     5
 10
-225.0
 20
-171.5
 30
0.0
 11
-228.0
 21
-174.5
 31
0.0
  0
LINE
  8
DETAIL
  6
CONTINUOUS
 62
     5
 10
-229.0
 20
-174.5
 30
0.0
 11
-228.0
 21
-174.5
 31
0.0
  0
LINE
  8
DETAIL
  6
CONTINUOUS
 62
     5
 10
-214.0
 20
-229.0
 30
0.0
 11
-227.0
 21
-229.0
 31
0.0
  0
LINE
  8
DETAIL
  6
CONTINUOUS
 62
     5
 10
-214.0
 20
-230.0
 30
0.0
 11
-227.0
 21
-230.0
 31
0.0
  0
ARC
  8
DETAIL
  6
CONTINUOUS
 62
     5
 10
-227.0
 20
-228.0
 30
0.0
 40
2.0
 50
180.0
 51
270.0
  0
ARC
  8
DETAIL
  6
CONTINUOUS
 62
     5
 10
-227.0
 20
-228.0
 30
0.0
 40
1.0
 50
180.0
 51
270.0
  0
LINE
  8
DETAIL
  6
CONTINUOUS
 62
     5
 10
-218.732412
 20
-212.934136
 30
0.0
 11
-221.065864
 21
-215.267588
 31
0.0
  0
ARC
  8
DETAIL
  6
CONTINUOUS
 62
     5
 10
-215.833274
 20
-215.833274
 30
0.0
 40
4.1
 50
315.0
 51
135.0
  0
LINE
  8
DETAIL
  6
CONTINUOUS
 62
     5
 10
-212.934136
 20
-218.732412
 30
0.0
 11
-215.267588
 21
-221.065864
 31
0.0
  0
ARC
  8
DETAIL
  6
CONTINUOUS
 62
     5
 10
-218.166726
 20
-218.166726
 30
0.0
 40
4.1
 50
135.0
 51
315.0
  0
LINE
  8
DETAIL
  6
CONTINUOUS
 62
     5
 10
-226.0
 20
-182.0
 30
0.0
 11
-230.2
 21
-182.0
 31
0.0
  0
LINE
  8
DETAIL
  6
CONTINUOUS
 62
     5
 10
-182.0
 20
-230.2
 30
0.0
 11
-182.0
 21
-226.0
 31
0.0
  0
LINE
  8
DETAIL
  6
CONTINUOUS
 62
     5
 10
-230.2
 20
-210.75
 30
0.0
 11
-223.5
 21
-210.75
 31
0.0
  0
LINE
  8
DETAIL
  6
CONTINUOUS
 62
     5
 10
-223.5
 20
-212.75
 30
0.0
 11
-226.0
 21
-212.75
 31
0.0
  0
LINE
  8
DETAIL
  6
CONTINUOUS
 62
     5
 10
-210.75
 20
-223.5
 30
0.0
 11
-210.75
 21
-230.2
 31
0.0
  0
LINE
  8
DETAIL
  6
CONTINUOUS
 62
     5
 10
-212.75
 20
-226.0
 30
0.0
 11
-212.75
 21
-223.5
 31
0.0
  0
LINE
  8
DETAIL
  6
CONTINUOUS
 62
     5
 10
-224.0
 20
-226.0
 30
0.0
 11
-212.75
 21
-226.0
 31
0.0
  0
LINE
  8
DETAIL
  6
CONTINUOUS
 62
     5
 10
-182.0
 20
-230.2
 30
0.0
 11
-210.75
 21
-230.2
 31
0.0
  0
LINE
  8
DETAIL
  6
CONTINUOUS
 62
     5
 10
-226.0
 20
-212.75
 30
0.0
 11
-226.0
 21
-224.0
 31
0.0
  0
LINE
  8
DETAIL
  6
CONTINUOUS
 62
     5
 10
-230.2
 20
-210.75
 30
0.0
 11
-230.2
 21
-182.0
 31
0.0
  0
LINE
  8
DETAIL
  6
CONTINUOUS
 62
     5
 10
-225.964466
 20
-172.464466
 30
0.0
 11
-178.464466
 21
-219.964466
 31
0.0
  0
LINE
  8
DETAIL
  6
CONTINUOUS
 62
     5
 10
-224.0
 20
-226.0
 30
0.0
 11
-226.0
 21
-224.0
 31
0.0
  0
CIRCLE
  8
DETAIL
  6
CONTINUOUS
 62
     5
 10
-217.0
 20
-217.0
 30
0.0
 40
4.0
  0
ARC
  8
DETAIL
  6
CONTINUOUS
 62
     5
 10
-223.5
 20
-211.75
 30
0.0
 40
1.0
 50
270.0
 51
90.0
  0
ARC
  8
DETAIL
  6
CONTINUOUS
 62
     5
 10
-211.75
 20
-223.5
 30
0.0
 40
1.0
 50
0.0
 51
180.0
  0
ARC
  8
DETAIL
  6
CONTINUOUS
 62
     5
 10
-215.833274
 20
-215.833274
 30
0.0
 40
4.1
 50
315.0
 51
135.0
  0
ARC
  8
DETAIL
  6
CONTINUOUS
 62
     5
 10
-218.166726
 20
-218.166726
 30
0.0
 40
4.1
 50
135.0
 51
315.0
  0
LINE
  8
DETAIL
  6
CONTINUOUS
 62
     5
 10
-218.732412
 20
-212.934136
 30
0.0
 11
-221.065864
 21
-215.267588
 31
0.0
  0
LINE
  8
DETAIL
  6
CONTINUOUS
 62
     5
 10
-212.934136
 20
-218.732412
 30
0.0
 11
-215.267588
 21
-221.065864
 31
0.0
  0
LINE
  8
DETAIL
  6
CONTINUOUS
 62
     5
 10
-225.5
 20
-224.5
 30
0.0
 11
-224.0
 21
-226.0
 31
0.0
  0
LINE
  8
DETAIL
  6
CONTINUOUS
 62
     5
 10
-225.5
 20
-212.75
 30
0.0
 11
-223.5
 21
-212.75
 31
0.0
  0
LINE
  8
DETAIL
  6
CONTINUOUS
 62
     5
 10
-226.5
 20
-182.0
 30
0.0
 11
-226.0
 21
-182.0
 31
0.0
  0
LINE
  8
DETAIL
  6
CONTINUOUS
 62
     5
 10
-210.75
 20
-226.5
 30
0.0
 11
-210.75
 21
-226.0
 31
0.0
  0
LINE
  8
DETAIL
  6
CONTINUOUS
 62
     5
 10
-212.75
 20
-223.5
 30
0.0
 11
-212.75
 21
-226.0
 31
0.0
  0
LINE
  8
DETAIL
  6
CONTINUOUS
 62
     5
 10
-223.5
 20
-210.75
 30
0.0
 11
-226.0
 21
-210.75
 31
0.0
  0
LINE
  8
DETAIL
  6
CONTINUOUS
 62
     5
 10
-172.464466
 20
-225.964466
 30
0.0
 11
-225.964466
 21
-172.464466
 31
0.0
  0
ARC
  8
DETAIL
  6
CONTINUOUS
 62
     5
 10
-211.75
 20
-223.5
 30
0.0
 40
1.0
 50
0.0
 51
180.0
  0
ARC
  8
DETAIL
  6
CONTINUOUS
 62
     5
 10
-223.5
 20
-211.75
 30
0.0
 40
1.0
 50
270.0
 51
90.0
  0
LINE
  8
DETAIL
  6
CONTINUOUS
 62
     5
 10
-212.75
 20
-226.0
 30
0.0
 11
-224.0
 21
-226.0
 31
0.0
  0
LINE
  8
DETAIL
  6
CONTINUOUS
 62
     5
 10
-226.0
 20
-210.75
 30
0.0
 11
-226.5
 21
-210.75
 31
0.0
  0
LINE
  8
DETAIL
  6
CONTINUOUS
 62
     5
 10
-210.75
 20
-226.0
 30
0.0
 11
-210.75
 21
-223.5
 31
0.0
  0
LINE
  8
DETAIL
  6
CONTINUOUS
 62
     5
 10
-182.0
 20
-226.0
 30
0.0
 11
-182.0
 21
-226.5
 31
0.0
  0
CIRCLE
  8
DETAIL
  6
CONTINUOUS
 62
     5
 10
-217.0
 20
-217.0
 30
0.0
 40
4.0
  0
LINE
  8
DETAIL
  6
CONTINUOUS
 62
     5
 10
-199.25
 20
-231.5
 30
0.0
 11
-193.25
 21
-231.5
 31
0.0
  0
LINE
  8
DETAIL
  6
CONTINUOUS
 62
     5
 10
-227.0
 20
-229.0
 30
0.0
 11
-210.75
 21
-229.0
 31
0.0
  0
LINE
  8
DETAIL
  6
CONTINUOUS
 62
     5
 10
-227.0
 20
-228.0
 30
0.0
 11
-210.75
 21
-228.0
 31
0.0
  0
LINE
  8
DETAIL
  6
CONTINUOUS
 62
     5
 10
0.0
 20
-225.0
 30
0.0
 11
-171.5
 21
-225.0
 31
0.0
  0
LINE
  8
DETAIL
  6
CONTINUOUS
 62
     5
 10
-182.0
 20
-229.0
 30
0.0
 11
0.0
 21
-229.0
 31
0.0
  0
LINE
  8
DETAIL
  6
CONTINUOUS
 62
     5
 10
-182.0
 20
-228.0
 30
0.0
 11
-174.5
 21
-228.0
 31
0.0
  0
LINE
  8
DETAIL
  6
CONTINUOUS
 62
     5
 10
-171.5
 20
-225.0
 30
0.0
 11
-174.5
 21
-228.0
 31
0.0
  0
LINE
  8
DETAIL
  6
CONTINUOUS
 62
     5
 10
-174.5
 20
-228.0
 30
0.0
 11
-174.5
 21
-229.0
 31
0.0
  0
LINE
  8
DETAIL
  6
CONTINUOUS
 62
     5
 10
-192.25
 20
-230.5
 30
0.0
 11
-192.25
 21
-230.2
 31
0.0
  0
LINE
  8
DETAIL
  6
CONTINUOUS
 62
     5
 10
-200.25
 20
-230.5
 30
0.0
 11
-200.25
 21
-230.2
 31
0.0
  0
LINE
  8
DETAIL
  6
CONTINUOUS
 62
     5
 10
-225.0
 20
-229.0
 30
0.0
 11
-225.0
 21
-228.0
 31
0.0
  0
LINE
  8
DETAIL
  6
CONTINUOUS
 62
     5
 10
-227.0
 20
-229.0
 30
0.0
 11
-227.0
 21
-228.0
 31
0.0
  0
LINE
  8
DETAIL
  6
CONTINUOUS
 62
     5
 10
-193.25
 20
-231.5
 30
0.0
 11
-192.25
 21
-230.5
 31
0.0
  0
LINE
  8
DETAIL
  6
CONTINUOUS
 62
     5
 10
-199.25
 20
-231.5
 30
0.0
 11
-200.25
 21
-230.5
 31
0.0
  0
LINE
  8
DETAIL
  6
CONTINUOUS
 62
     5
 10
-229.0
 20
-153.0
 30
0.0
 11
-229.8
 21
-153.0
 31
0.0
  0
LINE
  8
DETAIL
  6
CONTINUOUS
 62
     5
 10
-229.8
 20
-135.9
 30
0.0
 11
-229.8
 21
-153.0
 31
0.0
  0
LINE
  8
DETAIL
  6
CONTINUOUS
 62
     5
 10
-229.0
 20
-135.9
 30
0.0
 11
-229.8
 21
-135.9
 31
0.0
  0
LINE
  8
DETAIL
  6
CONTINUOUS
 62
     5
 10
-229.0
 20
-135.9
 30
0.0
 11
-229.0
 21
-153.0
 31
0.0
  0
ARC
  8
DETAIL
  6
CONTINUOUS
 62
     5
 10
-226.2
 20
-145.5
 30
0.0
 40
6.1
 50
129.601983
 51
230.398035
  0
LINE
  8
DETAIL
  6
CONTINUOUS
 62
     5
 10
-229.8
 20
-150.2
 30
0.0
 11
-229.8
 21
-140.8
 31
0.0
  0
LINE
  8
DETAIL
  6
CONTINUOUS
 62
     5
 10
-229.8
 20
-140.8
 30
0.0
 11
-230.088445
 21
-140.8
 31
0.0
  0
LINE
  8
DETAIL
  6
CONTINUOUS
 62
     5
 10
-229.8
 20
-150.2
 30
0.0
 11
-230.088445
 21
-150.2
 31
0.0
  0
LINE
  8
DETAIL
  6
CONTINUOUS
 62
     5
 10
-230.088445
 20
-140.8
 30
0.0
 11
-230.088445
 21
-150.2
 31
0.0
  0
LINE
  8
DETAIL
  6
CONTINUOUS
 62
     5
 10
-221.880415
 20
-216.429339
 30
0.0
 11
-220.986954
 21
-217.3228
 31
0.0
  0
LINE
  8
DETAIL
  6
CONTINUOUS
 62
     5
 10
-216.429339
 20
-221.880415
 30
0.0
 11
-217.3228
 21
-220.986954
 31
0.0
  0
LINE
  8
DETAIL
  6
CONTINUOUS
 62
     5
 10
-210.75
 20
-223.821782
 30
0.0
 11
-212.75
 21
-223.821782
 31
0.0
  0
LINE
  8
DETAIL
  6
CONTINUOUS
 62
     5
 10
-223.821782
 20
-210.75
 30
0.0
 11
-223.821782
 21
-212.75
 31
0.0
  0
LINE
  8
DETAIL
  6
CONTINUOUS
 62
     5
 10
0.0
 20
-232.0
 30
0.0
 11
-232.0
 21
-232.0
 31
0.0
  0
LINE
  8
DETAIL
  6
CONTINUOUS
 62
     5
 10
-232.0
 20
-232.0
 30
0.0
 11
-232.0
 21
0.0
 31
0.0
  0
LINE
  8
DETAIL
  6
CONTINUOUS
 62
     5
 10
230.2
 20
-190.25
 30
0.0
 11
239.75
 21
-190.25
 31
0.0
  0
LINE
  8
DETAIL
  6
CONTINUOUS
 62
     5
 10
230.2
 20
-202.25
 30
0.0
 11
239.75
 21
-202.25
 31
0.0
  0
LINE
  8
DETAIL
  6
CONTINUOUS
 62
     5
 10
226.5
 20
-210.75
 30
0.0
 11
226.5
 21
-225.5
 31
0.0
  0
LINE
  8
DETAIL
  6
CONTINUOUS
 62
     5
 10
227.5
 20
-210.75
 30
0.0
 11
227.5
 21
-225.5
 31
0.0
  0
LINE
  8
DETAIL
  6
CONTINUOUS
 62
     5
 10
210.75
 20
-226.5
 30
0.0
 11
224.5
 21
-226.5
 31
0.0
  0
LINE
  8
DETAIL
  6
CONTINUOUS
 62
     5
 10
182.0
 20
-227.5
 30
0.0
 11
174.0
 21
-227.5
 31
0.0
  0
LINE
  8
DETAIL
  6
CONTINUOUS
 62
     5
 10
227.5
 20
-174.0
 30
0.0
 11
227.5
 21
-182.0
 31
0.0
  0
LINE
  8
DETAIL
  6
CONTINUOUS
 62
     5
 10
226.5
 20
-173.0
 30
0.0
 11
226.5
 21
-182.0
 31
0.0
  0
LINE
  8
DETAIL
  6
CONTINUOUS
 62
     5
 10
229.0
 20
-225.5
 30
0.0
 11
239.75
 21
-225.5
 31
0.0
  0
LINE
  8
DETAIL
  6
CONTINUOUS
 62
     5
 10
173.0
 20
-226.5
 30
0.0
 11
182.0
 21
-226.5
 31
0.0
  0
LINE
  8
DETAIL
  6
CONTINUOUS
 62
     5
 10
224.5
 20
-228.0
 30
0.0
 11
224.5
 21
-227.5
 31
0.0
  0
LINE
  8
DETAIL
  6
CONTINUOUS
 62
     5
 10
225.5
 20
-224.5
 30
0.0
 11
225.5
 21
-225.5
 31
0.0
  0
LINE
  8
DETAIL
  6
CONTINUOUS
 62
     5
 10
226.5
 20
-212.5
 30
0.0
 11
226.0
 21
-212.5
 31
0.0
  0
LINE
  8
DETAIL
  6
CONTINUOUS
 62
     5
 10
226.5
 20
-214.5
 30
0.0
 11
226.0
 21
-214.5
 31
0.0
  0
LINE
  8
DETAIL
  6
CONTINUOUS
 62
     5
 10
224.5
 20
-239.75
 30
0.0
 11
224.5
 21
-230.0
 31
0.0
  0
LINE
  8
DETAIL
  6
CONTINUOUS
 62
     5
 10
225.5
 20
-212.5
 30
0.0
 11
225.5
 21
-212.75
 31
0.0
  0
LINE
  8
DETAIL
  6
CONTINUOUS
 62
     5
 10
227.5
 20
-223.5
 30
0.0
 11
226.5
 21
-223.5
 31
0.0
  0
LINE
  8
DETAIL
  6
CONTINUOUS
 62
     5
 10
226.5
 20
-225.5
 30
0.0
 11
228.0
 21
-225.5
 31
0.0
  0
LINE
  8
DETAIL
  6
CONTINUOUS
 62
     5
 10
224.5
 20
-227.5
 30
0.0
 11
210.75
 21
-227.5
 31
0.0
  0
LINE
  8
DETAIL
  6
CONTINUOUS
 62
     5
 10
239.75
 20
-225.5
 30
0.0
 11
239.75
 21
-202.25
 31
0.0
  0
LINE
  8
DETAIL
  6
CONTINUOUS
 62
     5
 10
239.75
 20
-190.25
 30
0.0
 11
239.75
 21
0.0
 31
0.0
  0
LINE
  8
DETAIL
  6
CONTINUOUS
 62
     5
 10
0.0
 20
-239.75
 30
0.0
 11
224.5
 21
-239.75
 31
0.0
  0
ARC
  8
DETAIL
  6
CONTINUOUS
 62
     5
 10
224.5
 20
-225.5
 30
0.0
 40
1.0
 50
330.0
 51
0.0
  0
ARC
  8
DETAIL
  6
CONTINUOUS
 62
     5
 10
224.5
 20
-225.5
 30
0.0
 40
2.0
 50
270.0
 51
0.0
  0
LINE
  8
DETAIL
  6
CONTINUOUS
 62
     5
 10
226.0
 20
-212.5
 30
0.0
 11
225.5
 21
-212.5
 31
0.0
  0
ARC
  8
DETAIL
  6
CONTINUOUS
 62
     5
 10
224.5
 20
-225.5
 30
0.0
 40
1.0
 50
270.0
 51
330.0
  0
LINE
  8
DETAIL
  6
CONTINUOUS
 62
     5
 10
172.5
 20
-226.0
 30
0.0
 11
182.0
 21
-226.0
 31
0.0
  0
LINE
  8
DETAIL
  6
CONTINUOUS
 62
     5
 10
210.75
 20
-226.0
 30
0.0
 11
225.366025
 21
-226.0
 31
0.0
  0
LINE
  8
DETAIL
  6
CONTINUOUS
 62
     5
 10
226.436492
 20
-226.0
 30
0.0
 11
240.0
 21
-226.0
 31
0.0
  0
LINE
  8
DETAIL
  6
CONTINUOUS
 62
     5
 10
0.0
 20
-272.0
 30
0.0
 11
262.0
 21
-272.0
 31
0.0
  0
ARC
  8
DETAIL
  6
CONTINUOUS
 62
     5
 10
262.0
 20
-262.0
 30
0.0
 40
10.0
 50
270.0
 51
0.0
  0
LINE
  8
DETAIL
  6
CONTINUOUS
 62
     5
 10
272.0
 20
-262.0
 30
0.0
 11
272.0
 21
-242.0
 31
0.0
  0
LINE
  8
DETAIL
  6
CONTINUOUS
 62
     5
 10
0.0
 20
-240.0
 30
0.0
 11
240.0
 21
-240.0
 31
0.0
  0
LINE
  8
DETAIL
  6
CONTINUOUS
 62
     5
 10
240.0
 20
-226.0
 30
0.0
 11
240.0
 21
-242.0
 31
0.0
  0
LINE
  8
DETAIL
  6
CONTINUOUS
 62
     5
 10
240.0
 20
-242.0
 30
0.0
 11
242.0
 21
-242.0
 31
0.0
  0
LINE
  8
DETAIL
  6
CONTINUOUS
 62
     5
 10
242.0
 20
-242.0
 30
0.0
 11
272.0
 21
-242.0
 31
0.0
  0
LINE
  8
DETAIL
  6
CONTINUOUS
 62
     5
 10
229.0
 20
-226.0
 30
0.0
 11
240.0
 21
-226.0
 31
0.0
  0
LINE
  8
DETAIL
  6
CONTINUOUS
 62
     5
 10
226.0
 20
-182.0
 30
0.0
 11
226.0
 21
-172.5
 31
0.0
  0
LINE
  8
DETAIL
  6
CONTINUOUS
 62
     5
 10
226.0
 20
-212.5
 30
0.0
 11
226.0
 21
-210.75
 31
0.0
  0
LINE
  8
DETAIL
  6
CONTINUOUS
 62
     5
 10
226.436492
 20
-226.0
 30
0.0
 11
228.0
 21
-226.0
 31
0.0
  0
LINE
  8
DETAIL
  6
CONTINUOUS
 62
     5
 10
272.0
 20
-242.0
 30
0.0
 11
272.0
 21
0.0
 31
0.0
  0
LINE
  8
DETAIL
  6
CONTINUOUS
 62
     5
 10
242.0
 20
-242.0
 30
0.0
 11
242.0
 21
-240.5
 31
0.0
  0
ARC
  8
DETAIL
  6
CONTINUOUS
 62
     5
 10
262.0
 20
-262.0
 30
0.0
 40
10.0
 50
270.0
 51
0.0
  0
LINE
  8
DETAIL
  6
CONTINUOUS
 62
     5
 10
272.0
 20
-262.0
 30
0.0
 11
272.0
 21
-242.0
 31
0.0
  0
LINE
  8
DETAIL
  6
CONTINUOUS
 62
     5
 10
240.8
 20
-240.5
 30
0.0
 11
240.8
 21
0.0
 31
0.0
  0
LINE
  8
DETAIL
  6
CONTINUOUS
 62
     5
 10
240.0
 20
-226.0
 30
0.0
 11
240.0
 21
0.0
 31
0.0
  0
LINE
  8
DETAIL
  6
CONTINUOUS
 62
     5
 10
240.0
 20
-240.5
 30
0.0
 11
240.0
 21
-226.0
 31
0.0
  0
LINE
  8
DETAIL
  6
CONTINUOUS
 62
     5
 10
240.0
 20
-240.5
 30
0.0
 11
242.0
 21
-240.5
 31
0.0
  0
LINE
  8
DETAIL
  6
CONTINUOUS
 62
     5
 10
242.0
 20
-241.5
 30
0.0
 11
272.0
 21
-241.5
 31
0.0
  0
LINE
  8
DETAIL
  6
CONTINUOUS
 62
     5
 10
242.0
 20
-272.0
 30
0.0
 11
262.0
 21
-272.0
 31
0.0
  0
LINE
  8
DETAIL
  6
CONTINUOUS
 62
     5
 10
228.0
 20
-210.75
 30
0.0
 11
228.0
 21
-228.0
 31
0.0
  0
LINE
  8
DETAIL
  6
CONTINUOUS
 62
     5
 10
229.0
 20
-210.75
 30
0.0
 11
229.0
 21
-228.0
 31
0.0
  0
LINE
  8
DETAIL
  6
CONTINUOUS
 62
     5
 10
229.0
 20
0.0
 30
0.0
 11
229.0
 21
-182.0
 31
0.0
  0
LINE
  8
DETAIL
  6
CONTINUOUS
 62
     5
 10
214.0
 20
-230.0
 30
0.0
 11
214.0
 21
-229.0
 31
0.0
  0
LINE
  8
DETAIL
  6
CONTINUOUS
 62
     5
 10
216.0
 20
-230.0
 30
0.0
 11
216.0
 21
-229.0
 31
0.0
  0
LINE
  8
DETAIL
  6
CONTINUOUS
 62
     5
 10
225.0
 20
-171.5
 30
0.0
 11
225.0
 21
0.0
 31
0.0
  0
LINE
  8
DETAIL
  6
CONTINUOUS
 62
     5
 10
228.0
 20
-174.5
 30
0.0
 11
228.0
 21
-182.0
 31
0.0
  0
LINE
  8
DETAIL
  6
CONTINUOUS
 62
     5
 10
225.0
 20
-171.5
 30
0.0
 11
228.0
 21
-174.5
 31
0.0
  0
LINE
  8
DETAIL
  6
CONTINUOUS
 62
     5
 10
229.0
 20
-174.5
 30
0.0
 11
228.0
 21
-174.5
 31
0.0
  0
LINE
  8
DETAIL
  6
CONTINUOUS
 62
     5
 10
214.0
 20
-229.0
 30
0.0
 11
227.0
 21
-229.0
 31
0.0
  0
LINE
  8
DETAIL
  6
CONTINUOUS
 62
     5
 10
214.0
 20
-230.0
 30
0.0
 11
227.0
 21
-230.0
 31
0.0
  0
ARC
  8
DETAIL
  6
CONTINUOUS
 62
     5
 10
227.0
 20
-228.0
 30
0.0
 40
2.0
 50
270.0
 51
0.0
  0
ARC
  8
DETAIL
  6
CONTINUOUS
 62
     5
 10
227.0
 20
-228.0
 30
0.0
 40
1.0
 50
270.0
 51
0.0
  0
LINE
  8
DETAIL
  6
CONTINUOUS
 62
     5
 10
218.732412
 20
-212.934136
 30
0.0
 11
221.065864
 21
-215.267588
 31
0.0
  0
ARC
  8
DETAIL
  6
CONTINUOUS
 62
     5
 10
215.833274
 20
-215.833274
 30
0.0
 40
4.1
 50
45.0
 51
225.0
  0
LINE
  8
DETAIL
  6
CONTINUOUS
 62
     5
 10
212.934136
 20
-218.732412
 30
0.0
 11
215.267588
 21
-221.065864
 31
0.0
  0
ARC
  8
DETAIL
  6
CONTINUOUS
 62
     5
 10
218.166726
 20
-218.166726
 30
0.0
 40
4.1
 50
225.0
 51
45.0
  0
LINE
  8
DETAIL
  6
CONTINUOUS
 62
     5
 10
226.0
 20
-182.0
 30
0.0
 11
230.2
 21
-182.0
 31
0.0
  0
LINE
  8
DETAIL
  6
CONTINUOUS
 62
     5
 10
182.0
 20
-230.2
 30
0.0
 11
182.0
 21
-226.0
 31
0.0
  0
LINE
  8
DETAIL
  6
CONTINUOUS
 62
     5
 10
230.2
 20
-210.75
 30
0.0
 11
223.5
 21
-210.75
 31
0.0
  0
LINE
  8
DETAIL
  6
CONTINUOUS
 62
     5
 10
223.5
 20
-212.75
 30
0.0
 11
226.0
 21
-212.75
 31
0.0
  0
LINE
  8
DETAIL
  6
CONTINUOUS
 62
     5
 10
210.75
 20
-223.5
 30
0.0
 11
210.75
 21
-230.2
 31
0.0
  0
LINE
  8
DETAIL
  6
CONTINUOUS
 62
     5
 10
212.75
 20
-226.0
 30
0.0
 11
212.75
 21
-223.5
 31
0.0
  0
LINE
  8
DETAIL
  6
CONTINUOUS
 62
     5
 10
224.0
 20
-226.0
 30
0.0
 11
212.75
 21
-226.0
 31
0.0
  0
LINE
  8
DETAIL
  6
CONTINUOUS
 62
     5
 10
182.0
 20
-230.2
 30
0.0
 11
210.75
 21
-230.2
 31
0.0
  0
LINE
  8
DETAIL
  6
CONTINUOUS
 62
     5
 10
226.0
 20
-212.75
 30
0.0
 11
226.0
 21
-224.0
 31
0.0
  0
LINE
  8
DETAIL
  6
CONTINUOUS
 62
     5
 10
230.2
 20
-210.75
 30
0.0
 11
230.2
 21
-182.0
 31
0.0
  0
LINE
  8
DETAIL
  6
CONTINUOUS
 62
     5
 10
225.964466
 20
-172.464466
 30
0.0
 11
178.464466
 21
-219.964466
 31
0.0
  0
LINE
  8
DETAIL
  6
CONTINUOUS
 62
     5
 10
224.0
 20
-226.0
 30
0.0
 11
226.0
 21
-224.0
 31
0.0
  0
CIRCLE
  8
DETAIL
  6
CONTINUOUS
 62
     5
 10
217.0
 20
-217.0
 30
0.0
 40
4.0
  0
ARC
  8
DETAIL
  6
CONTINUOUS
 62
     5
 10
223.5
 20
-211.75
 30
0.0
 40
1.0
 50
90.0
 51
270.0
  0
ARC
  8
DETAIL
  6
CONTINUOUS
 62
     5
 10
211.75
 20
-223.5
 30
0.0
 40
1.0
 50
0.0
 51
180.0
  0
ARC
  8
DETAIL
  6
CONTINUOUS
 62
     5
 10
215.833274
 20
-215.833274
 30
0.0
 40
4.1
 50
45.0
 51
225.0
  0
ARC
  8
DETAIL
  6
CONTINUOUS
 62
     5
 10
218.166726
 20
-218.166726
 30
0.0
 40
4.1
 50
225.0
 51
45.0
  0
LINE
  8
DETAIL
  6
CONTINUOUS
 62
     5
 10
218.732412
 20
-212.934136
 30
0.0
 11
221.065864
 21
-215.267588
 31
0.0
  0
LINE
  8
DETAIL
  6
CONTINUOUS
 62
     5
 10
212.934136
 20
-218.732412
 30
0.0
 11
215.267588
 21
-221.065864
 31
0.0
  0
LINE
  8
DETAIL
  6
CONTINUOUS
 62
     5
 10
225.5
 20
-224.5
 30
0.0
 11
224.0
 21
-226.0
 31
0.0
  0
LINE
  8
DETAIL
  6
CONTINUOUS
 62
     5
 10
225.5
 20
-212.75
 30
0.0
 11
223.5
 21
-212.75
 31
0.0
  0
LINE
  8
DETAIL
  6
CONTINUOUS
 62
     5
 10
182.0
 20
-226.0
 30
0.0
 11
182.0
 21
-226.0
 31
0.0
  0
LINE
  8
DETAIL
  6
CONTINUOUS
 62
     5
 10
226.5
 20
-182.0
 30
0.0
 11
226.0
 21
-182.0
 31
0.0
  0
LINE
  8
DETAIL
  6
CONTINUOUS
 62
     5
 10
210.75
 20
-226.5
 30
0.0
 11
210.75
 21
-226.0
 31
0.0
  0
LINE
  8
DETAIL
  6
CONTINUOUS
 62
     5
 10
212.75
 20
-223.5
 30
0.0
 11
212.75
 21
-226.0
 31
0.0
  0
LINE
  8
DETAIL
  6
CONTINUOUS
 62
     5
 10
225.3
 20
-208.75
 30
0.0
 11
226.5
 21
-208.75
 31
0.0
  0
LINE
  8
DETAIL
  6
CONTINUOUS
 62
     5
 10
223.5
 20
-210.75
 30
0.0
 11
226.0
 21
-210.75
 31
0.0
  0
LINE
  8
DETAIL
  6
CONTINUOUS
 62
     5
 10
172.464466
 20
-225.964466
 30
0.0
 11
225.964466
 21
-172.464466
 31
0.0
  0
ARC
  8
DETAIL
  6
CONTINUOUS
 62
     5
 10
211.75
 20
-223.5
 30
0.0
 40
1.0
 50
0.0
 51
180.0
  0
ARC
  8
DETAIL
  6
CONTINUOUS
 62
     5
 10
223.5
 20
-211.75
 30
0.0
 40
1.0
 50
90.0
 51
270.0
  0
LINE
  8
DETAIL
  6
CONTINUOUS
 62
     5
 10
212.75
 20
-226.0
 30
0.0
 11
224.0
 21
-226.0
 31
0.0
  0
LINE
  8
DETAIL
  6
CONTINUOUS
 62
     5
 10
226.0
 20
-182.0
 30
0.0
 11
226.0
 21
-182.0
 31
0.0
  0
LINE
  8
DETAIL
  6
CONTINUOUS
 62
     5
 10
226.0
 20
-210.75
 30
0.0
 11
226.5
 21
-210.75
 31
0.0
  0
LINE
  8
DETAIL
  6
CONTINUOUS
 62
     5
 10
210.75
 20
-226.0
 30
0.0
 11
210.75
 21
-223.5
 31
0.0
  0
LINE
  8
DETAIL
  6
CONTINUOUS
 62
     5
 10
182.0
 20
-226.0
 30
0.0
 11
182.0
 21
-226.5
 31
0.0
  0
CIRCLE
  8
DETAIL
  6
CONTINUOUS
 62
     5
 10
217.0
 20
-217.0
 30
0.0
 40
4.0
  0
LINE
  8
DETAIL
  6
CONTINUOUS
 62
     5
 10
199.25
 20
-231.5
 30
0.0
 11
193.25
 21
-231.5
 31
0.0
  0
LINE
  8
DETAIL
  6
CONTINUOUS
 62
     5
 10
227.0
 20
-229.0
 30
0.0
 11
210.75
 21
-229.0
 31
0.0
  0
LINE
  8
DETAIL
  6
CONTINUOUS
 62
     5
 10
227.0
 20
-228.0
 30
0.0
 11
210.75
 21
-228.0
 31
0.0
  0
LINE
  8
DETAIL
  6
CONTINUOUS
 62
     5
 10
0.0
 20
-225.0
 30
0.0
 11
171.5
 21
-225.0
 31
0.0
  0
LINE
  8
DETAIL
  6
CONTINUOUS
 62
     5
 10
182.0
 20
-229.0
 30
0.0
 11
0.0
 21
-229.0
 31
0.0
  0
LINE
  8
DETAIL
  6
CONTINUOUS
 62
     5
 10
182.0
 20
-228.0
 30
0.0
 11
174.5
 21
-228.0
 31
0.0
  0
LINE
  8
DETAIL
  6
CONTINUOUS
 62
     5
 10
171.5
 20
-225.0
 30
0.0
 11
174.5
 21
-228.0
 31
0.0
  0
LINE
  8
DETAIL
  6
CONTINUOUS
 62
     5
 10
174.5
 20
-228.0
 30
0.0
 11
174.5
 21
-229.0
 31
0.0
  0
LINE
  8
DETAIL
  6
CONTINUOUS
 62
     5
 10
192.25
 20
-230.5
 30
0.0
 11
192.25
 21
-230.2
 31
0.0
  0
LINE
  8
DETAIL
  6
CONTINUOUS
 62
     5
 10
200.25
 20
-230.5
 30
0.0
 11
200.25
 21
-230.2
 31
0.0
  0
LINE
  8
DETAIL
  6
CONTINUOUS
 62
     5
 10
225.0
 20
-229.0
 30
0.0
 11
225.0
 21
-228.0
 31
0.0
  0
LINE
  8
DETAIL
  6
CONTINUOUS
 62
     5
 10
227.0
 20
-229.0
 30
0.0
 11
227.0
 21
-228.0
 31
0.0
  0
LINE
  8
DETAIL
  6
CONTINUOUS
 62
     5
 10
193.25
 20
-231.5
 30
0.0
 11
192.25
 21
-230.5
 31
0.0
  0
LINE
  8
DETAIL
  6
CONTINUOUS
 62
     5
 10
199.25
 20
-231.5
 30
0.0
 11
200.25
 21
-230.5
 31
0.0
  0
LINE
  8
DETAIL
  6
CONTINUOUS
 62
     5
 10
229.0
 20
-153.0
 30
0.0
 11
229.8
 21
-153.0
 31
0.0
  0
LINE
  8
DETAIL
  6
CONTINUOUS
 62
     5
 10
229.8
 20
-135.9
 30
0.0
 11
229.8
 21
-153.0
 31
0.0
  0
LINE
  8
DETAIL
  6
CONTINUOUS
 62
     5
 10
229.0
 20
-135.9
 30
0.0
 11
229.8
 21
-135.9
 31
0.0
  0
LINE
  8
DETAIL
  6
CONTINUOUS
 62
     5
 10
229.0
 20
-135.9
 30
0.0
 11
229.0
 21
-153.0
 31
0.0
  0
ARC
  8
DETAIL
  6
CONTINUOUS
 62
     5
 10
226.2
 20
-145.5
 30
0.0
 40
6.1
 50
309.601965
 51
50.398017
  0
LINE
  8
DETAIL
  6
CONTINUOUS
 62
     5
 10
229.8
 20
-150.2
 30
0.0
 11
229.8
 21
-140.8
 31
0.0
  0
LINE
  8
DETAIL
  6
CONTINUOUS
 62
     5
 10
229.8
 20
-140.8
 30
0.0
 11
230.088445
 21
-140.8
 31
0.0
  0
LINE
  8
DETAIL
  6
CONTINUOUS
 62
     5
 10
229.8
 20
-150.2
 30
0.0
 11
230.088445
 21
-150.2
 31
0.0
  0
LINE
  8
DETAIL
  6
CONTINUOUS
 62
     5
 10
230.088445
 20
-140.8
 30
0.0
 11
230.088445
 21
-150.2
 31
0.0
  0
LINE
  8
DETAIL
  6
CONTINUOUS
 62
     5
 10
221.880415
 20
-216.429339
 30
0.0
 11
220.986954
 21
-217.3228
 31
0.0
  0
LINE
  8
DETAIL
  6
CONTINUOUS
 62
     5
 10
216.429339
 20
-221.880415
 30
0.0
 11
217.3228
 21
-220.986954
 31
0.0
  0
LINE
  8
DETAIL
  6
CONTINUOUS
 62
     5
 10
210.75
 20
-223.821782
 30
0.0
 11
212.75
 21
-223.821782
 31
0.0
  0
LINE
  8
DETAIL
  6
CONTINUOUS
 62
     5
 10
223.821782
 20
-210.75
 30
0.0
 11
223.821782
 21
-212.75
 31
0.0
  0
LINE
  8
DETAIL
  6
CONTINUOUS
 62
     5
 10
0.0
 20
-232.0
 30
0.0
 11
232.0
 21
-232.0
 31
0.0
  0
LINE
  8
DETAIL
  6
CONTINUOUS
 62
     5
 10
232.0
 20
-232.0
 30
0.0
 11
232.0
 21
0.0
 31
0.0
  0
LINE
  8
OUTLINE
  6
CONTINUOUS
 62
     3
 10
0.0
 20
272.0
 30
0.0
 11
-262.0
 21
272.0
 31
0.0
  0
ARC
  8
OUTLINE
  6
CONTINUOUS
 62
     3
 10
-262.0
 20
262.0
 30
0.0
 40
10.0
 50
90.0
 51
180.0
  0
LINE
  8
OUTLINE
  6
CONTINUOUS
 62
     3
 10
-272.0
 20
262.0
 30
0.0
 11
-272.0
 21
242.0
 31
0.0
  0
LINE
  8
OUTLINE
  6
CONTINUOUS
 62
     3
 10
-272.0
 20
242.0
 30
0.0
 11
-272.0
 21
0.0
 31
0.0
  0
ARC
  8
OUTLINE
  6
CONTINUOUS
 62
     3
 10
-262.0
 20
262.0
 30
0.0
 40
10.0
 50
90.0
 51
180.0
  0
LINE
  8
OUTLINE
  6
CONTINUOUS
 62
     3
 10
-272.0
 20
262.0
 30
0.0
 11
-272.0
 21
242.0
 31
0.0
  0
LINE
  8
OUTLINE
  6
CONTINUOUS
 62
     3
 10
-242.0
 20
272.0
 30
0.0
 11
-262.0
 21
272.0
 31
0.0
  0
LINE
  8
OUTLINE
  6
CONTINUOUS
 62
     3
 10
0.0
 20
272.0
 30
0.0
 11
262.0
 21
272.0
 31
0.0
  0
ARC
  8
OUTLINE
  6
CONTINUOUS
 62
     3
 10
262.0
 20
262.0
 30
0.0
 40
10.0
 50
0.0
 51
90.0
  0
LINE
  8
OUTLINE
  6
CONTINUOUS
 62
     3
 10
272.0
 20
262.0
 30
0.0
 11
272.0
 21
242.0
 31
0.0
  0
LINE
  8
OUTLINE
  6
CONTINUOUS
 62
     3
 10
272.0
 20
242.0
 30
0.0
 11
272.0
 21
0.0
 31
0.0
  0
ARC
  8
OUTLINE
  6
CONTINUOUS
 62
     3
 10
262.0
 20
262.0
 30
0.0
 40
10.0
 50
0.0
 51
90.0
  0
LINE
  8
OUTLINE
  6
CONTINUOUS
 62
     3
 10
272.0
 20
262.0
 30
0.0
 11
272.0
 21
242.0
 31
0.0
  0
LINE
  8
OUTLINE
  6
CONTINUOUS
 62
     3
 10
242.0
 20
272.0
 30
0.0
 11
262.0
 21
272.0
 31
0.0
  0
LINE
  8
OUTLINE
  6
CONTINUOUS
 62
     3
 10
0.0
 20
-272.0
 30
0.0
 11
-262.0
 21
-272.0
 31
0.0
  0
ARC
  8
OUTLINE
  6
CONTINUOUS
 62
     3
 10
-262.0
 20
-262.0
 30
0.0
 40
10.0
 50
180.0
 51
270.0
  0
LINE
  8
OUTLINE
  6
CONTINUOUS
 62
     3
 10
-272.0
 20
-262.0
 30
0.0
 11
-272.0
 21
-242.0
 31
0.0
  0
LINE
  8
OUTLINE
  6
CONTINUOUS
 62
     3
 10
-272.0
 20
-242.0
 30
0.0
 11
-272.0
 21
0.0
 31
0.0
  0
ARC
  8
OUTLINE
  6
CONTINUOUS
 62
     3
 10
-262.0
 20
-262.0
 30
0.0
 40
10.0
 50
180.0
 51
270.0
  0
LINE
  8
OUTLINE
  6
CONTINUOUS
 62
     3
 10
-272.0
 20
-262.0
 30
0.0
 11
-272.0
 21
-242.0
 31
0.0
  0
LINE
  8
OUTLINE
  6
CONTINUOUS
 62
     3
 10
-242.0
 20
-272.0
 30
0.0
 11
-262.0
 21
-272.0
 31
0.0
  0
LINE
  8
OUTLINE
  6
CONTINUOUS
 62
     3
 10
0.0
 20
-272.0
 30
0.0
 11
262.0
 21
-272.0
 31
0.0
  0
ARC
  8
OUTLINE
  6
CONTINUOUS
 62
     3
 10
262.0
 20
-262.0
 30
0.0
 40
10.0
 50
270.0
 51
0.0
  0
LINE
  8
OUTLINE
  6
CONTINUOUS
 62
     3
 10
272.0
 20
-262.0
 30
0.0
 11
272.0
 21
-242.0
 31
0.0
  0
LINE
  8
OUTLINE
  6
CONTINUOUS
 62
     3
 10
272.0
 20
-242.0
 30
0.0
 11
272.0
 21
0.0
 31
0.0
  0
ARC
  8
OUTLINE
  6
CONTINUOUS
 62
     3
 10
262.0
 20
-262.0
 30
0.0
 40
10.0
 50
270.0
 51
0.0
  0
LINE
  8
OUTLINE
  6
CONTINUOUS
 62
     3
 10
272.0
 20
-262.0
 30
0.0
 11
272.0
 21
-242.0
 31
0.0
  0
LINE
  8
OUTLINE
  6
CONTINUOUS
 62
     3
 10
242.0
 20
-272.0
 30
0.0
 11
262.0
 21
-272.0
 31
0.0
  0
CIRCLE
  8
DETAIL
  6
CONTINUOUS
 62
     5
 39
50.0
 10
257.0
 20
257.0
 30
0.0
 40
8.0
  0
CIRCLE
  8
DETAIL
  6
CONTINUOUS
 62
     5
 39
50.0
 10
-257.0
 20
257.0
 30
0.0
 40
8.0
  0
CIRCLE
  8
DETAIL
  6
CONTINUOUS
 62
     5
 39
50.0
 10
-257.0
 20
-257.0
 30
0.0
 40
8.0
  0
CIRCLE
  8
DETAIL
  6
CONTINUOUS
 62
     5
 39
50.0
 10
257.0
 20
-257.0
 30
0.0
 40
8.0
  0
CIRCLE
  8
FIX
  6
CONTINUOUS
 62
    11
 39
50.0
 10
257.0
 20
-257.0
 30
0.0
 40
8.0
  0
CIRCLE
  8
FIX
  6
CONTINUOUS
 62
    11
 39
50.0
 10
257.0
 20
257.0
 30
0.0
 40
8.0
  0
CIRCLE
  8
FIX
  6
CONTINUOUS
 62
    11
 39
50.0
 10
-257.0
 20
257.0
 30
0.0
 40
8.0
  0
CIRCLE
  8
FIX
  6
CONTINUOUS
 62
    11
 39
50.0
 10
-257.0
 20
-257.0
 30
0.0
 40
8.0
  0
LINE
  8
SIZE
  6
CONTINUOUS
 62
    30
 10
-240.0
 20
253.25
 30
0.0
 11
-240.0
 21
497.80129
 31
0.0
  0
LINE
  8
SIZE
  6
CONTINUOUS
 62
    30
 10
240.0
 20
253.25
 30
0.0
 11
240.0
 21
497.80129
 31
0.0
  0
LINE
  8
SIZE
  6
CONTINUOUS
 62
    30
 10
-228.0
 20
477.80129
 30
0.0
 11
228.0
 21
477.80129
 31
0.0
  0
CIRCLE
  8
SIZE
  6
CONTINUOUS
 62
    30
 10
-240.0
 20
477.80129
 30
0.0
 40
6.0
  0
LINE
  8
SIZE
  6
CONTINUOUS
 62
    30
 10
-240.0
 20
477.80129
 30
0.0
 11
-228.0
 21
477.80129
 31
0.0
  0
CIRCLE
  8
SIZE
  6
CONTINUOUS
 62
    30
 10
240.0
 20
477.80129
 30
0.0
 40
6.0
  0
LINE
  8
SIZE
  6
CONTINUOUS
 62
    30
 10
240.0
 20
477.80129
 30
0.0
 11
228.0
 21
477.80129
 31
0.0
  0
TEXT
  8
SIZE
  6
CONTINUOUS
 62
    30
 10
-116.064
 20
502.80129
 30
0.0
 40
64.0
  1
□480
 50
0.0
 41
0.9
 51
0.0
  7
STANDARD
 71
     0
 72
     1
 11
0.0
 21
502.80129
 31
0.0
210
0.0
220
0.0
230
1.0
  0
POINT
  8
DEFPOINTS
  6
CONTINUOUS
 62
    30
 10
-240.0
 20
233.25
 30
0.0
  0
POINT
  8
DEFPOINTS
  6
CONTINUOUS
 62
    30
 10
240.0
 20
233.25
 30
0.0
  0
POINT
  8
DEFPOINTS
  6
CONTINUOUS
 62
    30
 10
240.0
 20
477.80129
 30
0.0
  0
LINE
  8
SIZE
  6
CONTINUOUS
 62
    30
 10
-142.369491
 20
213.0
 30
0.0
 11
-142.369491
 21
-213.0
 31
0.0
  0
CIRCLE
  8
SIZE
  6
CONTINUOUS
 62
    30
 10
-142.369491
 20
225.0
 30
0.0
 40
6.0
  0
LINE
  8
SIZE
  6
CONTINUOUS
 62
    30
 10
-142.369491
 20
225.0
 30
0.0
 11
-142.369491
 21
213.0
 31
0.0
  0
CIRCLE
  8
SIZE
  6
CONTINUOUS
 62
    30
 10
-142.369491
 20
-225.0
 30
0.0
 40
6.0
  0
LINE
  8
SIZE
  6
CONTINUOUS
 62
    30
 10
-142.369491
 20
-225.0
 30
0.0
 11
-142.369491
 21
-213.0
 31
0.0
  0
TEXT
  8
SIZE
  6
CONTINUOUS
 62
    30
 10
-167.369491
 20
-81.504
 30
0.0
 40
64.0
  1
450
 50
90.0
 41
0.9
 51
0.0
  7
STANDARD
 71
     0
 72
     1
 11
-167.369491
 21
0.0
 31
0.0
210
0.0
220
0.0
230
1.0
  0
POINT
  8
DEFPOINTS
  6
CONTINUOUS
 62
    30
 10
-142.369491
 20
225.0
 30
0.0
  0
POINT
  8
DEFPOINTS
  6
CONTINUOUS
 62
    30
 10
-142.369491
 20
-225.0
 30
0.0
  0
POINT
  8
DEFPOINTS
  6
CONTINUOUS
 62
    30
 10
-142.369491
 20
-225.0
 30
0.0
  0
LINE
  8
SIZE
  6
CONTINUOUS
 62
    30
 10
-213.0
 20
-171.5
 30
0.0
 11
213.0
 21
-171.5
 31
0.0
  0
CIRCLE
  8
SIZE
  6
CONTINUOUS
 62
    30
 10
-225.0
 20
-171.5
 30
0.0
 40
6.0
  0
LINE
  8
SIZE
  6
CONTINUOUS
 62
    30
 10
-225.0
 20
-171.5
 30
0.0
 11
-213.0
 21
-171.5
 31
0.0
  0
CIRCLE
  8
SIZE
  6
CONTINUOUS
 62
    30
 10
225.0
 20
-171.5
 30
0.0
 40
6.0
  0
LINE
  8
SIZE
  6
CONTINUOUS
 62
    30
 10
225.0
 20
-171.5
 30
0.0
 11
213.0
 21
-171.5
 31
0.0
  0
TEXT
  8
SIZE
  6
CONTINUOUS
 62
    30
 10
-81.504
 20
-146.5
 30
0.0
 40
64.0
  1
450
 50
0.0
 41
0.9
 51
0.0
  7
STANDARD
 71
     0
 72
     1
 11
0.0
 21
-146.5
 31
0.0
210
0.0
220
0.0
230
1.0
  0
POINT
  8
DEFPOINTS
  6
CONTINUOUS
 62
    30
 10
-225.0
 20
-171.5
 30
0.0
  0
POINT
  8
DEFPOINTS
  6
CONTINUOUS
 62
    30
 10
225.0
 20
-171.5
 30
0.0
  0
POINT
  8
DEFPOINTS
  6
CONTINUOUS
 62
    30
 10
225.0
 20
-171.5
 30
0.0
  0
ENDSEC
  0
EOF
