  0
SECTION
  2
HEADER
  9
$ACADVER
  1
AC1009
  9
$INSBASE
 10
0.0
 20
0.0
 30
0.0
  9
$EXTMIN
 10
-664.01093900000001
 20
-508.92429199999998
 30
0.0
  9
$EXTMAX
 10
881.44098799999949
 20
522.38657299999988
 30
50.0
  9
$LIMMIN
 10
-2970.0
 20
-2100.0
  9
$LIMMAX
 10
2970.0
 20
2100.0
  9
$ORTHOMODE
 70
     1
  9
$REGENMODE
 70
     1
  9
$FILLMODE
 70
     1
  9
$QTEXTMODE
 70
     0
  9
$MIRRTEXT
 70
     0
  9
$DRAGMODE
 70
     2
  9
$LTSCALE
 40
20.0
  9
$OSMODE
 70
   167
  9
$ATTMODE
 70
     1
  9
$TEXTSIZE
 40
64.0
  9
$TRACEWID
 40
0.05
  9
$TEXTSTYLE
  7
STANDARD
  9
$CLAYER
  8
NOTE
  9
$CELTYPE
  6
CONTINUOUS
  9
$CECOLOR
 62
     4
  9
$DIMSCALE
 40
1.0
  9
$DIMASZ
 40
40.0
  9
$DIMEXO
 40
10.0
  9
$DIMDLI
 40
200.0
  9
$DIMRND
 40
0.0
  9
$DIMDLE
 40
0.0
  9
$DIMEXE
 40
20.0
  9
$DIMTP
 40
0.0
  9
$DIMTM
 40
0.0
  9
$DIMTXT
 40
64.0
  9
$DIMCEN
 40
0.09
  9
$DIMTSZ
 40
0.0
  9
$DIMTOL
 70
     0
  9
$DIMLIM
 70
     0
  9
$DIMTIH
 70
     0
  9
$DIMTOH
 70
     0
  9
$DIMSE1
 70
     0
  9
$DIMSE2
 70
     0
  9
$DIMTAD
 70
     1
  9
$DIMZIN
 70
     8
  9
$DIMBLK
  1
NONE
  9
$DIMASO
 70
     1
  9
$DIMSHO
 70
     0
  9
$DIMPOST
  1

  9
$DIMAPOST
  1

  9
$DIMALT
 70
     0
  9
$DIMALTD
 70
     2
  9
$DIMALTF
 40
25.399999999999999
  9
$DIMLFAC
 40
1.0
  9
$DIMTOFL
 70
     1
  9
$DIMTVP
 40
0.0
  9
$DIMTIX
 70
     1
  9
$DIMSOXD
 70
     0
  9
$DIMSAH
 70
     0
  9
$DIMBLK1
  1
NONE
  9
$DIMBLK2
  1
ORIGIN
  9
$DIMSTYLE
  2
STANDARD
  9
$DIMCLRD
 70
   256
  9
$DIMCLRE
 70
   256
  9
$DIMCLRT
 70
   256
  9
$DIMTFAC
 40
1.0
  9
$DIMGAP
 40
20.0
  9
$LUNITS
 70
     2
  9
$LUPREC
 70
     4
  9
$SKETCHINC
 40
0.1
  9
$FILLETRAD
 40
20.0
  9
$AUNITS
 70
     1
  9
$AUPREC
 70
     3
  9
$MENU
  1
ACAD
  9
$ELEVATION
 40
0.0
  9
$PELEVATION
 40
0.0
  9
$THICKNESS
 40
50.0
  9
$LIMCHECK
 70
     0
  9
$BLIPMODE
 70
     0
  9
$CHAMFERA
 40
0.0
  9
$CHAMFERB
 40
0.0
  9
$SKPOLY
 70
     0
  9
$TDCREATE
 40
2453019.6230103699
  9
$TDUPDATE
 40
2455147.6650770372
  9
$TDINDWG
 40
0.4217658681
  9
$TDUSRTIMER
 40
0.4217646065
  9
$USRTIMER
 70
     1
  9
$ANGBASE
 50
0.0
  9
$ANGDIR
 70
     0
  9
$PDMODE
 70
     3
  9
$PDSIZE
 40
-2.0
  9
$PLINEWID
 40
0.0
  9
$COORDS
 70
     2
  9
$SPLFRAME
 70
     0
  9
$SPLINETYPE
 70
     6
  9
$SPLINESEGS
 70
     8
  9
$ATTDIA
 70
     0
  9
$ATTREQ
 70
     1
  9
$HANDLING
 70
 22529
  9
$HANDSEED
  5
386
  9
$SURFTAB1
 70
     6
  9
$SURFTAB2
 70
     6
  9
$SURFTYPE
 70
     6
  9
$SURFU
 70
     6
  9
$SURFV
 70
     6
  9
$UCSNAME
  2

  9
$UCSORG
 10
0.0
 20
0.0
 30
0.0
  9
$UCSXDIR
 10
1.0
 20
0.0
 30
0.0
  9
$UCSYDIR
 10
0.0
 20
1.0
 30
0.0
  9
$PUCSNAME
  2

  9
$PUCSORG
 10
0.0
 20
0.0
 30
0.0
  9
$PUCSXDIR
 10
1.0
 20
0.0
 30
0.0
  9
$PUCSYDIR
 10
0.0
 20
1.0
 30
0.0
  9
$USERI1
 70
     0
  9
$USERI2
 70
     0
  9
$USERI3
 70
     0
  9
$USERI4
 70
     0
  9
$USERI5
 70
     0
  9
$USERR1
 40
20.0
  9
$USERR2
 40
0.0
  9
$USERR3
 40
0.0
  9
$USERR4
 40
0.0
  9
$USERR5
 40
0.0
  9
$WORLDVIEW
 70
     1
  9
$SHADEDGE
 70
     3
  9
$SHADEDIF
 70
    70
  9
$TILEMODE
 70
     1
  9
$MAXACTVP
 70
    48
  9
$PLIMCHECK
 70
     0
  9
$PEXTMIN
 10
-1.0000000000000000E+020
 20
-1.0000000000000000E+020
 30
-1.0000000000000000E+020
  9
$PEXTMAX
 10
1.0000000000000000E+020
 20
1.0000000000000000E+020
 30
1.0000000000000000E+020
  9
$PLIMMIN
 10
0.0
 20
0.0
  9
$PLIMMAX
 10
12.0
 20
9.0
  9
$UNITMODE
 70
     0
  9
$VISRETAIN
 70
     0
  9
$PLINEGEN
 70
     0
  9
$PSLTSCALE
 70
     0
  0
ENDSEC
  0
SECTION
  2
TABLES
  0
TABLE
  2
VPORT
 70
     3
  0
VPORT
  2
*ACTIVE
 70
     0
 10
0.0
 20
0.0
 11
1.0
 21
1.0
 12
108.71236619155459
 22
6.729399778021615
 13
0.0
 23
0.0
 14
1.0
 24
1.0
 15
0.0
 25
0.0
 16
0.0
 26
0.0
 36
1.0
 17
0.0
 27
0.0
 37
0.0
 40
1163.1317998987461
 41
1.493654822335025
 42
50.0
 43
0.0
 44
0.0
 50
0.0
 51
0.0
 71
     0
 72
  1000
 73
     1
 74
     0
 75
     0
 76
     0
 77
     0
 78
     0
  0
ENDTAB
  0
TABLE
  2
LTYPE
 70
     2
  0
LTYPE
  2
CONTINUOUS
 70
     0
  3
実線
 72
    65
 73
     0
 40
0.0
  0
LTYPE
  2
DASHDOT
 70
     0
  3
____ _ ____ _ ____ _ ____ _ ____ _ ____ _ ____
 72
    65
 73
     4
 40
5.5
 49
4.0
 49
-0.6
 49
0.3
 49
-0.6
  0
ENDTAB
  0
TABLE
  2
LAYER
 70
    12
  0
LAYER
  2
0
 70
     0
 62
     7
  6
CONTINUOUS
  0
LAYER
  2
NOTE
 70
     0
 62
     4
  6
CONTINUOUS
  0
LAYER
  2
SIZE
 70
     0
 62
    30
  6
CONTINUOUS
  0
LAYER
  2
BASIS
 70
     0
 62
     6
  6
DASHDOT
  0
LAYER
  2
OUTLINE
 70
     0
 62
     3
  6
CONTINUOUS
  0
LAYER
  2
DETAIL
 70
     0
 62
     5
  6
CONTINUOUS
  0
LAYER
  2
ARRANGE
 70
     0
 62
     1
  6
CONTINUOUS
  0
LAYER
  2
DEFPOINTS
 70
     0
 62
     7
  6
CONTINUOUS
  0
LAYER
  2
ETC
 70
     0
 62
    61
  6
CONTINUOUS
  0
LAYER
  2
FIX
 70
     0
 62
    11
  6
CONTINUOUS
  0
LAYER
  2
SERVICESPACE
 70
     0
 62
     2
  6
DASHDOT
  0
LAYER
  2
SYMBOLLINE
 70
     0
 62
    15
  6
CONTINUOUS
  0
ENDTAB
  0
TABLE
  2
STYLE
 70
     1
  0
STYLE
  2
STANDARD
 70
     0
 40
64.0
 41
0.9
 50
0.0
 71
     0
 42
64.0
  3
SIMPLEX.shx
  4
BIGFONT.shx
  0
ENDTAB
  0
TABLE
  2
VIEW
 70
     1
  0
VIEW
  2
ALL
 70
     0
 40
4282.6198079999967
 10
0.0
 20
41.309903999999989
 41
5940.0
 11
0.0
 21
0.0
 31
1.0
 12
0.0
 22
0.0
 32
0.0
 42
50.0
 43
0.0
 44
0.0
 50
0.0
 71
     0
  0
ENDTAB
  0
TABLE
  2
UCS
 70
     0
  0
ENDTAB
  0
TABLE
  2
APPID
 70
     2
  0
APPID
  2
ACAD
 70
     0
  0
APPID
  2
AUTOCAD_POSTSCRIPT_FIGURE
 70
     0
  0
ENDTAB
  0
TABLE
  2
DIMSTYLE
 70
     1
  0
DIMSTYLE
  2
STANDARD
 70
     0
  3

  4

  5

  6

  7

 40
1.0
 41
0.18
 42
0.0625
 43
0.38
 44
0.18
 45
0.0
 46
0.0
 47
0.0
 48
0.0
140
0.18
141
0.09
142
0.0
143
25.399999999999999
144
1.0
145
0.0
146
1.0
147
0.09
 71
     0
 72
     0
 73
     1
 74
     1
 75
     0
 76
     0
 77
     0
 78
     0
170
     0
171
     2
172
     0
173
     0
174
     0
175
     0
176
     7
177
     7
178
     7
  0
ENDTAB
  0
ENDSEC
  0
SECTION
  2
BLOCKS
  0
BLOCK
  8
0
  2
$MODEL_SPACE
 70
     0
 10
0.0
 20
0.0
 30
0.0
  3
$MODEL_SPACE
  1

  0
ENDBLK
  5
26D
  8
0
  0
BLOCK
 67
     1
  8
0
  2
$PAPER_SPACE
 70
     0
 10
0.0
 20
0.0
 30
0.0
  3
$PAPER_SPACE
  1

  0
ENDBLK
  5
269
 67
     1
  8
0
  0
BLOCK
  8
0
  2
DOT1
 70
     0
 10
0.0
 20
0.0
 30
0.0
  3
DOT1
  1

  0
CIRCLE
  5
289
  8
SIZE
  6
CONTINUOUS
 62
     7
 10
0.0
 20
0.0
 30
0.0
 40
3.0
  0
ENDBLK
  5
28A
  8
0
  0
BLOCK
  8
0
  2
_ORIGIN
 70
     0
 10
0.0
 20
0.0
 30
0.0
  3
_ORIGIN
  1

  0
CIRCLE
  5
28D
  8
0
  6
CONTINUOUS
 62
     7
 10
0.0
 20
0.0
 30
0.0
 40
0.5
  0
LINE
  5
28E
  8
0
  6
CONTINUOUS
 62
     7
 10
0.0
 20
0.0
 30
0.0
 11
-1.0
 21
0.0
 31
0.0
  0
ENDBLK
  5
28F
  8
0
  0
BLOCK
  8
0
 62
     7
  2
A$C61DA4E57
 70
     0
 10
0.0
 20
0.0
 30
0.0
  3
A$C61DA4E57
  1

  0
TEXT
  5
292
  8
ETC
  6
CONTINUOUS
 62
    61
 10
-0.0000004150630843
 20
3.8095241357207761
 30
0.0
 40
40.0
  1
PS-35UW3_1
 41
0.9
  0
ENDBLK
  5
293
  8
0
 62
     7
  0
BLOCK
  8
0
 62
    30
  2
_NONE
 70
     0
 10
0.0
 20
0.0
 30
0.0
  3
_NONE
  1

  0
ENDBLK
  5
296
  8
0
 62
    30
  0
BLOCK
  8
0
 62
    30
  2
_OPEN30
 70
     0
 10
0.0
 20
0.0
 30
0.0
  3
_OPEN30
  1

  0
LINE
  5
299
  8
0
  6
BYBLOCK
 62
     0
 10
-1.0
 20
0.26794919
 30
0.0
 11
0.0
 21
0.0
 31
0.0
  0
LINE
  5
29A
  8
0
  6
BYBLOCK
 62
     0
 10
0.0
 20
0.0
 30
0.0
 11
-1.0
 21
-0.26794919
 31
0.0
  0
LINE
  5
29B
  8
0
  6
BYBLOCK
 62
     0
 10
0.0
 20
0.0
 30
0.0
 11
-1.0
 21
0.0
 31
0.0
  0
ENDBLK
  5
29C
  8
0
 62
    30
  0
BLOCK
  8
0
 62
    30
  2
*D7
 70
     1
 10
0.0
 20
0.0
 30
0.0
  3
*D7
  1

  0
LINE
  5
29F
  8
SIZE
  6
CONTINUOUS
 10
217.0
 20
112.0
 30
0.0
 11
217.0
 21
193.14888120089421
 31
0.0
  0
LINE
  5
2A0
  8
SIZE
  6
CONTINUOUS
 10
-217.0
 20
112.0
 30
0.0
 11
-217.0
 21
193.14888120089421
 31
0.0
  0
LINE
  5
2A1
  8
SIZE
  6
CONTINUOUS
 10
217.0
 20
173.14888120089421
 30
0.0
 11
-217.0
 21
173.14888120089421
 31
0.0
  0
TEXT
  5
2A2
  8
NOTE
  6
CONTINUOUS
 10
-75.428571428571402
 20
193.14888120089421
 30
0.0
 40
64.0
  1
434
 41
0.9
  0
POINT
  5
2A3
  8
DEFPOINTS
  6
CONTINUOUS
 62
     0
 10
217.0
 20
102.0
 30
0.0
  0
POINT
  5
2A4
  8
DEFPOINTS
  6
CONTINUOUS
 62
     0
 10
-217.0
 20
102.0
 30
0.0
  0
POINT
  5
2A5
  8
DEFPOINTS
  6
CONTINUOUS
 62
     0
 10
-217.0
 20
173.14888120089421
 30
0.0
  0
ENDBLK
  5
2A6
  8
0
 62
    30
  0
BLOCK
  8
0
 62
     4
  2
A$C3D610195
 70
     0
 10
0.0
 20
0.0
 30
0.0
  3
A$C3D610195
  1

  0
TEXT
  5
2A9
  8
NOTE
  6
CONTINUOUS
 62
     4
 10
-0.0000019906847228
 20
-0.0000008926502915
 30
0.0
 40
64.0
  1
4×M8ボルト
 41
0.9
  0
ENDBLK
  5
2AA
  8
0
 62
     4
  0
ENDSEC
  0
SECTION
  2
ENTITIES
  0
TEXT
  5
2AB
  8
ETC
  6
CONTINUOUS
 62
    61
 10
392.06074000000001
 20
405.59915599999988
 30
0.0
 40
50.0
  1
システム部材
 41
0.9
  0
TEXT
  5
2AC
  8
ETC
  6
CONTINUOUS
 62
    61
 10
396.47360099999992
 20
472.386573
 30
0.0
 40
50.0
  1
PS-35UW3_1
 41
0.9
  0
POINT
  5
2AD
  8
ARRANGE
  6
CONTINUOUS
 62
     1
 10
0.0
 20
0.0
 30
0.0
 39
50.0
  0
CIRCLE
  5
2AE
  8
ARRANGE
  6
CONTINUOUS
 62
     1
 39
50.0
 10
0.0
 20
0.0
 30
0.0
 40
40.0
  0
LINE
  5
2AF
  8
NOTE
  6
CONTINUOUS
 62
     4
 10
-217.0
 20
62.0
 30
0.0
 11
-217.0
 21
102.0
 31
0.0
  0
LINE
  5
2B0
  8
NOTE
  6
CONTINUOUS
 62
     4
 10
-237.0
 20
82.0
 30
0.0
 11
-197.0
 21
82.0
 31
0.0
  0
LINE
  5
2B1
  8
NOTE
  6
CONTINUOUS
 62
     4
 10
-217.5
 20
-54.0
 30
0.0
 11
-217.5
 21
-14.0
 31
0.0
  0
LINE
  5
2B2
  8
NOTE
  6
CONTINUOUS
 62
     4
 10
-237.5
 20
-34.0
 30
0.0
 11
-197.5
 21
-34.0
 31
0.0
  0
LINE
  5
2B3
  8
NOTE
  6
CONTINUOUS
 62
     4
 10
257.0
 20
-20.0
 30
0.0
 11
257.0
 21
20.0
 31
0.0
  0
LINE
  5
2B4
  8
NOTE
  6
CONTINUOUS
 62
     4
 10
237.0
 20
0.0
 30
0.0
 11
277.0
 21
0.0
 31
0.0
  0
LINE
  5
2B5
  8
NOTE
  6
CONTINUOUS
 62
     4
 10
234.11688799999999
 20
118.15262300000001
 30
0.0
 11
217.0
 21
82.0
 31
0.0
  0
LINE
  5
2B6
  8
NOTE
  6
CONTINUOUS
 62
     4
 10
217.0
 20
82.0
 30
0.0
 11
249.89997099999991
 21
104.750646
 31
0.0
  0
LINE
  5
2B7
  8
NOTE
  6
CONTINUOUS
 62
     4
 10
289.05681399999992
 20
-23.924060999999998
 30
0.0
 11
257.0
 21
0.0
 31
0.0
  0
LINE
  5
2B8
  8
NOTE
  6
CONTINUOUS
 62
     4
 10
257.0
 20
0.0
 30
0.0
 11
272.79998399999982
 21
-36.747252000000003
 31
0.0
  0
TEXT
  5
2B9
  8
NOTE
  6
CONTINUOUS
 62
     4
 10
397.60098799999992
 20
-154.58109899999991
 30
0.0
 40
64.0
  1
4×φ16取付穴
 41
0.9
  0
TEXT
  5
2BA
  8
NOTE
  6
CONTINUOUS
 62
     4
 10
340.75194499999992
 20
228.81929400000001
 30
0.0
 40
64.0
  1
4×M8ボルト
 41
0.9
  0
LINE
  5
2BB
  8
NOTE
  6
CONTINUOUS
 62
     4
 39
50.0
 10
767.81768199999999
 20
212.9259659999999
 30
0.0
 11
335.072879
 21
212.9259659999999
 31
0.0
  0
LINE
  5
2BC
  8
NOTE
  6
CONTINUOUS
 62
     4
 39
50.0
 10
334.57287899999989
 20
212.9259659999999
 30
0.0
 11
217.0
 21
82.0
 31
0.0
  0
LINE
  5
2BD
  8
NOTE
  6
CONTINUOUS
 62
     4
 39
50.0
 10
387.46027199999997
 20
-163.46888000000001
 30
0.0
 11
869.14858000000004
 21
-163.46888000000001
 31
0.0
  0
LINE
  5
2BE
  8
NOTE
  6
CONTINUOUS
 62
     4
 39
50.0
 10
387.46027199999997
 20
-163.46888000000001
 30
0.0
 11
257.0
 21
0.0
 31
0.0
  0
LINE
  5
2BF
  8
NOTE
  6
CONTINUOUS
 62
     4
 10
217.0
 20
102.0
 30
0.0
 11
217.0
 21
62.0
 31
0.0
  0
LINE
  5
2C0
  8
NOTE
  6
CONTINUOUS
 62
     4
 10
237.0
 20
82.0
 30
0.0
 11
197.0
 21
82.0
 31
0.0
  0
LINE
  5
2C1
  8
NOTE
  6
CONTINUOUS
 62
     4
 10
-257.0
 20
20.0
 30
0.0
 11
-257.0
 21
-20.0
 31
0.0
  0
LINE
  5
2C2
  8
NOTE
  6
CONTINUOUS
 62
     4
 10
-237.0
 20
0.0
 30
0.0
 11
-277.0
 21
0.0
 31
0.0
  0
LINE
  5
2C3
  8
BASIS
  6
DASHDOT
 62
     6
 39
50.0
 10
0.0
 20
146.23577900000001
 30
0.0
 11
0.0
 21
-83.009201000000004
 31
0.0
  0
LINE
  5
2C4
  8
DETAIL
  6
CONTINUOUS
 62
     5
 39
50.0
 10
-272.0
 20
0.0
 30
0.0
 11
272.0
 21
0.0
 31
0.0
  0
LINE
  5
2C5
  8
DETAIL
  6
CONTINUOUS
 62
     5
 39
50.0
 10
-234.5
 20
0.0
 30
0.0
 11
-234.5
 21
-11.0
 31
0.0
  0
LINE
  5
2C6
  8
DETAIL
  6
CONTINUOUS
 62
     5
 39
50.0
 10
234.5
 20
0.0
 30
0.0
 11
234.5
 21
-11.0
 31
0.0
  0
LINE
  5
2C7
  8
DETAIL
  6
CONTINUOUS
 62
     5
 39
50.0
 10
234.5
 20
-11.0
 30
0.0
 11
-234.5
 21
-11.0
 31
0.0
  0
LINE
  5
2C8
  8
DETAIL
  6
CONTINUOUS
 62
     5
 39
50.0
 10
-213.5
 20
-11.0
 30
0.0
 11
-213.5
 21
-34.0
 31
0.0
  0
LINE
  5
2C9
  8
DETAIL
  6
CONTINUOUS
 62
     5
 39
50.0
 10
-213.5
 20
-34.0
 30
0.0
 11
-221.4999999999998
 21
-34.0
 31
0.0
  0
LINE
  5
2CA
  8
DETAIL
  6
CONTINUOUS
 62
     5
 39
50.0
 10
-221.4999999999998
 20
-34.0
 30
0.0
 11
-221.4999999999998
 21
-11.0
 31
0.0
  0
LINE
  5
2CB
  8
DETAIL
  6
CONTINUOUS
 62
     5
 39
50.0
 10
213.5
 20
-34.0
 30
0.0
 11
213.5
 21
-11.0
 31
0.0
  0
LINE
  5
2CC
  8
DETAIL
  6
CONTINUOUS
 62
     5
 39
50.0
 10
221.4999999999998
 20
-34.0
 30
0.0
 11
213.5
 21
-34.0
 31
0.0
  0
LINE
  5
2CD
  8
DETAIL
  6
CONTINUOUS
 62
     5
 39
50.0
 10
221.4999999999998
 20
-11.0
 30
0.0
 11
221.4999999999998
 21
-34.0
 31
0.0
  0
LINE
  5
2CE
  8
NOTE
  6
CONTINUOUS
 62
     4
 10
217.5
 20
-54.0
 30
0.0
 11
217.5
 21
-14.0
 31
0.0
  0
LINE
  5
2CF
  8
NOTE
  6
CONTINUOUS
 62
     4
 10
197.5
 20
-34.0
 30
0.0
 11
237.5
 21
-34.0
 31
0.0
  0
CIRCLE
  5
2D0
  8
FIX
  6
CONTINUOUS
 62
    11
 39
50.0
 10
257.0
 20
0.0
 30
0.0
 40
8.0
  0
CIRCLE
  5
2D1
  8
FIX
  6
CONTINUOUS
 62
    11
 39
50.0
 10
-257.0
 20
0.0
 30
0.0
 40
8.0
  0
LINE
  5
2D2
  8
DETAIL
  6
CONTINUOUS
 62
     5
 39
50.0
 10
-203.0
 20
60.0
 30
0.0
 11
203.0
 21
60.0
 31
0.0
  0
LINE
  5
2D3
  8
DETAIL
  6
CONTINUOUS
 62
     5
 39
50.0
 10
228.5
 20
60.0
 30
0.0
 11
228.5
 21
0.0
 31
0.0
  0
LINE
  5
2D4
  8
DETAIL
  6
CONTINUOUS
 62
     5
 39
50.0
 10
-228.5
 20
59.0
 30
0.0
 11
-228.5
 21
0.0
 31
0.0
  0
LINE
  5
2D5
  8
DETAIL
  6
CONTINUOUS
 62
     5
 39
50.0
 10
-203.0
 20
59.0
 30
0.0
 11
-228.5
 21
59.0
 31
0.0
  0
LINE
  5
2D6
  8
DETAIL
  6
CONTINUOUS
 62
     5
 39
50.0
 10
-203.0
 20
59.0
 30
0.0
 11
-203.0
 21
60.0
 31
0.0
  0
LINE
  5
2D7
  8
DETAIL
  6
CONTINUOUS
 62
     5
 39
50.0
 10
-203.0
 20
59.5
 30
0.0
 11
-228.5
 21
59.5
 31
0.0
  0
LINE
  5
2D8
  8
DETAIL
  6
CONTINUOUS
 62
     5
 39
50.0
 10
-213.0
 20
59.5
 30
0.0
 11
-213.0
 21
82.0
 31
0.0
  0
LINE
  5
2D9
  8
DETAIL
  6
CONTINUOUS
 62
     5
 39
50.0
 10
-213.0
 20
82.0
 30
0.0
 11
-220.99999999999989
 21
82.0
 31
0.0
  0
LINE
  5
2DA
  8
DETAIL
  6
CONTINUOUS
 62
     5
 39
50.0
 10
-213.5
 20
60.0
 30
0.0
 11
-228.5
 21
60.0
 31
0.0
  0
LINE
  5
2DB
  8
DETAIL
  6
CONTINUOUS
 62
     5
 39
50.0
 10
-228.5
 20
60.0
 30
0.0
 11
-228.5
 21
59.0
 31
0.0
  0
LINE
  5
2DC
  8
DETAIL
  6
CONTINUOUS
 62
     5
 39
50.0
 10
-220.99999999999989
 20
60.0
 30
0.0
 11
-220.99999999999989
 21
82.0
 31
0.0
  0
LINE
  5
2DD
  8
DETAIL
  6
CONTINUOUS
 62
     5
 39
50.0
 10
213.0
 20
59.5
 30
0.0
 11
213.0
 21
82.0
 31
0.0
  0
LINE
  5
2DE
  8
DETAIL
  6
CONTINUOUS
 62
     5
 39
50.0
 10
220.99999999999989
 20
60.0
 30
0.0
 11
220.99999999999989
 21
82.0
 31
0.0
  0
LINE
  5
2DF
  8
DETAIL
  6
CONTINUOUS
 62
     5
 39
50.0
 10
220.99999999999989
 20
82.0
 30
0.0
 11
213.0
 21
82.0
 31
0.0
  0
LINE
  5
2E0
  8
DETAIL
  6
CONTINUOUS
 62
     5
 39
50.0
 10
228.5
 20
59.0
 30
0.0
 11
203.0
 21
59.0
 31
0.0
  0
LINE
  5
2E1
  8
DETAIL
  6
CONTINUOUS
 62
     5
 39
50.0
 10
203.0
 20
59.0
 30
0.0
 11
203.0
 21
60.0
 31
0.0
  0
LINE
  5
2E2
  8
DETAIL
  6
CONTINUOUS
 62
     5
 39
50.0
 10
203.0
 20
59.5
 30
0.0
 11
228.5
 21
59.5
 31
0.0
  0
LINE
  5
2E3
  8
DETAIL
  6
CONTINUOUS
 62
     5
 39
50.0
 10
213.5
 20
60.0
 30
0.0
 11
228.5
 21
60.0
 31
0.0
  0
LINE
  5
2E4
  8
OUTLINE
  6
CONTINUOUS
 62
     3
 39
50.0
 10
234.5
 20
-11.0
 30
0.0
 11
-234.5
 21
-11.0
 31
0.0
  0
LINE
  5
2E5
  8
OUTLINE
  6
CONTINUOUS
 62
     3
 39
50.0
 10
-203.0
 20
60.0
 30
0.0
 11
203.0
 21
60.0
 31
0.0
  0
LINE
  5
2E6
  8
OUTLINE
  6
CONTINUOUS
 62
     3
 39
50.0
 10
-272.0
 20
0.0
 30
0.0
 11
272.0
 21
0.0
 31
0.0
  0
LINE
  5
2E7
  8
OUTLINE
  6
CONTINUOUS
 62
     3
 39
50.0
 10
-228.5
 20
59.0
 30
0.0
 11
-228.5
 21
0.0
 31
0.0
  0
LINE
  5
2E8
  8
OUTLINE
  6
CONTINUOUS
 62
     3
 39
50.0
 10
-234.5
 20
0.0
 30
0.0
 11
-234.5
 21
-11.0
 31
0.0
  0
LINE
  5
2E9
  8
OUTLINE
  6
CONTINUOUS
 62
     3
 39
50.0
 10
-203.0
 20
59.0
 30
0.0
 11
-228.5
 21
59.0
 31
0.0
  0
LINE
  5
2EA
  8
OUTLINE
  6
CONTINUOUS
 62
     3
 39
50.0
 10
-203.0
 20
59.0
 30
0.0
 11
-203.0
 21
60.0
 31
0.0
  0
LINE
  5
2EB
  8
OUTLINE
  6
CONTINUOUS
 62
     3
 39
50.0
 10
228.5
 20
59.0
 30
0.0
 11
228.5
 21
0.0
 31
0.0
  0
LINE
  5
2EC
  8
OUTLINE
  6
CONTINUOUS
 62
     3
 39
50.0
 10
234.5
 20
0.0
 30
0.0
 11
234.5
 21
-11.0
 31
0.0
  0
LINE
  5
2ED
  8
OUTLINE
  6
CONTINUOUS
 62
     3
 39
50.0
 10
203.0
 20
59.0
 30
0.0
 11
203.0
 21
60.0
 31
0.0
  0
LINE
  5
2EE
  8
OUTLINE
  6
CONTINUOUS
 62
     3
 39
50.0
 10
228.5
 20
59.0
 30
0.0
 11
203.0
 21
59.0
 31
0.0
  0
LINE
  5
2EF
  8
SIZE
  6
CONTINUOUS
 62
    30
 10
-217.5
 20
-54.0
 30
0.0
 11
-217.5
 21
-228.9266979999999
 31
0.0
  0
LINE
  5
2F0
  8
SIZE
  6
CONTINUOUS
 62
    30
 10
217.5
 20
-54.0
 30
0.0
 11
217.5
 21
-228.9266979999999
 31
0.0
  0
LINE
  5
2F1
  8
SIZE
  6
CONTINUOUS
 62
    30
 10
-205.5
 20
-208.92669799999999
 30
0.0
 11
205.5
 21
-208.92669799999999
 31
0.0
  0
CIRCLE
  5
2F2
  8
SIZE
  6
CONTINUOUS
 62
    30
 10
-217.5
 20
-208.92669799999999
 30
0.0
 40
6.0
  0
LINE
  5
2F3
  8
SIZE
  6
CONTINUOUS
 62
    30
 10
-217.5
 20
-208.92669799999999
 30
0.0
 11
-205.5
 21
-208.92669799999999
 31
0.0
  0
CIRCLE
  5
2F4
  8
SIZE
  6
CONTINUOUS
 62
    30
 10
217.5
 20
-208.92669799999999
 30
0.0
 40
6.0
  0
LINE
  5
2F5
  8
SIZE
  6
CONTINUOUS
 62
    30
 10
217.5
 20
-208.92669799999999
 30
0.0
 11
205.5
 21
-208.92669799999999
 31
0.0
  0
TEXT
  5
2F6
  8
SIZE
  6
CONTINUOUS
 62
    30
 10
-74.05714285714285
 20
-183.9266979999999
 30
0.0
 40
64.0
  1
435
 41
0.9
 72
     1
 11
0.0
 21
-183.9266979999999
 31
0.0
  0
LINE
  5
2F7
  8
SIZE
  6
CONTINUOUS
 62
    30
 10
-257.0
 20
-20.0
 30
0.0
 11
-257.0
 21
-373.72405800000001
 31
0.0
  0
LINE
  5
2F8
  8
SIZE
  6
CONTINUOUS
 62
    30
 10
257.0
 20
-20.0
 30
0.0
 11
257.0
 21
-373.72405800000001
 31
0.0
  0
LINE
  5
2F9
  8
SIZE
  6
CONTINUOUS
 62
    30
 10
-245.0
 20
-353.72405800000001
 30
0.0
 11
245.0
 21
-353.72405800000001
 31
0.0
  0
CIRCLE
  5
2FA
  8
SIZE
  6
CONTINUOUS
 62
    30
 10
-257.0
 20
-353.72405800000001
 30
0.0
 40
6.0
  0
LINE
  5
2FB
  8
SIZE
  6
CONTINUOUS
 62
    30
 10
-257.0
 20
-353.72405800000001
 30
0.0
 11
-245.0
 21
-353.72405800000001
 31
0.0
  0
CIRCLE
  5
2FC
  8
SIZE
  6
CONTINUOUS
 62
    30
 10
257.0
 20
-353.72405800000001
 30
0.0
 40
6.0
  0
LINE
  5
2FD
  8
SIZE
  6
CONTINUOUS
 62
    30
 10
257.0
 20
-353.72405800000001
 30
0.0
 11
245.0
 21
-353.72405800000001
 31
0.0
  0
TEXT
  5
2FE
  8
SIZE
  6
CONTINUOUS
 62
    30
 10
-69.942857142857122
 20
-328.72405800000001
 30
0.0
 40
64.0
  1
514
 41
0.9
 72
     1
 11
0.0
 21
-328.72405800000001
 31
0.0
  0
LINE
  5
2FF
  8
SIZE
  6
CONTINUOUS
 62
    30
 10
-272.0
 20
-20.0
 30
0.0
 11
-272.0
 21
-508.92429199999998
 31
0.0
  0
LINE
  5
300
  8
SIZE
  6
CONTINUOUS
 62
    30
 10
272.0
 20
-20.0
 30
0.0
 11
272.0
 21
-508.92429199999998
 31
0.0
  0
LINE
  5
301
  8
SIZE
  6
CONTINUOUS
 62
    30
 10
-260.0
 20
-488.92429199999998
 30
0.0
 11
260.0
 21
-488.92429199999998
 31
0.0
  0
CIRCLE
  5
302
  8
SIZE
  6
CONTINUOUS
 62
    30
 10
-272.0
 20
-488.92429199999998
 30
0.0
 40
6.0
  0
LINE
  5
303
  8
SIZE
  6
CONTINUOUS
 62
    30
 10
-272.0
 20
-488.92429199999998
 30
0.0
 11
-260.0
 21
-488.92429199999998
 31
0.0
  0
CIRCLE
  5
304
  8
SIZE
  6
CONTINUOUS
 62
    30
 10
272.0
 20
-488.92429199999998
 30
0.0
 40
6.0
  0
LINE
  5
305
  8
SIZE
  6
CONTINUOUS
 62
    30
 10
272.0
 20
-488.92429199999998
 30
0.0
 11
260.0
 21
-488.92429199999998
 31
0.0
  0
TEXT
  5
306
  8
SIZE
  6
CONTINUOUS
 62
    30
 10
-75.428571428571416
 20
-463.92429199999998
 30
0.0
 40
64.0
  1
544
 41
0.9
 72
     1
 11
0.0
 21
-463.92429199999998
 31
0.0
  0
LINE
  5
307
  8
SIZE
  6
CONTINUOUS
 62
    30
 10
-241.5
 20
-11.0
 30
0.0
 11
-423.57259599999992
 21
-11.0
 31
0.0
  0
LINE
  5
308
  8
SIZE
  6
CONTINUOUS
 62
    30
 10
-241.5
 20
-34.0
 30
0.0
 11
-423.57259599999992
 21
-34.0
 31
0.0
  0
LINE
  5
309
  8
SIZE
  6
CONTINUOUS
 62
    30
 10
-403.57259599999981
 20
1.0
 30
0.0
 11
-403.57259599999981
 21
13.0
 31
0.0
  0
LINE
  5
30A
  8
SIZE
  6
CONTINUOUS
 62
    30
 10
-403.57259599999981
 20
-46.0
 30
0.0
 11
-403.57259599999981
 21
-201.2571429999999
 31
0.0
  0
LINE
  5
30B
  8
SIZE
  6
CONTINUOUS
 62
    30
 10
-403.57259599999981
 20
-11.0
 30
0.0
 11
-403.57259599999981
 21
-34.0
 31
0.0
  0
CIRCLE
  5
30C
  8
SIZE
  6
CONTINUOUS
 62
    30
 10
-403.57259599999981
 20
-11.0
 30
0.0
 40
6.0
  0
LINE
  5
30D
  8
SIZE
  6
CONTINUOUS
 62
    30
 10
-403.57259599999981
 20
-11.0
 30
0.0
 11
-403.57259599999981
 21
1.0
 31
0.0
  0
CIRCLE
  5
30E
  8
SIZE
  6
CONTINUOUS
 62
    30
 10
-403.57259599999981
 20
-34.0
 30
0.0
 40
6.0
  0
LINE
  5
30F
  8
SIZE
  6
CONTINUOUS
 62
    30
 10
-403.57259599999981
 20
-34.0
 30
0.0
 11
-403.57259599999981
 21
-46.0
 31
0.0
  0
TEXT
  5
310
  8
SIZE
  6
CONTINUOUS
 62
    30
 10
-428.57259599999992
 20
-176.2571424285714
 30
0.0
 40
64.0
  1
23
 50
90.0
 41
0.9
 72
     1
 11
-428.57259599999992
 21
-129.62857099999999
 31
0.0
  0
LINE
  5
311
  8
SIZE
  6
CONTINUOUS
 62
    30
 10
-254.49999999999989
 20
0.0
 30
0.0
 11
-423.25137599999988
 21
0.0
 31
0.0
  0
LINE
  5
312
  8
SIZE
  6
CONTINUOUS
 62
    30
 10
-254.49999999999989
 20
-11.0
 30
0.0
 11
-423.25137599999988
 21
-11.0
 31
0.0
  0
LINE
  5
313
  8
SIZE
  6
CONTINUOUS
 62
    30
 10
-403.25137599999988
 20
-23.0
 30
0.0
 11
-403.25137599999988
 21
-35.0
 31
0.0
  0
LINE
  5
314
  8
SIZE
  6
CONTINUOUS
 62
    30
 10
-403.25137599999988
 20
12.0
 30
0.0
 11
-403.25137599999988
 21
173.95748499999991
 31
0.0
  0
LINE
  5
315
  8
SIZE
  6
CONTINUOUS
 62
    30
 10
-403.25137599999988
 20
-11.0
 30
0.0
 11
-403.25137599999988
 21
0.0
 31
0.0
  0
CIRCLE
  5
316
  8
SIZE
  6
CONTINUOUS
 62
    30
 10
-403.25137599999988
 20
-11.0
 30
0.0
 40
6.0
  0
LINE
  5
317
  8
SIZE
  6
CONTINUOUS
 62
    30
 10
-403.25137599999988
 20
-11.0
 30
0.0
 11
-403.25137599999988
 21
-23.0
 31
0.0
  0
CIRCLE
  5
318
  8
SIZE
  6
CONTINUOUS
 62
    30
 10
-403.25137599999988
 20
0.0
 30
0.0
 40
6.0
  0
LINE
  5
319
  8
SIZE
  6
CONTINUOUS
 62
    30
 10
-403.25137599999988
 20
0.0
 30
0.0
 11
-403.25137599999988
 21
12.0
 31
0.0
  0
TEXT
  5
31A
  8
SIZE
  6
CONTINUOUS
 62
    30
 10
-428.25137599999988
 20
91.357484999999869
 30
0.0
 40
64.0
  1
11
 50
90.0
 41
0.9
 72
     1
 11
-428.25137599999988
 21
120.1574849999998
 31
0.0
  0
LINE
  5
31B
  8
SIZE
  6
CONTINUOUS
 62
    30
 10
-248.4999999999998
 20
0.0
 30
0.0
 11
-595.01093900000001
 21
0.0
 31
0.0
  0
LINE
  5
31C
  8
SIZE
  6
CONTINUOUS
 62
    30
 10
-248.4999999999998
 20
60.0
 30
0.0
 11
-595.01093900000001
 21
60.0
 31
0.0
  0
LINE
  5
31D
  8
SIZE
  6
CONTINUOUS
 62
    30
 10
-575.01093900000001
 20
72.0
 30
0.0
 11
-575.01093900000001
 21
84.0
 31
0.0
  0
LINE
  5
31E
  8
SIZE
  6
CONTINUOUS
 62
    30
 10
-575.01093900000001
 20
-12.0
 30
0.0
 11
-575.01093900000001
 21
-167.25714299999979
 31
0.0
  0
LINE
  5
31F
  8
SIZE
  6
CONTINUOUS
 62
    30
 10
-575.01093900000001
 20
60.0
 30
0.0
 11
-575.01093900000001
 21
0.0
 31
0.0
  0
CIRCLE
  5
320
  8
SIZE
  6
CONTINUOUS
 62
    30
 10
-575.01093900000001
 20
60.0
 30
0.0
 40
6.0
  0
LINE
  5
321
  8
SIZE
  6
CONTINUOUS
 62
    30
 10
-575.01093900000001
 20
60.0
 30
0.0
 11
-575.01093900000001
 21
72.0
 31
0.0
  0
CIRCLE
  5
322
  8
SIZE
  6
CONTINUOUS
 62
    30
 10
-575.01093900000001
 20
0.0
 30
0.0
 40
6.0
  0
LINE
  5
323
  8
SIZE
  6
CONTINUOUS
 62
    30
 10
-575.01093900000001
 20
0.0
 30
0.0
 11
-575.01093900000001
 21
-12.0
 31
0.0
  0
TEXT
  5
324
  8
SIZE
  6
CONTINUOUS
 62
    30
 10
-600.01093900000001
 20
-142.25714242857131
 30
0.0
 40
64.0
  1
60
 50
90.0
 41
0.9
 72
     1
 11
-600.01093900000001
 21
-95.628570999999994
 31
0.0
  0
LINE
  5
325
  8
SIZE
  6
CONTINUOUS
 62
    30
 10
-241.5
 20
82.0
 30
0.0
 11
-595.01093900000001
 21
82.0
 31
0.0
  0
LINE
  5
326
  8
SIZE
  6
CONTINUOUS
 62
    30
 10
-241.5
 20
60.0
 30
0.0
 11
-595.01093900000001
 21
60.0
 31
0.0
  0
LINE
  5
327
  8
SIZE
  6
CONTINUOUS
 62
    30
 10
-575.01093900000001
 20
48.0
 30
0.0
 11
-575.01093900000001
 21
36.0
 31
0.0
  0
LINE
  5
328
  8
SIZE
  6
CONTINUOUS
 62
    30
 10
-575.01093900000001
 20
94.0
 30
0.0
 11
-575.01093900000001
 21
249.25714300000001
 31
0.0
  0
LINE
  5
329
  8
SIZE
  6
CONTINUOUS
 62
    30
 10
-575.01093900000001
 20
60.0
 30
0.0
 11
-575.01093900000001
 21
82.0
 31
0.0
  0
CIRCLE
  5
32A
  8
SIZE
  6
CONTINUOUS
 62
    30
 10
-575.01093900000001
 20
60.0
 30
0.0
 40
6.0
  0
LINE
  5
32B
  8
SIZE
  6
CONTINUOUS
 62
    30
 10
-575.01093900000001
 20
60.0
 30
0.0
 11
-575.01093900000001
 21
48.0
 31
0.0
  0
CIRCLE
  5
32C
  8
SIZE
  6
CONTINUOUS
 62
    30
 10
-575.01093900000001
 20
82.0
 30
0.0
 40
6.0
  0
LINE
  5
32D
  8
SIZE
  6
CONTINUOUS
 62
    30
 10
-575.01093900000001
 20
82.0
 30
0.0
 11
-575.01093900000001
 21
94.0
 31
0.0
  0
TEXT
  5
32E
  8
SIZE
  6
CONTINUOUS
 62
    30
 10
-600.01093900000001
 20
130.9999995714285
 30
0.0
 40
64.0
  1
22
 50
90.0
 41
0.9
 72
     1
 11
-600.01093900000001
 21
177.62857099999991
 31
0.0
  0
LINE
  5
32F
  8
SIZE
  6
CONTINUOUS
 62
    30
 10
-228.5
 20
69.545536247857399
 30
0.0
 11
-228.5
 21
306.88928431030172
 31
0.0
  0
LINE
  5
330
  8
SIZE
  6
CONTINUOUS
 62
    30
 10
228.5
 20
69.545536247857399
 30
0.0
 11
228.5
 21
305.41509900127039
 31
0.0
  0
LINE
  5
331
  8
SIZE
  6
CONTINUOUS
 62
    30
 10
-216.5
 20
283.30232749017739
 30
0.0
 11
216.5
 21
283.30232749017739
 31
0.0
  0
CIRCLE
  5
332
  8
SIZE
  6
CONTINUOUS
 62
    30
 10
-228.5
 20
283.30232749017739
 30
0.0
 40
6.0
  0
LINE
  5
333
  8
SIZE
  6
CONTINUOUS
 62
    30
 10
-228.5
 20
283.30232749017739
 30
0.0
 11
-216.5
 21
283.30232749017739
 31
0.0
  0
CIRCLE
  5
334
  8
SIZE
  6
CONTINUOUS
 62
    30
 10
228.5
 20
283.30232749017739
 30
0.0
 40
6.0
  0
LINE
  5
335
  8
SIZE
  6
CONTINUOUS
 62
    30
 10
228.5
 20
283.30232749017739
 30
0.0
 11
216.5
 21
283.30232749017739
 31
0.0
  0
TEXT
  5
336
  8
SIZE
  6
CONTINUOUS
 62
    30
 10
-180.20571428571421
 20
325.06423249017729
 30
0.0
 40
64.0
  1
457(外寸)
 41
0.9
 72
     1
 11
0.0
 21
325.06423249017729
 31
0.0
  0
TEXT
  5
337
  8
ETC
  6
CONTINUOUS
 62
    61
 10
493.98013628570999
 20
353.45016632118251
 30
0.0
 40
40.0
  1
PS-35UW3
 41
0.9
  0
CIRCLE
  5
338
  8
SIZE
  6
CONTINUOUS
 62
    30
 39
50.0
 10
-217.0
 20
173.14888120089421
 30
0.0
 40
6.0
  0
CIRCLE
  5
339
  8
SIZE
  6
CONTINUOUS
 62
    30
 39
50.0
 10
217.0
 20
173.14888120089421
 30
0.0
 40
6.0
  0
LINE
  5
33A
  8
SIZE
  6
CONTINUOUS
 10
217.0
 20
112.0
 30
0.0
 11
217.0
 21
193.14888120089421
 31
0.0
  0
LINE
  5
33B
  8
SIZE
  6
CONTINUOUS
 10
-217.0
 20
112.0
 30
0.0
 11
-217.0
 21
193.14888120089421
 31
0.0
  0
LINE
  5
33C
  8
SIZE
  6
CONTINUOUS
 10
217.0
 20
173.14888120089421
 30
0.0
 11
-217.0
 21
173.14888120089421
 31
0.0
  0
TEXT
  5
33D
  8
SIZE
  6
CONTINUOUS
 10
-75.428571428571402
 20
193.14888120089421
 30
0.0
 40
64.0
  1
434
 41
0.9
  0
TEXT
  5
33E
  8
NOTE
  6
CONTINUOUS
 62
     4
 10
379.33863688312249
 20
-298.42685311315142
 30
0.0
 40
64.0
  1
4×M8ボルト
 41
0.9
  0
LINE
  5
33F
  8
NOTE
  6
CONTINUOUS
 62
     4
 10
235.3281746773722
 20
-69.807208599290405
 30
0.0
 11
360.16620224556289
 21
-320.53962373159402
 31
0.0
1001
ACAD
1000
DSTYLE
1002
{
1070
    41
1040
40.0
1070
    42
1040
10.0
1070
    43
1040
200.0
1070
    44
1040
20.0
1070
    73
1070
     0
1070
    74
1070
     0
1070
    77
1070
     0
1070
    78
1070
     8
1070
   140
1040
64.0
1070
   147
1040
20.0
1070
   172
1070
     1
1070
   174
1070
     1
1070
   176
1070
   256
1070
   177
1070
   256
1070
   178
1070
   256
1070
   275
1070
     0
1070
   279
1070
     0
1070
   284
1070
     0
1070
   285
1070
     0
1070
   286
1070
     0
1070
   341
1005
1DD
1070
   342
1005
1DA
1070
   343
1005
1DA
1070
   344
1005
136
1002
}
  0
LINE
  5
340
  8
NOTE
  6
CONTINUOUS
 62
     4
 10
360.16620224556289
 20
-320.53962373159402
 30
0.0
 11
811.45579098564122
 21
-320.53962373159402
 31
0.0
1001
ACAD
1000
DSTYLE
1002
{
1070
    41
1040
40.0
1070
    42
1040
10.0
1070
    43
1040
200.0
1070
    44
1040
20.0
1070
    73
1070
     0
1070
    74
1070
     0
1070
    77
1070
     0
1070
    78
1070
     8
1070
   140
1040
64.0
1070
   147
1040
20.0
1070
   172
1070
     1
1070
   174
1070
     1
1070
   176
1070
   256
1070
   177
1070
   256
1070
   178
1070
   256
1070
   275
1070
     0
1070
   279
1070
     0
1070
   284
1070
     0
1070
   285
1070
     0
1070
   286
1070
     0
1070
   341
1005
1DD
1070
   342
1005
1DA
1070
   343
1005
1DA
1070
   344
1005
136
1002
}
  0
LINE
  5
341
  8
NOTE
  6
BYBLOCK
 62
     4
 10
225.7336621370313
 20
-74.584253563270849
 30
0.0
 11
217.4999999999998
 21
-34.0
 31
0.0
  0
LINE
  5
342
  8
NOTE
  6
BYBLOCK
 62
     4
 10
217.4999999999998
 20
-34.0
 30
0.0
 11
244.9226872177131
 21
-65.030163635309933
 31
0.0
  0
LINE
  5
343
  8
NOTE
  6
BYBLOCK
 62
     4
 10
217.4999999999998
 20
-34.0
 30
0.0
 11
235.3281746773722
 21
-69.807208599290405
 31
0.0
  0
ENDSEC
  0
EOF
