  0
SECTION
  2
HEADER
  9
$ACADVER
  1
AC1009
  9
$INSBASE
 10
0.0
 20
0.0
 30
0.0
  9
$EXTMIN
 10
-690.95618100000002
 20
-398.65992999999992
 30
0.0
  9
$EXTMAX
 10
774.60117486299589
 20
671.8823640532263
 30
50.0
  9
$LIMMIN
 10
-2970.0
 20
-2100.0
  9
$LIMMAX
 10
2970.0
 20
2100.0
  9
$ORTHOMODE
 70
     1
  9
$REGENMODE
 70
     1
  9
$FILLMODE
 70
     1
  9
$QTEXTMODE
 70
     0
  9
$MIRRTEXT
 70
     0
  9
$DRAGMODE
 70
     2
  9
$LTSCALE
 40
20.0
  9
$OSMODE
 70
   167
  9
$ATTMODE
 70
     1
  9
$TEXTSIZE
 40
64.0
  9
$TRACEWID
 40
0.05
  9
$TEXTSTYLE
  7
STANDARD
  9
$CLAYER
  8
SIZE
  9
$CELTYPE
  6
CONTINUOUS
  9
$CECOLOR
 62
    30
  9
$DIMSCALE
 40
1.0
  9
$DIMASZ
 40
40.0
  9
$DIMEXO
 40
10.0
  9
$DIMDLI
 40
200.0
  9
$DIMRND
 40
0.0
  9
$DIMDLE
 40
0.0
  9
$DIMEXE
 40
20.0
  9
$DIMTP
 40
0.0
  9
$DIMTM
 40
0.0
  9
$DIMTXT
 40
64.0
  9
$DIMCEN
 40
0.09
  9
$DIMTSZ
 40
0.0
  9
$DIMTOL
 70
     0
  9
$DIMLIM
 70
     0
  9
$DIMTIH
 70
     0
  9
$DIMTOH
 70
     0
  9
$DIMSE1
 70
     0
  9
$DIMSE2
 70
     0
  9
$DIMTAD
 70
     1
  9
$DIMZIN
 70
     8
  9
$DIMBLK
  1
NONE
  9
$DIMASO
 70
     1
  9
$DIMSHO
 70
     0
  9
$DIMPOST
  1

  9
$DIMAPOST
  1

  9
$DIMALT
 70
     0
  9
$DIMALTD
 70
     2
  9
$DIMALTF
 40
25.399999999999999
  9
$DIMLFAC
 40
1.0
  9
$DIMTOFL
 70
     1
  9
$DIMTVP
 40
0.0
  9
$DIMTIX
 70
     1
  9
$DIMSOXD
 70
     0
  9
$DIMSAH
 70
     0
  9
$DIMBLK1
  1
NONE
  9
$DIMBLK2
  1
ORIGIN
  9
$DIMSTYLE
  2
STANDARD
  9
$DIMCLRD
 70
   256
  9
$DIMCLRE
 70
   256
  9
$DIMCLRT
 70
   256
  9
$DIMTFAC
 40
1.0
  9
$DIMGAP
 40
20.0
  9
$LUNITS
 70
     2
  9
$LUPREC
 70
     4
  9
$SKETCHINC
 40
0.1
  9
$FILLETRAD
 40
20.0
  9
$AUNITS
 70
     1
  9
$AUPREC
 70
     3
  9
$MENU
  1
ACAD
  9
$ELEVATION
 40
0.0
  9
$PELEVATION
 40
0.0
  9
$THICKNESS
 40
50.0
  9
$LIMCHECK
 70
     0
  9
$BLIPMODE
 70
     0
  9
$CHAMFERA
 40
0.0
  9
$CHAMFERB
 40
0.0
  9
$SKPOLY
 70
     0
  9
$TDCREATE
 40
2453019.6230103699
  9
$TDUPDATE
 40
2455147.6670967131
  9
$TDINDWG
 40
0.4214085764
  9
$TDUSRTIMER
 40
0.4214083912
  9
$USRTIMER
 70
     1
  9
$ANGBASE
 50
0.0
  9
$ANGDIR
 70
     0
  9
$PDMODE
 70
     3
  9
$PDSIZE
 40
-2.0
  9
$PLINEWID
 40
0.0
  9
$COORDS
 70
     2
  9
$SPLFRAME
 70
     0
  9
$SPLINETYPE
 70
     6
  9
$SPLINESEGS
 70
     8
  9
$ATTDIA
 70
     0
  9
$ATTREQ
 70
     1
  9
$HANDLING
 70
 22529
  9
$HANDSEED
  5
369
  9
$SURFTAB1
 70
     6
  9
$SURFTAB2
 70
     6
  9
$SURFTYPE
 70
     6
  9
$SURFU
 70
     6
  9
$SURFV
 70
     6
  9
$UCSNAME
  2

  9
$UCSORG
 10
0.0
 20
0.0
 30
0.0
  9
$UCSXDIR
 10
1.0
 20
0.0
 30
0.0
  9
$UCSYDIR
 10
0.0
 20
1.0
 30
0.0
  9
$PUCSNAME
  2

  9
$PUCSORG
 10
0.0
 20
0.0
 30
0.0
  9
$PUCSXDIR
 10
1.0
 20
0.0
 30
0.0
  9
$PUCSYDIR
 10
0.0
 20
1.0
 30
0.0
  9
$USERI1
 70
     0
  9
$USERI2
 70
     0
  9
$USERI3
 70
     0
  9
$USERI4
 70
     0
  9
$USERI5
 70
     0
  9
$USERR1
 40
20.0
  9
$USERR2
 40
0.0
  9
$USERR3
 40
0.0
  9
$USERR4
 40
0.0
  9
$USERR5
 40
0.0
  9
$WORLDVIEW
 70
     1
  9
$SHADEDGE
 70
     3
  9
$SHADEDIF
 70
    70
  9
$TILEMODE
 70
     1
  9
$MAXACTVP
 70
    48
  9
$PLIMCHECK
 70
     0
  9
$PEXTMIN
 10
-1.0000000000000000E+020
 20
-1.0000000000000000E+020
 30
-1.0000000000000000E+020
  9
$PEXTMAX
 10
1.0000000000000000E+020
 20
1.0000000000000000E+020
 30
1.0000000000000000E+020
  9
$PLIMMIN
 10
0.0
 20
0.0
  9
$PLIMMAX
 10
12.0
 20
9.0
  9
$UNITMODE
 70
     0
  9
$VISRETAIN
 70
     0
  9
$PLINEGEN
 70
     0
  9
$PSLTSCALE
 70
     0
  0
ENDSEC
  0
SECTION
  2
TABLES
  0
TABLE
  2
VPORT
 70
     3
  0
VPORT
  2
*ACTIVE
 70
     0
 10
0.0
 20
0.0
 11
1.0
 21
1.0
 12
33.837938979008641
 22
136.61671537468351
 13
0.0
 23
0.0
 14
1.0
 24
1.0
 15
0.0
 25
0.0
 16
0.0
 26
0.0
 36
1.0
 17
0.0
 27
0.0
 37
0.0
 40
1209.0880950578889
 41
1.493654822335025
 42
50.0
 43
0.0
 44
0.0
 50
0.0
 51
0.0
 71
     0
 72
  1000
 73
     1
 74
     0
 75
     0
 76
     0
 77
     0
 78
     0
  0
ENDTAB
  0
TABLE
  2
LTYPE
 70
     2
  0
LTYPE
  2
CONTINUOUS
 70
     0
  3
実線
 72
    65
 73
     0
 40
0.0
  0
LTYPE
  2
DASHDOT
 70
     0
  3
____ _ ____ _ ____ _ ____ _ ____ _ ____ _ ____
 72
    65
 73
     4
 40
5.5
 49
4.0
 49
-0.6
 49
0.3
 49
-0.6
  0
ENDTAB
  0
TABLE
  2
LAYER
 70
    12
  0
LAYER
  2
0
 70
     0
 62
     7
  6
CONTINUOUS
  0
LAYER
  2
SIZE
 70
     0
 62
    30
  6
CONTINUOUS
  0
LAYER
  2
NOTE
 70
     0
 62
     4
  6
CONTINUOUS
  0
LAYER
  2
BASIS
 70
     0
 62
     6
  6
DASHDOT
  0
LAYER
  2
OUTLINE
 70
     0
 62
     3
  6
CONTINUOUS
  0
LAYER
  2
DETAIL
 70
     0
 62
     5
  6
CONTINUOUS
  0
LAYER
  2
ARRANGE
 70
     0
 62
     1
  6
CONTINUOUS
  0
LAYER
  2
DEFPOINTS
 70
     0
 62
     7
  6
CONTINUOUS
  0
LAYER
  2
ETC
 70
     0
 62
    61
  6
CONTINUOUS
  0
LAYER
  2
FIX
 70
     0
 62
    11
  6
CONTINUOUS
  0
LAYER
  2
SERVICESPACE
 70
     0
 62
     2
  6
DASHDOT
  0
LAYER
  2
SYMBOLLINE
 70
     0
 62
    15
  6
CONTINUOUS
  0
ENDTAB
  0
TABLE
  2
STYLE
 70
     1
  0
STYLE
  2
STANDARD
 70
     0
 40
64.0
 41
0.9
 50
0.0
 71
     0
 42
64.0
  3
SIMPLEX.shx
  4
BIGFONT.shx
  0
ENDTAB
  0
TABLE
  2
VIEW
 70
     1
  0
VIEW
  2
ALL
 70
     0
 40
4282.6198079999967
 10
0.0
 20
41.309903999999989
 41
5940.0
 11
0.0
 21
0.0
 31
1.0
 12
0.0
 22
0.0
 32
0.0
 42
50.0
 43
0.0
 44
0.0
 50
0.0
 71
     0
  0
ENDTAB
  0
TABLE
  2
UCS
 70
     0
  0
ENDTAB
  0
TABLE
  2
APPID
 70
     2
  0
APPID
  2
ACAD
 70
     0
  0
APPID
  2
AUTOCAD_POSTSCRIPT_FIGURE
 70
     0
  0
ENDTAB
  0
TABLE
  2
DIMSTYLE
 70
     1
  0
DIMSTYLE
  2
STANDARD
 70
     0
  3

  4

  5

  6

  7

 40
1.0
 41
0.18
 42
0.0625
 43
0.38
 44
0.18
 45
0.0
 46
0.0
 47
0.0
 48
0.0
140
0.18
141
0.09
142
0.0
143
25.399999999999999
144
1.0
145
0.0
146
1.0
147
0.09
 71
     0
 72
     0
 73
     1
 74
     1
 75
     0
 76
     0
 77
     0
 78
     0
170
     0
171
     2
172
     0
173
     0
174
     0
175
     0
176
     7
177
     7
178
     7
  0
ENDTAB
  0
ENDSEC
  0
SECTION
  2
BLOCKS
  0
BLOCK
  8
0
  2
$MODEL_SPACE
 70
     0
 10
0.0
 20
0.0
 30
0.0
  3
$MODEL_SPACE
  1

  0
ENDBLK
  5
258
  8
0
  0
BLOCK
 67
     1
  8
0
  2
$PAPER_SPACE
 70
     0
 10
0.0
 20
0.0
 30
0.0
  3
$PAPER_SPACE
  1

  0
ENDBLK
  5
254
 67
     1
  8
0
  0
BLOCK
  8
0
  2
DOT1
 70
     0
 10
0.0
 20
0.0
 30
0.0
  3
DOT1
  1

  0
CIRCLE
  5
274
  8
SIZE
  6
CONTINUOUS
 62
     7
 10
0.0
 20
0.0
 30
0.0
 40
3.0
  0
ENDBLK
  5
275
  8
0
  0
BLOCK
  8
0
  2
_ORIGIN
 70
     0
 10
0.0
 20
0.0
 30
0.0
  3
_ORIGIN
  1

  0
CIRCLE
  5
278
  8
0
  6
CONTINUOUS
 62
     7
 10
0.0
 20
0.0
 30
0.0
 40
0.5
  0
LINE
  5
279
  8
0
  6
CONTINUOUS
 62
     7
 10
0.0
 20
0.0
 30
0.0
 11
-1.0
 21
0.0
 31
0.0
  0
ENDBLK
  5
27A
  8
0
  0
BLOCK
  8
0
 62
     7
  2
_NONE
 70
     0
 10
0.0
 20
0.0
 30
0.0
  3
_NONE
  1

  0
ENDBLK
  5
27D
  8
0
 62
     7
  0
BLOCK
  8
0
 62
     7
  2
_OPEN30
 70
     0
 10
0.0
 20
0.0
 30
0.0
  3
_OPEN30
  1

  0
LINE
  5
280
  8
0
  6
BYBLOCK
 62
     0
 10
-1.0
 20
0.26794919
 30
0.0
 11
0.0
 21
0.0
 31
0.0
  0
LINE
  5
281
  8
0
  6
BYBLOCK
 62
     0
 10
0.0
 20
0.0
 30
0.0
 11
-1.0
 21
-0.26794919
 31
0.0
  0
LINE
  5
282
  8
0
  6
BYBLOCK
 62
     0
 10
0.0
 20
0.0
 30
0.0
 11
-1.0
 21
0.0
 31
0.0
  0
ENDBLK
  5
283
  8
0
 62
     7
  0
BLOCK
  8
0
 62
    30
  2
*D6
 70
     1
 10
0.0
 20
0.0
 30
0.0
  3
*D6
  1

  0
LINE
  5
286
  8
SIZE
  6
CONTINUOUS
 10
-112.0
 20
217.0
 30
0.0
 11
-277.02334129032153
 21
217.0
 31
0.0
  0
LINE
  5
287
  8
SIZE
  6
CONTINUOUS
 10
-112.0
 20
-217.0
 30
0.0
 11
-277.0233412903217
 21
-216.99999999999989
 31
0.0
  0
LINE
  5
288
  8
SIZE
  6
CONTINUOUS
 10
-257.02334129032158
 20
217.0
 30
0.0
 11
-257.02334129032158
 21
-216.99999999999989
 31
0.0
  0
TEXT
  5
289
  8
SIZE
  6
CONTINUOUS
 10
-277.02334129032153
 20
-75.428571428571402
 30
0.0
 40
64.0
  1
434
 50
90.0
 41
0.9
  0
POINT
  5
28A
  8
DEFPOINTS
  6
CONTINUOUS
 62
     0
 10
-102.0
 20
217.0
 30
0.0
  0
POINT
  5
28B
  8
DEFPOINTS
  6
CONTINUOUS
 62
     0
 10
-102.0
 20
-217.0
 30
0.0
  0
POINT
  5
28C
  8
DEFPOINTS
  6
CONTINUOUS
 62
     0
 10
-257.02334129032158
 20
-216.99999999999989
 30
0.0
  0
ENDBLK
  5
28D
  8
0
 62
    30
  0
ENDSEC
  0
SECTION
  2
ENTITIES
  0
POINT
  5
28E
  8
ARRANGE
  6
CONTINUOUS
 62
     1
 10
0.0
 20
0.0
 30
0.0
 39
50.0
  0
CIRCLE
  5
28F
  8
ARRANGE
  6
CONTINUOUS
 62
     1
 39
50.0
 10
0.0
 20
0.0
 30
0.0
 40
40.0
  0
LINE
  5
290
  8
NOTE
  6
CONTINUOUS
 62
     4
 10
-62.0
 20
217.0
 30
0.0
 11
-102.0
 21
217.0
 31
0.0
  0
LINE
  5
291
  8
NOTE
  6
CONTINUOUS
 62
     4
 10
-82.0
 20
237.0
 30
0.0
 11
-82.0
 21
197.0
 31
0.0
  0
LINE
  5
292
  8
NOTE
  6
CONTINUOUS
 62
     4
 10
54.0
 20
217.5
 30
0.0
 11
14.0
 21
217.5
 31
0.0
  0
LINE
  5
293
  8
NOTE
  6
CONTINUOUS
 62
     4
 10
34.0
 20
237.5
 30
0.0
 11
34.0
 21
197.5
 31
0.0
  0
LINE
  5
294
  8
NOTE
  6
CONTINUOUS
 62
     4
 10
20.0
 20
-257.0
 30
0.0
 11
-20.0
 21
-257.0
 31
0.0
  0
LINE
  5
295
  8
NOTE
  6
CONTINUOUS
 62
     4
 10
0.0
 20
-237.0
 30
0.0
 11
0.0
 21
-277.0
 31
0.0
  0
LINE
  5
296
  8
NOTE
  6
CONTINUOUS
 62
     4
 10
-118.15262300000001
 20
-234.11688799999999
 30
0.0
 11
-82.0
 21
-217.0
 31
0.0
  0
LINE
  5
297
  8
NOTE
  6
CONTINUOUS
 62
     4
 10
-82.0
 20
-217.0
 30
0.0
 11
-104.750646
 21
-249.89997099999991
 31
0.0
  0
LINE
  5
298
  8
NOTE
  6
CONTINUOUS
 62
     4
 10
14.565039999999991
 20
-294.25398799999982
 30
0.0
 11
0.0
 21
-257.0
 31
0.0
  0
LINE
  5
299
  8
NOTE
  6
CONTINUOUS
 62
     4
 10
0.0
 20
-257.0
 30
0.0
 11
31.240689
 21
-281.98037900000003
 31
0.0
  0
TEXT
  5
29A
  8
NOTE
  6
CONTINUOUS
 62
     4
 10
110.719205
 20
-383.99424699999997
 30
0.0
 40
64.0
  1
4×φ16取付穴
 41
0.9
  0
TEXT
  5
29B
  8
NOTE
  6
CONTINUOUS
 62
     4
 10
-676.83093580895854
 20
-332.02195000592133
 30
0.0
 40
64.0
  1
4×M8ボルト
 41
0.9
  0
LINE
  5
29C
  8
NOTE
  6
CONTINUOUS
 62
     4
 39
50.0
 10
-250.4669279999998
 20
-351.59492499999982
 30
0.0
 11
-82.0
 21
-217.0
 31
0.0
  0
LINE
  5
29D
  8
NOTE
  6
CONTINUOUS
 62
     4
 39
50.0
 10
84.498430999999982
 20
-398.65992999999992
 30
0.0
 11
0.0
 21
-257.0
 31
0.0
  0
LINE
  5
29E
  8
NOTE
  6
CONTINUOUS
 62
     4
 10
-102.0
 20
-217.0
 30
0.0
 11
-62.0
 21
-217.0
 31
0.0
  0
LINE
  5
29F
  8
NOTE
  6
CONTINUOUS
 62
     4
 10
-82.0
 20
-237.0
 30
0.0
 11
-82.0
 21
-197.0
 31
0.0
  0
LINE
  5
2A0
  8
NOTE
  6
CONTINUOUS
 62
     4
 10
-20.0
 20
257.0
 30
0.0
 11
20.0
 21
257.0
 31
0.0
  0
LINE
  5
2A1
  8
NOTE
  6
CONTINUOUS
 62
     4
 10
0.0
 20
237.0
 30
0.0
 11
0.0
 21
277.0
 31
0.0
  0
LINE
  5
2A2
  8
BASIS
  6
DASHDOT
 62
     6
 39
50.0
 10
-146.23577900000001
 20
0.0
 30
0.0
 11
83.009201000000004
 21
0.0
 31
0.0
  0
LINE
  5
2A3
  8
DETAIL
  6
CONTINUOUS
 62
     5
 39
50.0
 10
0.0
 20
272.0
 30
0.0
 11
0.0
 21
-272.0
 31
0.0
  0
LINE
  5
2A4
  8
DETAIL
  6
CONTINUOUS
 62
     5
 39
50.0
 10
0.0
 20
234.5
 30
0.0
 11
11.0
 21
234.5
 31
0.0
  0
LINE
  5
2A5
  8
DETAIL
  6
CONTINUOUS
 62
     5
 39
50.0
 10
0.0
 20
-234.5
 30
0.0
 11
11.0
 21
-234.5
 31
0.0
  0
LINE
  5
2A6
  8
DETAIL
  6
CONTINUOUS
 62
     5
 39
50.0
 10
11.0
 20
-234.5
 30
0.0
 11
11.0
 21
234.5
 31
0.0
  0
LINE
  5
2A7
  8
DETAIL
  6
CONTINUOUS
 62
     5
 39
50.0
 10
11.0
 20
213.5
 30
0.0
 11
34.0
 21
213.5
 31
0.0
  0
LINE
  5
2A8
  8
DETAIL
  6
CONTINUOUS
 62
     5
 39
50.0
 10
34.0
 20
213.5
 30
0.0
 11
34.0
 21
221.4999999999998
 31
0.0
  0
LINE
  5
2A9
  8
DETAIL
  6
CONTINUOUS
 62
     5
 39
50.0
 10
34.0
 20
221.4999999999998
 30
0.0
 11
11.0
 21
221.4999999999998
 31
0.0
  0
LINE
  5
2AA
  8
DETAIL
  6
CONTINUOUS
 62
     5
 39
50.0
 10
34.0
 20
-213.5
 30
0.0
 11
11.0
 21
-213.5
 31
0.0
  0
LINE
  5
2AB
  8
DETAIL
  6
CONTINUOUS
 62
     5
 39
50.0
 10
34.0
 20
-221.4999999999998
 30
0.0
 11
34.0
 21
-213.5
 31
0.0
  0
LINE
  5
2AC
  8
DETAIL
  6
CONTINUOUS
 62
     5
 39
50.0
 10
11.0
 20
-221.4999999999998
 30
0.0
 11
34.0
 21
-221.4999999999998
 31
0.0
  0
LINE
  5
2AD
  8
NOTE
  6
CONTINUOUS
 62
     4
 10
54.0
 20
-217.5
 30
0.0
 11
14.0
 21
-217.5
 31
0.0
  0
LINE
  5
2AE
  8
NOTE
  6
CONTINUOUS
 62
     4
 10
34.0
 20
-197.5
 30
0.0
 11
34.0
 21
-237.5
 31
0.0
  0
CIRCLE
  5
2AF
  8
FIX
  6
CONTINUOUS
 62
    11
 39
50.0
 10
0.0
 20
-257.0
 30
0.0
 40
8.0
  0
CIRCLE
  5
2B0
  8
FIX
  6
CONTINUOUS
 62
    11
 39
50.0
 10
0.0
 20
257.0
 30
0.0
 40
8.0
  0
LINE
  5
2B1
  8
DETAIL
  6
CONTINUOUS
 62
     5
 39
50.0
 10
-60.0
 20
203.0
 30
0.0
 11
-60.0
 21
-203.0
 31
0.0
  0
LINE
  5
2B2
  8
DETAIL
  6
CONTINUOUS
 62
     5
 39
50.0
 10
-60.0
 20
-227.49999999999989
 30
0.0
 11
0.0
 21
-227.49999999999989
 31
0.0
  0
LINE
  5
2B3
  8
DETAIL
  6
CONTINUOUS
 62
     5
 39
50.0
 10
-59.0
 20
227.49999999999989
 30
0.0
 11
0.0
 21
227.49999999999989
 31
0.0
  0
LINE
  5
2B4
  8
DETAIL
  6
CONTINUOUS
 62
     5
 39
50.0
 10
-59.0
 20
203.0
 30
0.0
 11
-59.0
 21
227.49999999999989
 31
0.0
  0
LINE
  5
2B5
  8
DETAIL
  6
CONTINUOUS
 62
     5
 39
50.0
 10
-59.0
 20
203.0
 30
0.0
 11
-60.0
 21
203.0
 31
0.0
  0
LINE
  5
2B6
  8
DETAIL
  6
CONTINUOUS
 62
     5
 39
50.0
 10
-59.5
 20
203.0
 30
0.0
 11
-59.5
 21
227.49999999999989
 31
0.0
  0
LINE
  5
2B7
  8
DETAIL
  6
CONTINUOUS
 62
     5
 39
50.0
 10
-59.5
 20
213.0
 30
0.0
 11
-82.0
 21
213.0
 31
0.0
  0
LINE
  5
2B8
  8
DETAIL
  6
CONTINUOUS
 62
     5
 39
50.0
 10
-82.0
 20
213.0
 30
0.0
 11
-82.0
 21
220.99999999999989
 31
0.0
  0
LINE
  5
2B9
  8
DETAIL
  6
CONTINUOUS
 62
     5
 39
50.0
 10
-60.0
 20
213.5
 30
0.0
 11
-60.0
 21
227.49999999999989
 31
0.0
  0
LINE
  5
2BA
  8
DETAIL
  6
CONTINUOUS
 62
     5
 39
50.0
 10
-60.0
 20
227.49999999999989
 30
0.0
 11
-59.0
 21
227.49999999999989
 31
0.0
  0
LINE
  5
2BB
  8
DETAIL
  6
CONTINUOUS
 62
     5
 39
50.0
 10
-60.0
 20
220.99999999999989
 30
0.0
 11
-82.0
 21
220.99999999999989
 31
0.0
  0
LINE
  5
2BC
  8
DETAIL
  6
CONTINUOUS
 62
     5
 39
50.0
 10
-59.5
 20
-213.0
 30
0.0
 11
-82.0
 21
-213.0
 31
0.0
  0
LINE
  5
2BD
  8
DETAIL
  6
CONTINUOUS
 62
     5
 39
50.0
 10
-60.0
 20
-220.99999999999989
 30
0.0
 11
-82.0
 21
-220.99999999999989
 31
0.0
  0
LINE
  5
2BE
  8
DETAIL
  6
CONTINUOUS
 62
     5
 39
50.0
 10
-82.0
 20
-220.99999999999989
 30
0.0
 11
-82.0
 21
-213.0
 31
0.0
  0
LINE
  5
2BF
  8
DETAIL
  6
CONTINUOUS
 62
     5
 39
50.0
 10
-59.0
 20
-227.49999999999989
 30
0.0
 11
-59.0
 21
-203.0
 31
0.0
  0
LINE
  5
2C0
  8
DETAIL
  6
CONTINUOUS
 62
     5
 39
50.0
 10
-59.0
 20
-203.0
 30
0.0
 11
-60.0
 21
-203.0
 31
0.0
  0
LINE
  5
2C1
  8
DETAIL
  6
CONTINUOUS
 62
     5
 39
50.0
 10
-59.5
 20
-203.0
 30
0.0
 11
-59.5
 21
-227.49999999999989
 31
0.0
  0
LINE
  5
2C2
  8
DETAIL
  6
CONTINUOUS
 62
     5
 39
50.0
 10
-60.0
 20
-213.5
 30
0.0
 11
-60.0
 21
-227.49999999999989
 31
0.0
  0
LINE
  5
2C3
  8
SIZE
  6
CONTINUOUS
 62
    30
 10
54.0
 20
217.5
 30
0.0
 11
228.9266979999999
 21
217.5
 31
0.0
  0
LINE
  5
2C4
  8
SIZE
  6
CONTINUOUS
 62
    30
 10
54.0
 20
-217.5
 30
0.0
 11
228.9266979999999
 21
-217.5
 31
0.0
  0
LINE
  5
2C5
  8
SIZE
  6
CONTINUOUS
 62
    30
 10
208.92669799999999
 20
205.5
 30
0.0
 11
208.92669799999999
 21
-205.5
 31
0.0
  0
CIRCLE
  5
2C6
  8
SIZE
  6
CONTINUOUS
 62
    30
 10
208.92669799999999
 20
217.5
 30
0.0
 40
6.0
  0
LINE
  5
2C7
  8
SIZE
  6
CONTINUOUS
 62
    30
 10
208.92669799999999
 20
217.5
 30
0.0
 11
208.92669799999999
 21
205.5
 31
0.0
  0
CIRCLE
  5
2C8
  8
SIZE
  6
CONTINUOUS
 62
    30
 10
208.92669799999999
 20
-217.5
 30
0.0
 40
6.0
  0
LINE
  5
2C9
  8
SIZE
  6
CONTINUOUS
 62
    30
 10
208.92669799999999
 20
-217.5
 30
0.0
 11
208.92669799999999
 21
-205.5
 31
0.0
  0
TEXT
  5
2CA
  8
SIZE
  6
CONTINUOUS
 62
    30
 10
183.9266979999999
 20
-74.05714285714285
 30
0.0
 40
64.0
  1
435
 50
90.0
 41
0.9
 72
     1
 11
183.9266979999999
 21
0.0
 31
0.0
  0
LINE
  5
2CB
  8
SIZE
  6
CONTINUOUS
 62
    30
 10
20.0
 20
257.0
 30
0.0
 11
373.72405800000001
 21
257.0
 31
0.0
  0
LINE
  5
2CC
  8
SIZE
  6
CONTINUOUS
 62
    30
 10
20.0
 20
-257.0
 30
0.0
 11
373.72405800000001
 21
-257.0
 31
0.0
  0
LINE
  5
2CD
  8
SIZE
  6
CONTINUOUS
 62
    30
 10
353.72405800000001
 20
245.0
 30
0.0
 11
353.72405800000001
 21
-245.0
 31
0.0
  0
CIRCLE
  5
2CE
  8
SIZE
  6
CONTINUOUS
 62
    30
 10
353.72405800000001
 20
257.0
 30
0.0
 40
6.0
  0
LINE
  5
2CF
  8
SIZE
  6
CONTINUOUS
 62
    30
 10
353.72405800000001
 20
257.0
 30
0.0
 11
353.72405800000001
 21
245.0
 31
0.0
  0
CIRCLE
  5
2D0
  8
SIZE
  6
CONTINUOUS
 62
    30
 10
353.72405800000001
 20
-257.0
 30
0.0
 40
6.0
  0
LINE
  5
2D1
  8
SIZE
  6
CONTINUOUS
 62
    30
 10
353.72405800000001
 20
-257.0
 30
0.0
 11
353.72405800000001
 21
-245.0
 31
0.0
  0
TEXT
  5
2D2
  8
SIZE
  6
CONTINUOUS
 62
    30
 10
328.72405800000001
 20
-69.942857142857122
 30
0.0
 40
64.0
  1
514
 50
90.0
 41
0.9
 72
     1
 11
328.72405800000001
 21
0.0
 31
0.0
  0
LINE
  5
2D3
  8
SIZE
  6
CONTINUOUS
 62
    30
 10
20.0
 20
272.0
 30
0.0
 11
508.92429199999998
 21
272.0
 31
0.0
  0
LINE
  5
2D4
  8
SIZE
  6
CONTINUOUS
 62
    30
 10
20.0
 20
-272.0
 30
0.0
 11
508.92429199999998
 21
-272.0
 31
0.0
  0
LINE
  5
2D5
  8
SIZE
  6
CONTINUOUS
 62
    30
 10
488.92429199999998
 20
260.0
 30
0.0
 11
488.92429199999998
 21
-260.0
 31
0.0
  0
CIRCLE
  5
2D6
  8
SIZE
  6
CONTINUOUS
 62
    30
 10
488.92429199999998
 20
272.0
 30
0.0
 40
6.0
  0
LINE
  5
2D7
  8
SIZE
  6
CONTINUOUS
 62
    30
 10
488.92429199999998
 20
272.0
 30
0.0
 11
488.92429199999998
 21
260.0
 31
0.0
  0
CIRCLE
  5
2D8
  8
SIZE
  6
CONTINUOUS
 62
    30
 10
488.92429199999998
 20
-272.0
 30
0.0
 40
6.0
  0
LINE
  5
2D9
  8
SIZE
  6
CONTINUOUS
 62
    30
 10
488.92429199999998
 20
-272.0
 30
0.0
 11
488.92429199999998
 21
-260.0
 31
0.0
  0
TEXT
  5
2DA
  8
SIZE
  6
CONTINUOUS
 62
    30
 10
463.92429199999998
 20
-75.428571428571416
 30
0.0
 40
64.0
  1
544
 50
90.0
 41
0.9
 72
     1
 11
463.92429199999998
 21
0.0
 31
0.0
  0
LINE
  5
2DB
  8
SIZE
  6
CONTINUOUS
 62
    30
 10
11.0
 20
241.5
 30
0.0
 11
11.0
 21
423.57259599999992
 31
0.0
  0
LINE
  5
2DC
  8
SIZE
  6
CONTINUOUS
 62
    30
 10
34.0
 20
241.5
 30
0.0
 11
34.0
 21
423.57259599999992
 31
0.0
  0
LINE
  5
2DD
  8
SIZE
  6
CONTINUOUS
 62
    30
 10
-1.0
 20
403.57259599999981
 30
0.0
 11
-13.0
 21
403.57259599999981
 31
0.0
  0
LINE
  5
2DE
  8
SIZE
  6
CONTINUOUS
 62
    30
 10
46.0
 20
403.57259599999981
 30
0.0
 11
201.2571429999999
 21
403.57259599999981
 31
0.0
  0
LINE
  5
2DF
  8
SIZE
  6
CONTINUOUS
 62
    30
 10
11.0
 20
403.57259599999981
 30
0.0
 11
34.0
 21
403.57259599999981
 31
0.0
  0
CIRCLE
  5
2E0
  8
SIZE
  6
CONTINUOUS
 62
    30
 10
11.0
 20
403.57259599999981
 30
0.0
 40
6.0
  0
LINE
  5
2E1
  8
SIZE
  6
CONTINUOUS
 62
    30
 10
11.0
 20
403.57259599999981
 30
0.0
 11
-1.0
 21
403.57259599999981
 31
0.0
  0
CIRCLE
  5
2E2
  8
SIZE
  6
CONTINUOUS
 62
    30
 10
34.0
 20
403.57259599999981
 30
0.0
 40
6.0
  0
LINE
  5
2E3
  8
SIZE
  6
CONTINUOUS
 62
    30
 10
34.0
 20
403.57259599999981
 30
0.0
 11
46.0
 21
403.57259599999981
 31
0.0
  0
TEXT
  5
2E4
  8
SIZE
  6
CONTINUOUS
 62
    30
 10
82.999999571428575
 20
428.57259599999992
 30
0.0
 40
64.0
  1
23
 41
0.9
 72
     1
 11
129.62857099999999
 21
428.57259599999992
 31
0.0
  0
LINE
  5
2E5
  8
SIZE
  6
CONTINUOUS
 62
    30
 10
0.0
 20
254.49999999999989
 30
0.0
 11
0.0
 21
423.25137599999988
 31
0.0
  0
LINE
  5
2E6
  8
SIZE
  6
CONTINUOUS
 62
    30
 10
11.0
 20
254.49999999999989
 30
0.0
 11
11.0
 21
423.25137599999988
 31
0.0
  0
LINE
  5
2E7
  8
SIZE
  6
CONTINUOUS
 62
    30
 10
23.0
 20
403.25137599999988
 30
0.0
 11
35.0
 21
403.25137599999988
 31
0.0
  0
LINE
  5
2E8
  8
SIZE
  6
CONTINUOUS
 62
    30
 10
-12.0
 20
403.25137599999988
 30
0.0
 11
-227.757485
 21
403.25137599999988
 31
0.0
  0
LINE
  5
2E9
  8
SIZE
  6
CONTINUOUS
 62
    30
 10
11.0
 20
403.25137599999988
 30
0.0
 11
0.0
 21
403.25137599999988
 31
0.0
  0
CIRCLE
  5
2EA
  8
SIZE
  6
CONTINUOUS
 62
    30
 10
11.0
 20
403.25137599999988
 30
0.0
 40
6.0
  0
LINE
  5
2EB
  8
SIZE
  6
CONTINUOUS
 62
    30
 10
11.0
 20
403.25137599999988
 30
0.0
 11
23.0
 21
403.25137599999988
 31
0.0
  0
CIRCLE
  5
2EC
  8
SIZE
  6
CONTINUOUS
 62
    30
 10
0.0
 20
403.25137599999988
 30
0.0
 40
6.0
  0
LINE
  5
2ED
  8
SIZE
  6
CONTINUOUS
 62
    30
 10
0.0
 20
403.25137599999988
 30
0.0
 11
-12.0
 21
403.25137599999988
 31
0.0
  0
TEXT
  5
2EE
  8
SIZE
  6
CONTINUOUS
 62
    30
 10
-202.75748499999989
 20
428.25137599999988
 30
0.0
 40
64.0
  1
11
 41
0.9
 72
     1
 11
-173.95748499999991
 21
428.25137599999988
 31
0.0
  0
LINE
  5
2EF
  8
SIZE
  6
CONTINUOUS
 62
    30
 10
0.0
 20
247.5
 30
0.0
 11
0.0
 21
594.01093899999989
 31
0.0
  0
LINE
  5
2F0
  8
SIZE
  6
CONTINUOUS
 62
    30
 10
-60.0
 20
247.5
 30
0.0
 11
-60.0
 21
594.01093899999989
 31
0.0
  0
LINE
  5
2F1
  8
SIZE
  6
CONTINUOUS
 62
    30
 10
-72.0
 20
574.01093899999967
 30
0.0
 11
-84.0
 21
574.01093899999967
 31
0.0
  0
LINE
  5
2F2
  8
SIZE
  6
CONTINUOUS
 62
    30
 10
12.0
 20
574.01093899999967
 30
0.0
 11
167.25714299999979
 21
574.01093899999967
 31
0.0
  0
LINE
  5
2F3
  8
SIZE
  6
CONTINUOUS
 62
    30
 10
-60.0
 20
574.01093899999967
 30
0.0
 11
0.0
 21
574.01093899999967
 31
0.0
  0
CIRCLE
  5
2F4
  8
SIZE
  6
CONTINUOUS
 62
    30
 10
-60.0
 20
574.01093899999967
 30
0.0
 40
6.0
  0
LINE
  5
2F5
  8
SIZE
  6
CONTINUOUS
 62
    30
 10
-60.0
 20
574.01093899999967
 30
0.0
 11
-72.0
 21
574.01093899999967
 31
0.0
  0
CIRCLE
  5
2F6
  8
SIZE
  6
CONTINUOUS
 62
    30
 10
0.0
 20
574.01093899999967
 30
0.0
 40
6.0
  0
LINE
  5
2F7
  8
SIZE
  6
CONTINUOUS
 62
    30
 10
0.0
 20
574.01093899999967
 30
0.0
 11
12.0
 21
574.01093899999967
 31
0.0
  0
TEXT
  5
2F8
  8
SIZE
  6
CONTINUOUS
 62
    30
 10
48.999999571428567
 20
599.01093900000001
 30
0.0
 40
64.0
  1
60
 41
0.9
 72
     1
 11
95.628570999999994
 21
599.01093900000001
 31
0.0
  0
LINE
  5
2F9
  8
SIZE
  6
CONTINUOUS
 62
    30
 10
-82.0
 20
241.5
 30
0.0
 11
-82.0
 21
594.01093899999989
 31
0.0
  0
LINE
  5
2FA
  8
SIZE
  6
CONTINUOUS
 62
    30
 10
-60.0
 20
241.5
 30
0.0
 11
-60.0
 21
594.01093899999989
 31
0.0
  0
LINE
  5
2FB
  8
SIZE
  6
CONTINUOUS
 62
    30
 10
-48.0
 20
574.01093899999967
 30
0.0
 11
-36.0
 21
574.01093899999967
 31
0.0
  0
LINE
  5
2FC
  8
SIZE
  6
CONTINUOUS
 62
    30
 10
-94.0
 20
574.01093899999967
 30
0.0
 11
-249.25714300000001
 21
574.01093899999967
 31
0.0
  0
LINE
  5
2FD
  8
SIZE
  6
CONTINUOUS
 62
    30
 10
-60.0
 20
574.01093899999967
 30
0.0
 11
-82.0
 21
574.01093899999967
 31
0.0
  0
CIRCLE
  5
2FE
  8
SIZE
  6
CONTINUOUS
 62
    30
 10
-60.0
 20
574.01093899999967
 30
0.0
 40
6.0
  0
LINE
  5
2FF
  8
SIZE
  6
CONTINUOUS
 62
    30
 10
-60.0
 20
574.01093899999967
 30
0.0
 11
-48.0
 21
574.01093899999967
 31
0.0
  0
CIRCLE
  5
300
  8
SIZE
  6
CONTINUOUS
 62
    30
 10
-82.0
 20
574.01093899999967
 30
0.0
 40
6.0
  0
LINE
  5
301
  8
SIZE
  6
CONTINUOUS
 62
    30
 10
-82.0
 20
574.01093899999967
 30
0.0
 11
-94.0
 21
574.01093899999967
 31
0.0
  0
TEXT
  5
302
  8
SIZE
  6
CONTINUOUS
 62
    30
 10
-224.25714242857131
 20
599.01093900000001
 30
0.0
 40
64.0
  1
22
 41
0.9
 72
     1
 11
-177.62857099999991
 21
599.01093900000001
 31
0.0
  0
LINE
  5
303
  8
SIZE
  6
CONTINUOUS
 62
    30
 10
-70.077331599367426
 20
227.49999999999989
 30
0.0
 11
-424.1283194393921
 21
227.49999999999989
 31
0.0
  0
LINE
  5
304
  8
SIZE
  6
CONTINUOUS
 62
    30
 10
-70.077331599367426
 20
-227.49999999999989
 30
0.0
 11
-425.66139163043403
 21
-227.49999999999989
 31
0.0
  0
LINE
  5
305
  8
SIZE
  6
CONTINUOUS
 62
    30
 10
-399.59914756341362
 20
215.5
 30
0.0
 11
-399.59914756341362
 21
-215.5
 31
0.0
  0
CIRCLE
  5
306
  8
SIZE
  6
CONTINUOUS
 62
    30
 10
-399.59914756341362
 20
227.49999999999989
 30
0.0
 40
6.0
  0
LINE
  5
307
  8
SIZE
  6
CONTINUOUS
 62
    30
 10
-399.59914756341362
 20
227.49999999999989
 30
0.0
 11
-399.59914756341362
 21
215.5
 31
0.0
  0
CIRCLE
  5
308
  8
SIZE
  6
CONTINUOUS
 62
    30
 10
-399.59914756341362
 20
-227.49999999999989
 30
0.0
 40
6.0
  0
LINE
  5
309
  8
SIZE
  6
CONTINUOUS
 62
    30
 10
-399.59914756341362
 20
-227.49999999999989
 30
0.0
 11
-399.59914756341362
 21
-215.5
 31
0.0
  0
TEXT
  5
30A
  8
SIZE
  6
CONTINUOUS
 62
    30
 10
-441.3610515634137
 20
-180.20571428571421
 30
0.0
 40
64.0
  1
455(外寸)
 50
90.0
 41
0.9
 72
     1
 11
-441.3610515634137
 21
0.0
 31
0.0
  0
LINE
  5
30B
  8
NOTE
  6
CONTINUOUS
 62
     4
 39
50.0
 10
-250.4669279999998
 20
-352.09492499999999
 30
0.0
 11
-690.95618100000002
 21
-352.09492499999999
 31
0.0
  0
LINE
  5
30C
  8
NOTE
  6
CONTINUOUS
 62
     4
 39
50.0
 10
575.15989100000002
 20
-398.65992999999992
 30
0.0
 11
90.202302000000003
 21
-398.65992999999992
 31
0.0
  0
LINE
  5
30D
  8
OUTLINE
  6
CONTINUOUS
 62
     3
 39
50.0
 10
-59.0
 20
227.49999999999989
 30
0.0
 11
0.0
 21
227.49999999999989
 31
0.0
  0
LINE
  5
30E
  8
OUTLINE
  6
CONTINUOUS
 62
     3
 39
50.0
 10
-59.0
 20
-227.49999999999989
 30
0.0
 11
0.0
 21
-227.49999999999989
 31
0.0
  0
LINE
  5
30F
  8
OUTLINE
  6
CONTINUOUS
 62
     3
 39
50.0
 10
0.0
 20
272.0
 30
0.0
 11
0.0
 21
-272.0
 31
0.0
  0
LINE
  5
310
  8
OUTLINE
  6
CONTINUOUS
 62
     3
 39
50.0
 10
11.0
 20
-234.5
 30
0.0
 11
11.0
 21
234.5
 31
0.0
  0
LINE
  5
311
  8
OUTLINE
  6
CONTINUOUS
 62
     3
 39
50.0
 10
0.0
 20
-234.5
 30
0.0
 11
11.0
 21
-234.5
 31
0.0
  0
LINE
  5
312
  8
OUTLINE
  6
CONTINUOUS
 62
     3
 39
50.0
 10
0.0
 20
234.5
 30
0.0
 11
11.0
 21
234.5
 31
0.0
  0
LINE
  5
313
  8
OUTLINE
  6
CONTINUOUS
 62
     3
 39
50.0
 10
-60.0
 20
203.0
 30
0.0
 11
-60.0
 21
-203.0
 31
0.0
  0
LINE
  5
314
  8
OUTLINE
  6
CONTINUOUS
 62
     3
 39
50.0
 10
-59.0
 20
-227.49999999999989
 30
0.0
 11
-59.0
 21
-203.0
 31
0.0
  0
LINE
  5
315
  8
OUTLINE
  6
CONTINUOUS
 62
     3
 39
50.0
 10
-59.0
 20
-203.0
 30
0.0
 11
-60.0
 21
-203.0
 31
0.0
  0
LINE
  5
316
  8
OUTLINE
  6
CONTINUOUS
 62
     3
 39
50.0
 10
-59.0
 20
203.0
 30
0.0
 11
-59.0
 21
227.49999999999989
 31
0.0
  0
LINE
  5
317
  8
OUTLINE
  6
CONTINUOUS
 62
     3
 39
50.0
 10
-59.0
 20
203.0
 30
0.0
 11
-60.0
 21
203.0
 31
0.0
  0
TEXT
  5
318
  8
ETC
  6
CONTINUOUS
 62
    61
 10
360.90259957728171
 20
555.09494705322595
 30
0.0
 40
50.0
  1
システム部材
 41
0.9
  0
TEXT
  5
319
  8
ETC
  6
CONTINUOUS
 62
    61
 10
365.31546057728173
 20
621.8823640532263
 30
0.0
 40
50.0
  1
PS-35UW3_5
 41
0.9
  0
TEXT
  5
31A
  8
ETC
  6
CONTINUOUS
 62
    61
 10
462.82199586299191
 20
502.94595737440869
 30
0.0
 40
40.0
  1
PS-35UW3
 41
0.9
  0
TEXT
  5
31B
  8
NOTE
  6
CONTINUOUS
 62
     4
 10
253.4900428400378
 20
340.58809726590198
 30
0.0
 40
64.0
  1
4×M8ボルト
 41
0.9
  0
CIRCLE
  5
31C
  8
SIZE
  6
CONTINUOUS
 62
    30
 39
50.0
 10
-257.02334129032158
 20
217.0
 30
0.0
 40
6.0
  0
CIRCLE
  5
31D
  8
SIZE
  6
CONTINUOUS
 62
    30
 39
50.0
 10
-257.02334129032158
 20
-216.99999999999989
 30
0.0
 40
6.0
  0
LINE
  5
31E
  8
SIZE
  6
CONTINUOUS
 10
-112.0
 20
217.0
 30
0.0
 11
-277.02334129032153
 21
217.0
 31
0.0
  0
LINE
  5
31F
  8
SIZE
  6
CONTINUOUS
 10
-112.0
 20
-217.0
 30
0.0
 11
-277.0233412903217
 21
-216.99999999999989
 31
0.0
  0
LINE
  5
320
  8
SIZE
  6
CONTINUOUS
 10
-257.02334129032158
 20
217.0
 30
0.0
 11
-257.02334129032158
 21
-216.99999999999989
 31
0.0
  0
TEXT
  5
321
  8
SIZE
  6
CONTINUOUS
 10
-277.02334129032153
 20
-75.428571428571402
 30
0.0
 40
64.0
  1
434
 50
90.0
 41
0.9
  0
LINE
  5
322
  8
NOTE
  6
CONTINUOUS
 62
     4
 10
68.767295732340756
 20
237.27966499867881
 30
0.0
 11
219.37916374522121
 21
322.96514128807797
 31
0.0
1001
ACAD
1000
DSTYLE
1002
{
1070
    41
1040
40.0
1070
    42
1040
10.0
1070
    43
1040
200.0
1070
    44
1040
20.0
1070
    73
1070
     0
1070
    74
1070
     0
1070
    77
1070
     0
1070
    78
1070
     8
1070
   140
1040
64.0
1070
   147
1040
20.0
1070
   172
1070
     1
1070
   174
1070
     1
1070
   176
1070
   256
1070
   177
1070
   256
1070
   178
1070
   256
1070
   275
1070
     0
1070
   279
1070
     0
1070
   284
1070
     0
1070
   285
1070
     0
1070
   286
1070
     0
1070
   341
1005
1C6
1070
   342
1005
1C3
1070
   343
1005
1C3
1070
   344
1005
130
1002
}
  0
LINE
  5
323
  8
NOTE
  6
CONTINUOUS
 62
     4
 10
219.37916374522121
 20
322.96514128807797
 30
0.0
 11
702.68049364045226
 21
322.96514128807797
 31
0.0
1001
ACAD
1000
DSTYLE
1002
{
1070
    41
1040
40.0
1070
    42
1040
10.0
1070
    43
1040
200.0
1070
    44
1040
20.0
1070
    73
1070
     0
1070
    74
1070
     0
1070
    77
1070
     0
1070
    78
1070
     8
1070
   140
1040
64.0
1070
   147
1040
20.0
1070
   172
1070
     1
1070
   174
1070
     1
1070
   176
1070
   256
1070
   177
1070
   256
1070
   178
1070
   256
1070
   275
1070
     0
1070
   279
1070
     0
1070
   284
1070
     0
1070
   285
1070
     0
1070
   286
1070
     0
1070
   341
1005
1C6
1070
   342
1005
1C3
1070
   343
1005
1C3
1070
   344
1005
130
1002
}
  0
LINE
  5
324
  8
NOTE
  6
BYBLOCK
 62
     4
 10
74.067240947208091
 20
227.96379626870751
 30
0.0
 11
34.0
 21
217.5
 31
0.0
  0
LINE
  5
325
  8
NOTE
  6
BYBLOCK
 62
     4
 10
34.0
 20
217.5
 30
0.0
 11
63.467350517473399
 21
246.59553372865
 31
0.0
  0
LINE
  5
326
  8
NOTE
  6
BYBLOCK
 62
     4
 10
34.0
 20
217.5
 30
0.0
 11
68.767295732340756
 21
237.27966499867881
 31
0.0
  0
ENDSEC
  0
EOF
