  0
SECTION
  2
HEADER
  9
$ACADVER
  1
AC1009
  9
$INSBASE
 10
0.0
 20
0.0
 30
0.0
  9
$EXTMIN
 10
-628.76498000000015
 20
-508.92429199999998
 30
0.0
  9
$EXTMAX
 10
881.44098799999949
 20
582.64715733097455
 30
50.0
  9
$LIMMIN
 10
-2970.0
 20
-2100.0
  9
$LIMMAX
 10
2970.0
 20
2100.0
  9
$ORTHOMODE
 70
     1
  9
$REGENMODE
 70
     1
  9
$FILLMODE
 70
     1
  9
$QTEXTMODE
 70
     0
  9
$MIRRTEXT
 70
     0
  9
$DRAGMODE
 70
     2
  9
$LTSCALE
 40
20.0
  9
$OSMODE
 70
   167
  9
$ATTMODE
 70
     1
  9
$TEXTSIZE
 40
64.0
  9
$TRACEWID
 40
0.05
  9
$TEXTSTYLE
  7
STANDARD
  9
$CLAYER
  8
NOTE
  9
$CELTYPE
  6
CONTINUOUS
  9
$CECOLOR
 62
     4
  9
$DIMSCALE
 40
1.0
  9
$DIMASZ
 40
40.0
  9
$DIMEXO
 40
10.0
  9
$DIMDLI
 40
200.0
  9
$DIMRND
 40
0.0
  9
$DIMDLE
 40
0.0
  9
$DIMEXE
 40
20.0
  9
$DIMTP
 40
0.0
  9
$DIMTM
 40
0.0
  9
$DIMTXT
 40
64.0
  9
$DIMCEN
 40
0.09
  9
$DIMTSZ
 40
0.0
  9
$DIMTOL
 70
     0
  9
$DIMLIM
 70
     0
  9
$DIMTIH
 70
     0
  9
$DIMTOH
 70
     0
  9
$DIMSE1
 70
     0
  9
$DIMSE2
 70
     0
  9
$DIMTAD
 70
     1
  9
$DIMZIN
 70
     8
  9
$DIMBLK
  1
NONE
  9
$DIMASO
 70
     1
  9
$DIMSHO
 70
     0
  9
$DIMPOST
  1

  9
$DIMAPOST
  1

  9
$DIMALT
 70
     0
  9
$DIMALTD
 70
     2
  9
$DIMALTF
 40
25.399999999999999
  9
$DIMLFAC
 40
1.0
  9
$DIMTOFL
 70
     1
  9
$DIMTVP
 40
0.0
  9
$DIMTIX
 70
     1
  9
$DIMSOXD
 70
     0
  9
$DIMSAH
 70
     0
  9
$DIMBLK1
  1
NONE
  9
$DIMBLK2
  1
ORIGIN
  9
$DIMSTYLE
  2
STANDARD
  9
$DIMCLRD
 70
   256
  9
$DIMCLRE
 70
   256
  9
$DIMCLRT
 70
   256
  9
$DIMTFAC
 40
1.0
  9
$DIMGAP
 40
20.0
  9
$LUNITS
 70
     2
  9
$LUPREC
 70
     4
  9
$SKETCHINC
 40
0.1
  9
$FILLETRAD
 40
20.0
  9
$AUNITS
 70
     1
  9
$AUPREC
 70
     3
  9
$MENU
  1
ACAD
  9
$ELEVATION
 40
0.0
  9
$PELEVATION
 40
0.0
  9
$THICKNESS
 40
50.0
  9
$LIMCHECK
 70
     0
  9
$BLIPMODE
 70
     0
  9
$CHAMFERA
 40
0.0
  9
$CHAMFERB
 40
0.0
  9
$SKPOLY
 70
     0
  9
$TDCREATE
 40
2453019.6230103699
  9
$TDUPDATE
 40
2455147.610119896
  9
$TDINDWG
 40
0.4193138194
  9
$TDUSRTIMER
 40
0.4193134491
  9
$USRTIMER
 70
     1
  9
$ANGBASE
 50
0.0
  9
$ANGDIR
 70
     0
  9
$PDMODE
 70
     3
  9
$PDSIZE
 40
-2.0
  9
$PLINEWID
 40
0.0
  9
$COORDS
 70
     2
  9
$SPLFRAME
 70
     0
  9
$SPLINETYPE
 70
     6
  9
$SPLINESEGS
 70
     8
  9
$ATTDIA
 70
     0
  9
$ATTREQ
 70
     1
  9
$HANDLING
 70
 22529
  9
$HANDSEED
  5
22C
  9
$SURFTAB1
 70
     6
  9
$SURFTAB2
 70
     6
  9
$SURFTYPE
 70
     6
  9
$SURFU
 70
     6
  9
$SURFV
 70
     6
  9
$UCSNAME
  2

  9
$UCSORG
 10
0.0
 20
0.0
 30
0.0
  9
$UCSXDIR
 10
1.0
 20
0.0
 30
0.0
  9
$UCSYDIR
 10
0.0
 20
1.0
 30
0.0
  9
$PUCSNAME
  2

  9
$PUCSORG
 10
0.0
 20
0.0
 30
0.0
  9
$PUCSXDIR
 10
1.0
 20
0.0
 30
0.0
  9
$PUCSYDIR
 10
0.0
 20
1.0
 30
0.0
  9
$USERI1
 70
     0
  9
$USERI2
 70
     0
  9
$USERI3
 70
     0
  9
$USERI4
 70
     0
  9
$USERI5
 70
     0
  9
$USERR1
 40
20.0
  9
$USERR2
 40
0.0
  9
$USERR3
 40
0.0
  9
$USERR4
 40
0.0
  9
$USERR5
 40
0.0
  9
$WORLDVIEW
 70
     1
  9
$SHADEDGE
 70
     3
  9
$SHADEDIF
 70
    70
  9
$TILEMODE
 70
     1
  9
$MAXACTVP
 70
    48
  9
$PLIMCHECK
 70
     0
  9
$PEXTMIN
 10
-1.0000000000000000E+020
 20
-1.0000000000000000E+020
 30
-1.0000000000000000E+020
  9
$PEXTMAX
 10
1.0000000000000000E+020
 20
1.0000000000000000E+020
 30
1.0000000000000000E+020
  9
$PLIMMIN
 10
0.0
 20
0.0
  9
$PLIMMAX
 10
12.0
 20
9.0
  9
$UNITMODE
 70
     0
  9
$VISRETAIN
 70
     0
  9
$PLINEGEN
 70
     0
  9
$PSLTSCALE
 70
     0
  0
ENDSEC
  0
SECTION
  2
TABLES
  0
TABLE
  2
VPORT
 70
     4
  0
VPORT
  2
*ACTIVE
 70
     0
 10
0.0
 20
0.0
 11
1.0
 21
1.0
 12
126.3340069543537
 22
36.862787667284692
 13
0.0
 23
0.0
 14
1.0
 24
1.0
 15
0.0
 25
0.0
 16
0.0
 26
0.0
 36
1.0
 17
0.0
 27
0.0
 37
0.0
 40
1198.5108457223109
 41
1.493654822335025
 42
50.0
 43
0.0
 44
0.0
 50
0.0
 51
0.0
 71
     0
 72
  1000
 73
     1
 74
     0
 75
     0
 76
     0
 77
     0
 78
     0
  0
ENDTAB
  0
TABLE
  2
LTYPE
 70
     2
  0
LTYPE
  2
CONTINUOUS
 70
     0
  3
実線
 72
    65
 73
     0
 40
0.0
  0
LTYPE
  2
DASHDOT
 70
     0
  3
____ _ ____ _ ____ _ ____ _ ____ _ ____ _ ____
 72
    65
 73
     4
 40
5.5
 49
4.0
 49
-0.6
 49
0.3
 49
-0.6
  0
ENDTAB
  0
TABLE
  2
LAYER
 70
    12
  0
LAYER
  2
0
 70
     0
 62
     7
  6
CONTINUOUS
  0
LAYER
  2
SIZE
 70
     0
 62
    30
  6
CONTINUOUS
  0
LAYER
  2
BASIS
 70
     0
 62
     6
  6
DASHDOT
  0
LAYER
  2
OUTLINE
 70
     0
 62
     3
  6
CONTINUOUS
  0
LAYER
  2
DETAIL
 70
     0
 62
     5
  6
CONTINUOUS
  0
LAYER
  2
ARRANGE
 70
     0
 62
     1
  6
CONTINUOUS
  0
LAYER
  2
DEFPOINTS
 70
     0
 62
     7
  6
CONTINUOUS
  0
LAYER
  2
ETC
 70
     0
 62
    61
  6
CONTINUOUS
  0
LAYER
  2
FIX
 70
     0
 62
    11
  6
CONTINUOUS
  0
LAYER
  2
NOTE
 70
     0
 62
     4
  6
CONTINUOUS
  0
LAYER
  2
SERVICESPACE
 70
     0
 62
     2
  6
DASHDOT
  0
LAYER
  2
SYMBOLLINE
 70
     0
 62
    15
  6
CONTINUOUS
  0
ENDTAB
  0
TABLE
  2
STYLE
 70
     1
  0
STYLE
  2
STANDARD
 70
     0
 40
64.0
 41
0.9
 50
0.0
 71
     0
 42
64.0
  3
SIMPLEX.shx
  4
BIGFONT.shx
  0
ENDTAB
  0
TABLE
  2
VIEW
 70
     1
  0
VIEW
  2
ALL
 70
     0
 40
4282.6198079999976
 10
0.0
 20
41.309903999999989
 41
5940.0
 11
0.0
 21
0.0
 31
1.0
 12
0.0
 22
0.0
 32
0.0
 42
50.0
 43
0.0
 44
0.0
 50
0.0
 71
     0
  0
ENDTAB
  0
TABLE
  2
UCS
 70
     0
  0
ENDTAB
  0
TABLE
  2
APPID
 70
     2
  0
APPID
  2
ACAD
 70
     0
  0
APPID
  2
AUTOCAD_POSTSCRIPT_FIGURE
 70
     0
  0
ENDTAB
  0
TABLE
  2
DIMSTYLE
 70
     1
  0
DIMSTYLE
  2
STANDARD
 70
     0
  3

  4

  5

  6

  7

 40
1.0
 41
0.18
 42
0.0625
 43
0.38
 44
0.18
 45
0.0
 46
0.0
 47
0.0
 48
0.0
140
0.18
141
0.09
142
0.0
143
25.399999999999999
144
1.0
145
0.0
146
1.0
147
0.09
 71
     0
 72
     0
 73
     1
 74
     1
 75
     0
 76
     0
 77
     0
 78
     0
170
     0
171
     2
172
     0
173
     0
174
     0
175
     0
176
     7
177
     7
178
     7
  0
ENDTAB
  0
ENDSEC
  0
SECTION
  2
BLOCKS
  0
BLOCK
  8
0
  2
$MODEL_SPACE
 70
     0
 10
0.0
 20
0.0
 30
0.0
  3
$MODEL_SPACE
  1

  0
ENDBLK
  5
10D
  8
0
  0
BLOCK
 67
     1
  8
0
  2
$PAPER_SPACE
 70
     0
 10
0.0
 20
0.0
 30
0.0
  3
$PAPER_SPACE
  1

  0
ENDBLK
  5
109
 67
     1
  8
0
  0
BLOCK
  8
0
  2
DOT1
 70
     0
 10
0.0
 20
0.0
 30
0.0
  3
DOT1
  1

  0
CIRCLE
  5
129
  8
SIZE
  6
CONTINUOUS
 62
     7
 10
0.0
 20
0.0
 30
0.0
 40
3.0
  0
ENDBLK
  5
12A
  8
0
  0
BLOCK
  8
0
  2
_ORIGIN
 70
     0
 10
0.0
 20
0.0
 30
0.0
  3
_ORIGIN
  1

  0
CIRCLE
  5
12D
  8
0
  6
CONTINUOUS
 62
     7
 10
0.0
 20
0.0
 30
0.0
 40
0.5
  0
LINE
  5
12E
  8
0
  6
CONTINUOUS
 62
     7
 10
0.0
 20
0.0
 30
0.0
 11
-1.0
 21
0.0
 31
0.0
  0
ENDBLK
  5
12F
  8
0
  0
BLOCK
  8
0
 62
     7
  2
_NONE
 70
     0
 10
0.0
 20
0.0
 30
0.0
  3
_NONE
  1

  0
ENDBLK
  5
1BE
  8
0
 62
     7
  0
BLOCK
  8
0
 62
     7
  2
_OPEN30
 70
     0
 10
0.0
 20
0.0
 30
0.0
  3
_OPEN30
  1

  0
LINE
  5
1C0
  8
0
  6
BYBLOCK
 62
     0
 10
-1.0
 20
0.26794919
 30
0.0
 11
0.0
 21
0.0
 31
0.0
  0
LINE
  5
1C1
  8
0
  6
BYBLOCK
 62
     0
 10
0.0
 20
0.0
 30
0.0
 11
-1.0
 21
-0.26794919
 31
0.0
  0
LINE
  5
1C2
  8
0
  6
BYBLOCK
 62
     0
 10
0.0
 20
0.0
 30
0.0
 11
-1.0
 21
0.0
 31
0.0
  0
ENDBLK
  5
1C4
  8
0
 62
     7
  0
BLOCK
  8
0
 62
    30
  2
*D6
 70
     1
 10
0.0
 20
0.0
 30
0.0
  3
*D6
  1

  0
LINE
  5
1C7
  8
SIZE
  6
CONTINUOUS
 10
-217.0
 20
302.0
 30
0.0
 11
-217.0
 21
374.80431948233172
 31
0.0
  0
LINE
  5
1C8
  8
SIZE
  6
CONTINUOUS
 10
217.0
 20
302.0
 30
0.0
 11
217.0
 21
374.80431948233172
 31
0.0
  0
LINE
  5
1C9
  8
SIZE
  6
CONTINUOUS
 10
-217.0
 20
354.80431948233172
 30
0.0
 11
217.0
 21
354.80431948233172
 31
0.0
  0
TEXT
  5
1CA
  8
NOTE
  6
CONTINUOUS
 10
-75.428571428571416
 20
374.80431948233172
 30
0.0
 40
64.0
  1
434
 41
0.9
  0
POINT
  5
1CB
  8
DEFPOINTS
  6
CONTINUOUS
 62
     0
 10
-217.0
 20
292.0
 30
0.0
  0
POINT
  5
1CC
  8
DEFPOINTS
  6
CONTINUOUS
 62
     0
 10
217.0
 20
292.0
 30
0.0
  0
POINT
  5
1CD
  8
DEFPOINTS
  6
CONTINUOUS
 62
     0
 10
217.0
 20
354.80431948233172
 30
0.0
  0
ENDBLK
  5
1CF
  8
0
 62
    30
  0
ENDSEC
  0
SECTION
  2
ENTITIES
  0
TEXT
  5
130
  8
ETC
  6
CONTINUOUS
 62
    61
 10
392.06074000000001
 20
405.59915599999988
 30
0.0
 40
50.0
  1
システム部材
 41
0.9
  0
TEXT
  5
131
  8
ETC
  6
CONTINUOUS
 62
    61
 10
396.47360099999992
 20
472.386573
 30
0.0
 40
50.0
  1
PS-35UWD3_1
 41
0.9
  0
POINT
  5
132
  8
ARRANGE
  6
CONTINUOUS
 62
     1
 10
0.0
 20
0.0
 30
0.0
 39
50.0
  0
CIRCLE
  5
133
  8
ARRANGE
  6
CONTINUOUS
 62
     1
 39
50.0
 10
0.0
 20
0.0
 30
0.0
 40
40.0
  0
LINE
  5
134
  8
NOTE
  6
CONTINUOUS
 62
     4
 10
-217.0
 20
252.0
 30
0.0
 11
-217.0
 21
292.0
 31
0.0
  0
LINE
  5
135
  8
NOTE
  6
CONTINUOUS
 62
     4
 10
-237.0
 20
272.0
 30
0.0
 11
-197.0
 21
272.0
 31
0.0
  0
LINE
  5
136
  8
NOTE
  6
CONTINUOUS
 62
     4
 10
-217.5
 20
-54.0
 30
0.0
 11
-217.5
 21
-14.0
 31
0.0
  0
LINE
  5
137
  8
NOTE
  6
CONTINUOUS
 62
     4
 10
-237.5
 20
-34.0
 30
0.0
 11
-197.5
 21
-34.0
 31
0.0
  0
LINE
  5
138
  8
NOTE
  6
CONTINUOUS
 62
     4
 10
257.0
 20
-20.0
 30
0.0
 11
257.0
 21
20.0
 31
0.0
  0
LINE
  5
139
  8
NOTE
  6
CONTINUOUS
 62
     4
 10
237.0
 20
0.0
 30
0.0
 11
277.0
 21
0.0
 31
0.0
  0
LINE
  5
13A
  8
NOTE
  6
CONTINUOUS
 62
     4
 10
250.20725200000001
 20
249.70025899999999
 30
0.0
 11
217.0
 21
272.0
 31
0.0
  0
LINE
  5
13B
  8
NOTE
  6
CONTINUOUS
 62
     4
 10
217.0
 20
272.0
 30
0.0
 11
234.60845299999991
 21
236.0842319999999
 31
0.0
  0
LINE
  5
13C
  8
NOTE
  6
CONTINUOUS
 62
     4
 10
289.05681399999992
 20
-23.924060999999998
 30
0.0
 11
257.0
 21
0.0
 31
0.0
  0
LINE
  5
13D
  8
NOTE
  6
CONTINUOUS
 62
     4
 10
257.0
 20
0.0
 30
0.0
 11
272.79998399999982
 21
-36.747252000000003
 31
0.0
  0
TEXT
  5
13E
  8
NOTE
  6
CONTINUOUS
 62
     4
 10
397.60098799999992
 20
-154.58109899999991
 30
0.0
 40
64.0
  1
4×φ16取付穴
 41
0.9
  0
TEXT
  5
13F
  8
NOTE
  6
CONTINUOUS
 62
     4
 10
340.75194499999992
 20
152.78538999999981
 30
0.0
 40
64.0
  1
4×M8ボルト
 41
0.9
  0
LINE
  5
140
  8
NOTE
  6
CONTINUOUS
 62
     4
 39
50.0
 10
767.81768199999999
 20
136.89206200000001
 30
0.0
 11
335.072879
 21
136.89206200000001
 31
0.0
  0
LINE
  5
141
  8
NOTE
  6
CONTINUOUS
 62
     4
 39
50.0
 10
334.57287899999989
 20
136.89206200000001
 30
0.0
 11
217.0
 21
272.0
 31
0.0
  0
LINE
  5
142
  8
NOTE
  6
CONTINUOUS
 62
     4
 39
50.0
 10
387.46027199999997
 20
-163.46888000000001
 30
0.0
 11
869.14858000000004
 21
-163.46888000000001
 31
0.0
  0
LINE
  5
143
  8
NOTE
  6
CONTINUOUS
 62
     4
 39
50.0
 10
387.46027199999997
 20
-163.46888000000001
 30
0.0
 11
257.0
 21
0.0
 31
0.0
  0
LINE
  5
144
  8
NOTE
  6
CONTINUOUS
 62
     4
 10
217.0
 20
292.0
 30
0.0
 11
217.0
 21
252.0
 31
0.0
  0
LINE
  5
145
  8
NOTE
  6
CONTINUOUS
 62
     4
 10
237.0
 20
272.0
 30
0.0
 11
197.0
 21
272.0
 31
0.0
  0
LINE
  5
146
  8
NOTE
  6
CONTINUOUS
 62
     4
 10
-257.0
 20
20.0
 30
0.0
 11
-257.0
 21
-20.0
 31
0.0
  0
LINE
  5
147
  8
NOTE
  6
CONTINUOUS
 62
     4
 10
-237.0
 20
0.0
 30
0.0
 11
-277.0
 21
0.0
 31
0.0
  0
LINE
  5
148
  8
BASIS
  6
DASHDOT
 62
     6
 39
50.0
 10
0.0
 20
146.23577900000001
 30
0.0
 11
0.0
 21
-83.009201000000004
 31
0.0
  0
LINE
  5
149
  8
DETAIL
  6
CONTINUOUS
 62
     5
 39
50.0
 10
-272.0
 20
0.0
 30
0.0
 11
272.0
 21
0.0
 31
0.0
  0
LINE
  5
14A
  8
DETAIL
  6
CONTINUOUS
 62
     5
 39
50.0
 10
-234.5
 20
0.0
 30
0.0
 11
-234.5
 21
-11.0
 31
0.0
  0
LINE
  5
14B
  8
DETAIL
  6
CONTINUOUS
 62
     5
 39
50.0
 10
234.5
 20
0.0
 30
0.0
 11
234.5
 21
-11.0
 31
0.0
  0
LINE
  5
14C
  8
DETAIL
  6
CONTINUOUS
 62
     5
 39
50.0
 10
234.5
 20
-11.0
 30
0.0
 11
-234.5
 21
-11.0
 31
0.0
  0
LINE
  5
14D
  8
DETAIL
  6
CONTINUOUS
 62
     5
 39
50.0
 10
-213.5
 20
-11.0
 30
0.0
 11
-213.5
 21
-34.0
 31
0.0
  0
LINE
  5
14E
  8
DETAIL
  6
CONTINUOUS
 62
     5
 39
50.0
 10
-213.5
 20
-34.0
 30
0.0
 11
-221.4999999999998
 21
-34.0
 31
0.0
  0
LINE
  5
14F
  8
DETAIL
  6
CONTINUOUS
 62
     5
 39
50.0
 10
-221.4999999999998
 20
-34.0
 30
0.0
 11
-221.4999999999998
 21
-11.0
 31
0.0
  0
LINE
  5
150
  8
DETAIL
  6
CONTINUOUS
 62
     5
 39
50.0
 10
213.5
 20
-34.0
 30
0.0
 11
213.5
 21
-11.0
 31
0.0
  0
LINE
  5
151
  8
DETAIL
  6
CONTINUOUS
 62
     5
 39
50.0
 10
221.4999999999998
 20
-34.0
 30
0.0
 11
213.5
 21
-34.0
 31
0.0
  0
LINE
  5
152
  8
DETAIL
  6
CONTINUOUS
 62
     5
 39
50.0
 10
221.4999999999998
 20
-11.0
 30
0.0
 11
221.4999999999998
 21
-34.0
 31
0.0
  0
LINE
  5
153
  8
NOTE
  6
CONTINUOUS
 62
     4
 10
217.5
 20
-54.0
 30
0.0
 11
217.5
 21
-14.0
 31
0.0
  0
LINE
  5
154
  8
NOTE
  6
CONTINUOUS
 62
     4
 10
197.5
 20
-34.0
 30
0.0
 11
237.5
 21
-34.0
 31
0.0
  0
CIRCLE
  5
155
  8
FIX
  6
CONTINUOUS
 62
    11
 39
50.0
 10
257.0
 20
0.0
 30
0.0
 40
8.0
  0
CIRCLE
  5
156
  8
FIX
  6
CONTINUOUS
 62
    11
 39
50.0
 10
-257.0
 20
0.0
 30
0.0
 40
8.0
  0
LINE
  5
157
  8
DETAIL
  6
CONTINUOUS
 62
     5
 39
50.0
 10
-203.0
 20
250.0
 30
0.0
 11
203.0
 21
250.0
 31
0.0
  0
LINE
  5
158
  8
DETAIL
  6
CONTINUOUS
 62
     5
 39
50.0
 10
228.5
 20
250.0
 30
0.0
 11
228.5
 21
0.0
 31
0.0
  0
LINE
  5
159
  8
DETAIL
  6
CONTINUOUS
 62
     5
 39
50.0
 10
-228.5
 20
249.0
 30
0.0
 11
-228.5
 21
0.0
 31
0.0
  0
LINE
  5
15A
  8
DETAIL
  6
CONTINUOUS
 62
     5
 39
50.0
 10
-203.0
 20
249.0
 30
0.0
 11
-228.5
 21
249.0
 31
0.0
  0
LINE
  5
15B
  8
DETAIL
  6
CONTINUOUS
 62
     5
 39
50.0
 10
-203.0
 20
249.0
 30
0.0
 11
-203.0
 21
250.0
 31
0.0
  0
LINE
  5
15C
  8
DETAIL
  6
CONTINUOUS
 62
     5
 39
50.0
 10
-203.0
 20
249.5
 30
0.0
 11
-228.5
 21
249.5
 31
0.0
  0
LINE
  5
15D
  8
DETAIL
  6
CONTINUOUS
 62
     5
 39
50.0
 10
-213.0
 20
249.5
 30
0.0
 11
-213.0
 21
272.0
 31
0.0
  0
LINE
  5
15E
  8
DETAIL
  6
CONTINUOUS
 62
     5
 39
50.0
 10
-213.0
 20
272.0
 30
0.0
 11
-220.99999999999989
 21
272.0
 31
0.0
  0
LINE
  5
15F
  8
DETAIL
  6
CONTINUOUS
 62
     5
 39
50.0
 10
-213.5
 20
250.0
 30
0.0
 11
-228.5
 21
250.0
 31
0.0
  0
LINE
  5
160
  8
DETAIL
  6
CONTINUOUS
 62
     5
 39
50.0
 10
-228.5
 20
250.0
 30
0.0
 11
-228.5
 21
249.0
 31
0.0
  0
LINE
  5
161
  8
DETAIL
  6
CONTINUOUS
 62
     5
 39
50.0
 10
-220.99999999999989
 20
250.0
 30
0.0
 11
-220.99999999999989
 21
272.0
 31
0.0
  0
LINE
  5
162
  8
DETAIL
  6
CONTINUOUS
 62
     5
 39
50.0
 10
213.0
 20
249.5
 30
0.0
 11
213.0
 21
272.0
 31
0.0
  0
LINE
  5
163
  8
DETAIL
  6
CONTINUOUS
 62
     5
 39
50.0
 10
220.99999999999989
 20
250.0
 30
0.0
 11
220.99999999999989
 21
272.0
 31
0.0
  0
LINE
  5
164
  8
DETAIL
  6
CONTINUOUS
 62
     5
 39
50.0
 10
220.99999999999989
 20
272.0
 30
0.0
 11
213.0
 21
272.0
 31
0.0
  0
LINE
  5
165
  8
DETAIL
  6
CONTINUOUS
 62
     5
 39
50.0
 10
228.5
 20
249.0
 30
0.0
 11
203.0
 21
249.0
 31
0.0
  0
LINE
  5
166
  8
DETAIL
  6
CONTINUOUS
 62
     5
 39
50.0
 10
203.0
 20
249.0
 30
0.0
 11
203.0
 21
250.0
 31
0.0
  0
LINE
  5
167
  8
DETAIL
  6
CONTINUOUS
 62
     5
 39
50.0
 10
203.0
 20
249.5
 30
0.0
 11
228.5
 21
249.5
 31
0.0
  0
LINE
  5
168
  8
DETAIL
  6
CONTINUOUS
 62
     5
 39
50.0
 10
213.5
 20
250.0
 30
0.0
 11
228.5
 21
250.0
 31
0.0
  0
LINE
  5
169
  8
OUTLINE
  6
CONTINUOUS
 62
     3
 39
50.0
 10
234.5
 20
-11.0
 30
0.0
 11
-234.5
 21
-11.0
 31
0.0
  0
LINE
  5
16A
  8
OUTLINE
  6
CONTINUOUS
 62
     3
 39
50.0
 10
-203.0
 20
250.0
 30
0.0
 11
203.0
 21
250.0
 31
0.0
  0
LINE
  5
16B
  8
OUTLINE
  6
CONTINUOUS
 62
     3
 39
50.0
 10
-272.0
 20
0.0
 30
0.0
 11
272.0
 21
0.0
 31
0.0
  0
LINE
  5
16C
  8
OUTLINE
  6
CONTINUOUS
 62
     3
 39
50.0
 10
-228.5
 20
249.0
 30
0.0
 11
-228.5
 21
0.0
 31
0.0
  0
LINE
  5
16D
  8
OUTLINE
  6
CONTINUOUS
 62
     3
 39
50.0
 10
-234.5
 20
0.0
 30
0.0
 11
-234.5
 21
-11.0
 31
0.0
  0
LINE
  5
16E
  8
OUTLINE
  6
CONTINUOUS
 62
     3
 39
50.0
 10
-203.0
 20
249.0
 30
0.0
 11
-228.5
 21
249.0
 31
0.0
  0
LINE
  5
16F
  8
OUTLINE
  6
CONTINUOUS
 62
     3
 39
50.0
 10
-203.0
 20
249.0
 30
0.0
 11
-203.0
 21
250.0
 31
0.0
  0
LINE
  5
170
  8
OUTLINE
  6
CONTINUOUS
 62
     3
 39
50.0
 10
228.5
 20
249.0
 30
0.0
 11
228.5
 21
0.0
 31
0.0
  0
LINE
  5
171
  8
OUTLINE
  6
CONTINUOUS
 62
     3
 39
50.0
 10
234.5
 20
0.0
 30
0.0
 11
234.5
 21
-11.0
 31
0.0
  0
LINE
  5
172
  8
OUTLINE
  6
CONTINUOUS
 62
     3
 39
50.0
 10
203.0
 20
249.0
 30
0.0
 11
203.0
 21
250.0
 31
0.0
  0
LINE
  5
173
  8
OUTLINE
  6
CONTINUOUS
 62
     3
 39
50.0
 10
228.5
 20
249.0
 30
0.0
 11
203.0
 21
249.0
 31
0.0
  0
LINE
  5
174
  8
SIZE
  6
CONTINUOUS
 62
    30
 10
-217.5
 20
-54.0
 30
0.0
 11
-217.5
 21
-228.9266979999999
 31
0.0
  0
LINE
  5
175
  8
SIZE
  6
CONTINUOUS
 62
    30
 10
217.5
 20
-54.0
 30
0.0
 11
217.5
 21
-228.9266979999999
 31
0.0
  0
LINE
  5
176
  8
SIZE
  6
CONTINUOUS
 62
    30
 10
-205.5
 20
-208.92669799999999
 30
0.0
 11
205.5
 21
-208.92669799999999
 31
0.0
  0
CIRCLE
  5
177
  8
SIZE
  6
CONTINUOUS
 62
    30
 10
-217.5
 20
-208.92669799999999
 30
0.0
 40
6.0
  0
LINE
  5
178
  8
SIZE
  6
CONTINUOUS
 62
    30
 10
-217.5
 20
-208.92669799999999
 30
0.0
 11
-205.5
 21
-208.92669799999999
 31
0.0
  0
CIRCLE
  5
179
  8
SIZE
  6
CONTINUOUS
 62
    30
 10
217.5
 20
-208.92669799999999
 30
0.0
 40
6.0
  0
LINE
  5
17A
  8
SIZE
  6
CONTINUOUS
 62
    30
 10
217.5
 20
-208.92669799999999
 30
0.0
 11
205.5
 21
-208.92669799999999
 31
0.0
  0
TEXT
  5
17B
  8
SIZE
  6
CONTINUOUS
 62
    30
 10
-74.05714285714285
 20
-183.9266979999999
 30
0.0
 40
64.0
  1
435
 41
0.9
 72
     1
 11
0.0
 21
-183.9266979999999
 31
0.0
  0
LINE
  5
17C
  8
SIZE
  6
CONTINUOUS
 62
    30
 10
-257.0
 20
-20.0
 30
0.0
 11
-257.0
 21
-373.72405800000001
 31
0.0
  0
LINE
  5
17D
  8
SIZE
  6
CONTINUOUS
 62
    30
 10
257.0
 20
-20.0
 30
0.0
 11
257.0
 21
-373.72405800000001
 31
0.0
  0
LINE
  5
17E
  8
SIZE
  6
CONTINUOUS
 62
    30
 10
-245.0
 20
-353.72405800000001
 30
0.0
 11
245.0
 21
-353.72405800000001
 31
0.0
  0
CIRCLE
  5
17F
  8
SIZE
  6
CONTINUOUS
 62
    30
 10
-257.0
 20
-353.72405800000001
 30
0.0
 40
6.0
  0
LINE
  5
180
  8
SIZE
  6
CONTINUOUS
 62
    30
 10
-257.0
 20
-353.72405800000001
 30
0.0
 11
-245.0
 21
-353.72405800000001
 31
0.0
  0
CIRCLE
  5
181
  8
SIZE
  6
CONTINUOUS
 62
    30
 10
257.0
 20
-353.72405800000001
 30
0.0
 40
6.0
  0
LINE
  5
182
  8
SIZE
  6
CONTINUOUS
 62
    30
 10
257.0
 20
-353.72405800000001
 30
0.0
 11
245.0
 21
-353.72405800000001
 31
0.0
  0
TEXT
  5
183
  8
SIZE
  6
CONTINUOUS
 62
    30
 10
-69.942857142857122
 20
-328.72405800000001
 30
0.0
 40
64.0
  1
514
 41
0.9
 72
     1
 11
0.0
 21
-328.72405800000001
 31
0.0
  0
LINE
  5
184
  8
SIZE
  6
CONTINUOUS
 62
    30
 10
-272.0
 20
-20.0
 30
0.0
 11
-272.0
 21
-508.92429199999998
 31
0.0
  0
LINE
  5
185
  8
SIZE
  6
CONTINUOUS
 62
    30
 10
272.0
 20
-20.0
 30
0.0
 11
272.0
 21
-508.92429199999998
 31
0.0
  0
LINE
  5
186
  8
SIZE
  6
CONTINUOUS
 62
    30
 10
-260.0
 20
-488.92429199999998
 30
0.0
 11
260.0
 21
-488.92429199999998
 31
0.0
  0
CIRCLE
  5
187
  8
SIZE
  6
CONTINUOUS
 62
    30
 10
-272.0
 20
-488.92429199999998
 30
0.0
 40
6.0
  0
LINE
  5
188
  8
SIZE
  6
CONTINUOUS
 62
    30
 10
-272.0
 20
-488.92429199999998
 30
0.0
 11
-260.0
 21
-488.92429199999998
 31
0.0
  0
CIRCLE
  5
189
  8
SIZE
  6
CONTINUOUS
 62
    30
 10
272.0
 20
-488.92429199999998
 30
0.0
 40
6.0
  0
LINE
  5
18A
  8
SIZE
  6
CONTINUOUS
 62
    30
 10
272.0
 20
-488.92429199999998
 30
0.0
 11
260.0
 21
-488.92429199999998
 31
0.0
  0
TEXT
  5
18B
  8
SIZE
  6
CONTINUOUS
 62
    30
 10
-75.428571428571416
 20
-463.92429199999998
 30
0.0
 40
64.0
  1
544
 41
0.9
 72
     1
 11
0.0
 21
-463.92429199999998
 31
0.0
  0
LINE
  5
18C
  8
SIZE
  6
CONTINUOUS
 62
    30
 10
-241.5
 20
-11.0
 30
0.0
 11
-423.57259599999992
 21
-11.0
 31
0.0
  0
LINE
  5
18D
  8
SIZE
  6
CONTINUOUS
 62
    30
 10
-241.5
 20
-34.0
 30
0.0
 11
-423.57259599999992
 21
-34.0
 31
0.0
  0
LINE
  5
18E
  8
SIZE
  6
CONTINUOUS
 62
    30
 10
-403.57259599999981
 20
1.0
 30
0.0
 11
-403.57259599999981
 21
13.0
 31
0.0
  0
LINE
  5
18F
  8
SIZE
  6
CONTINUOUS
 62
    30
 10
-403.57259599999981
 20
-46.0
 30
0.0
 11
-403.57259599999981
 21
-201.2571429999999
 31
0.0
  0
LINE
  5
190
  8
SIZE
  6
CONTINUOUS
 62
    30
 10
-403.57259599999981
 20
-11.0
 30
0.0
 11
-403.57259599999981
 21
-34.0
 31
0.0
  0
CIRCLE
  5
191
  8
SIZE
  6
CONTINUOUS
 62
    30
 10
-403.57259599999981
 20
-11.0
 30
0.0
 40
6.0
  0
LINE
  5
192
  8
SIZE
  6
CONTINUOUS
 62
    30
 10
-403.57259599999981
 20
-11.0
 30
0.0
 11
-403.57259599999981
 21
1.0
 31
0.0
  0
CIRCLE
  5
193
  8
SIZE
  6
CONTINUOUS
 62
    30
 10
-403.57259599999981
 20
-34.0
 30
0.0
 40
6.0
  0
LINE
  5
194
  8
SIZE
  6
CONTINUOUS
 62
    30
 10
-403.57259599999981
 20
-34.0
 30
0.0
 11
-403.57259599999981
 21
-46.0
 31
0.0
  0
TEXT
  5
195
  8
SIZE
  6
CONTINUOUS
 62
    30
 10
-428.57259599999992
 20
-176.2571424285714
 30
0.0
 40
64.0
  1
23
 50
90.0
 41
0.9
 72
     1
 11
-428.57259599999992
 21
-129.62857099999999
 31
0.0
  0
LINE
  5
196
  8
SIZE
  6
CONTINUOUS
 62
    30
 10
-254.49999999999989
 20
0.0
 30
0.0
 11
-423.25137599999988
 21
0.0
 31
0.0
  0
LINE
  5
197
  8
SIZE
  6
CONTINUOUS
 62
    30
 10
-254.49999999999989
 20
-11.0
 30
0.0
 11
-423.25137599999988
 21
-11.0
 31
0.0
  0
LINE
  5
198
  8
SIZE
  6
CONTINUOUS
 62
    30
 10
-403.25137599999988
 20
-23.0
 30
0.0
 11
-403.25137599999988
 21
-35.0
 31
0.0
  0
LINE
  5
199
  8
SIZE
  6
CONTINUOUS
 62
    30
 10
-403.25137599999988
 20
12.0
 30
0.0
 11
-403.25137599999988
 21
131.59999999999999
 31
0.0
  0
LINE
  5
19A
  8
SIZE
  6
CONTINUOUS
 62
    30
 10
-403.25137599999988
 20
-11.0
 30
0.0
 11
-403.25137599999988
 21
0.0
 31
0.0
  0
CIRCLE
  5
19B
  8
SIZE
  6
CONTINUOUS
 62
    30
 10
-403.25137599999988
 20
-11.0
 30
0.0
 40
6.0
  0
LINE
  5
19C
  8
SIZE
  6
CONTINUOUS
 62
    30
 10
-403.25137599999988
 20
-11.0
 30
0.0
 11
-403.25137599999988
 21
-23.0
 31
0.0
  0
CIRCLE
  5
19D
  8
SIZE
  6
CONTINUOUS
 62
    30
 10
-403.25137599999988
 20
0.0
 30
0.0
 40
6.0
  0
LINE
  5
19E
  8
SIZE
  6
CONTINUOUS
 62
    30
 10
-403.25137599999988
 20
0.0
 30
0.0
 11
-403.25137599999988
 21
12.0
 31
0.0
  0
TEXT
  5
19F
  8
SIZE
  6
CONTINUOUS
 62
    30
 10
-428.25137599999988
 20
48.999999999999979
 30
0.0
 40
64.0
  1
11
 50
90.0
 41
0.9
 72
     1
 11
-428.25137599999988
 21
77.799999999999983
 31
0.0
  0
LINE
  5
1A0
  8
SIZE
  6
CONTINUOUS
 62
    30
 10
-248.4999999999998
 20
0.0
 30
0.0
 11
-559.76498000000004
 21
0.0
 31
0.0
  0
LINE
  5
1A1
  8
SIZE
  6
CONTINUOUS
 62
    30
 10
-248.4999999999998
 20
250.0
 30
0.0
 11
-559.76498000000004
 21
250.0
 31
0.0
  0
LINE
  5
1A2
  8
SIZE
  6
CONTINUOUS
 62
    30
 10
-539.76498000000004
 20
12.0
 30
0.0
 11
-539.76498000000004
 21
238.0
 31
0.0
  0
CIRCLE
  5
1A3
  8
SIZE
  6
CONTINUOUS
 62
    30
 10
-539.76498000000004
 20
0.0
 30
0.0
 40
6.0
  0
LINE
  5
1A4
  8
SIZE
  6
CONTINUOUS
 62
    30
 10
-539.76498000000004
 20
0.0
 30
0.0
 11
-539.76498000000004
 21
12.0
 31
0.0
  0
CIRCLE
  5
1A5
  8
SIZE
  6
CONTINUOUS
 62
    30
 10
-539.76498000000004
 20
250.0
 30
0.0
 40
6.0
  0
LINE
  5
1A6
  8
SIZE
  6
CONTINUOUS
 62
    30
 10
-539.76498000000004
 20
250.0
 30
0.0
 11
-539.76498000000004
 21
238.0
 31
0.0
  0
TEXT
  5
1A7
  8
SIZE
  6
CONTINUOUS
 62
    30
 10
-564.76498000000004
 20
37.000000142857147
 30
0.0
 40
64.0
  1
250
 50
90.0
 41
0.9
 72
     1
 11
-564.76498000000004
 21
111.057143
 31
0.0
  0
LINE
  5
1A8
  8
SIZE
  6
CONTINUOUS
 62
    30
 10
-241.5
 20
272.0
 30
0.0
 11
-559.76498000000004
 21
272.0
 31
0.0
  0
LINE
  5
1A9
  8
SIZE
  6
CONTINUOUS
 62
    30
 10
-241.5
 20
250.0
 30
0.0
 11
-559.76498000000004
 21
250.0
 31
0.0
  0
LINE
  5
1AA
  8
SIZE
  6
CONTINUOUS
 62
    30
 10
-539.76498000000004
 20
238.0
 30
0.0
 11
-539.76498000000004
 21
226.0
 31
0.0
  0
LINE
  5
1AB
  8
SIZE
  6
CONTINUOUS
 62
    30
 10
-539.76498000000004
 20
284.0
 30
0.0
 11
-539.76498000000004
 21
439.25714299999999
 31
0.0
  0
LINE
  5
1AC
  8
SIZE
  6
CONTINUOUS
 62
    30
 10
-539.76498000000004
 20
250.0
 30
0.0
 11
-539.76498000000004
 21
272.0
 31
0.0
  0
CIRCLE
  5
1AD
  8
SIZE
  6
CONTINUOUS
 62
    30
 10
-539.76498000000004
 20
250.0
 30
0.0
 40
6.0
  0
LINE
  5
1AE
  8
SIZE
  6
CONTINUOUS
 62
    30
 10
-539.76498000000004
 20
250.0
 30
0.0
 11
-539.76498000000004
 21
238.0
 31
0.0
  0
CIRCLE
  5
1AF
  8
SIZE
  6
CONTINUOUS
 62
    30
 10
-539.76498000000004
 20
272.0
 30
0.0
 40
6.0
  0
LINE
  5
1B0
  8
SIZE
  6
CONTINUOUS
 62
    30
 10
-539.76498000000004
 20
272.0
 30
0.0
 11
-539.76498000000004
 21
284.0
 31
0.0
  0
TEXT
  5
1B1
  8
SIZE
  6
CONTINUOUS
 62
    30
 10
-564.76498000000004
 20
320.99999957142848
 30
0.0
 40
64.0
  1
22
 50
90.0
 41
0.9
 72
     1
 11
-564.76498000000004
 21
367.62857100000002
 31
0.0
  0
LINE
  5
1B2
  8
SIZE
  6
CONTINUOUS
 62
    30
 10
-228.5
 20
259.62638336916768
 30
0.0
 11
-228.5
 21
490.51820450908912
 31
0.0
  0
LINE
  5
1B3
  8
SIZE
  6
CONTINUOUS
 62
    30
 10
228.5
 20
256.58833198656561
 30
0.0
 11
228.5
 21
487.4801531279017
 31
0.0
  0
LINE
  5
1B4
  8
SIZE
  6
CONTINUOUS
 62
    30
 10
-216.5
 20
464.69477614049862
 30
0.0
 11
216.5
 21
464.69477614049862
 31
0.0
  0
CIRCLE
  5
1B5
  8
SIZE
  6
CONTINUOUS
 62
    30
 10
-228.5
 20
464.69477614049862
 30
0.0
 40
6.0
  0
LINE
  5
1B6
  8
SIZE
  6
CONTINUOUS
 62
    30
 10
-228.5
 20
464.69477614049862
 30
0.0
 11
-216.5
 21
464.69477614049862
 31
0.0
  0
CIRCLE
  5
1B7
  8
SIZE
  6
CONTINUOUS
 62
    30
 10
228.5
 20
464.69477614049862
 30
0.0
 40
6.0
  0
LINE
  5
1B8
  8
SIZE
  6
CONTINUOUS
 62
    30
 10
228.5
 20
464.69477614049862
 30
0.0
 11
216.5
 21
464.69477614049862
 31
0.0
  0
TEXT
  5
1B9
  8
SIZE
  6
CONTINUOUS
 62
    30
 10
-180.20571428571421
 20
506.45668114049852
 30
0.0
 40
64.0
  1
457(外寸)
 41
0.9
 72
     1
 11
0.0
 21
506.45668114049852
 31
0.0
  0
TEXT
  5
1BA
  8
ETC
  6
CONTINUOUS
 62
    61
 10
505.32855682147959
 20
343.81297627290269
 30
0.0
 40
40.0
  1
PS-35UWD3
 41
0.9
  0
CIRCLE
  5
1D0
  8
SIZE
  6
CONTINUOUS
 62
    30
 39
50.0
 10
-217.0
 20
354.80431948233172
 30
0.0
 40
6.0
  0
CIRCLE
  5
1D1
  8
SIZE
  6
CONTINUOUS
 62
    30
 39
50.0
 10
217.0
 20
354.80431948233172
 30
0.0
 40
6.0
  0
TEXT
  5
1DA
  8
NOTE
  6
CONTINUOUS
 62
     4
 10
396.07396656599479
 20
-314.03202520176421
 30
0.0
 40
64.0
  1
4×M8ボルト
 41
0.9
  0
LINE
  5
1DB
  8
SIZE
  6
CONTINUOUS
 10
-217.0
 20
302.0
 30
0.0
 11
-217.0
 21
374.80431948233172
 31
0.0
  0
LINE
  5
1DC
  8
SIZE
  6
CONTINUOUS
 10
217.0
 20
302.0
 30
0.0
 11
217.0
 21
374.80431948233172
 31
0.0
  0
LINE
  5
1DD
  8
SIZE
  6
CONTINUOUS
 10
-217.0
 20
354.80431948233172
 30
0.0
 11
217.0
 21
354.80431948233172
 31
0.0
  0
TEXT
  5
1E1
  8
SIZE
  6
CONTINUOUS
 62
    30
 10
-75.428571428571416
 20
374.80431948233172
 30
0.0
 40
64.0
  1
434
 41
0.9
  0
LINE
  5
1E2
  8
NOTE
  6
CONTINUOUS
 62
     4
 10
236.82229962525361
 20
-68.743005592013347
 30
0.0
 11
385.43633126628259
 21
-329.22227540276111
 31
0.0
1001
ACAD
1000
DSTYLE
1002
{
1070
    41
1040
40.0
1070
    42
1040
10.0
1070
    43
1040
200.0
1070
    44
1040
20.0
1070
    73
1070
     0
1070
    74
1070
     0
1070
    77
1070
     0
1070
    78
1070
     8
1070
   140
1040
64.0
1070
   147
1040
20.0
1070
   172
1070
     1
1070
   174
1070
     1
1070
   176
1070
   256
1070
   177
1070
   256
1070
   178
1070
   256
1070
   275
1070
     0
1070
   279
1070
     0
1070
   284
1070
     0
1070
   285
1070
     0
1070
   286
1070
     0
1070
   341
1005
1BF
1070
   342
1005
1BC
1070
   343
1005
1BC
1070
   344
1005
12B
1002
}
  0
LINE
  5
1E3
  8
NOTE
  6
CONTINUOUS
 62
     4
 10
385.43633126628259
 20
-329.22227540276111
 30
0.0
 11
832.21687700005441
 21
-329.22227540276111
 31
0.0
1001
ACAD
1000
DSTYLE
1002
{
1070
    41
1040
40.0
1070
    42
1040
10.0
1070
    43
1040
200.0
1070
    44
1040
20.0
1070
    73
1070
     0
1070
    74
1070
     0
1070
    77
1070
     0
1070
    78
1070
     8
1070
   140
1040
64.0
1070
   147
1040
20.0
1070
   172
1070
     1
1070
   174
1070
     1
1070
   176
1070
   256
1070
   177
1070
   256
1070
   178
1070
   256
1070
   275
1070
     0
1070
   279
1070
     0
1070
   284
1070
     0
1070
   285
1070
     0
1070
   286
1070
     0
1070
   341
1005
1BF
1070
   342
1005
1BC
1070
   343
1005
1BC
1070
   344
1005
12B
1002
}
  0
LINE
  5
1E4
  8
NOTE
  6
BYBLOCK
 62
     4
 10
227.5129394187081
 20
-74.054374720537353
 30
0.0
 11
217.0
 21
-34.0
 31
0.0
  0
LINE
  5
1E5
  8
NOTE
  6
BYBLOCK
 62
     4
 10
217.0
 20
-34.0
 30
0.0
 11
246.131659831799
 21
-63.43163646348934
 31
0.0
  0
LINE
  5
1E6
  8
NOTE
  6
BYBLOCK
 62
     4
 10
217.0
 20
-34.0
 30
0.0
 11
236.82229962525361
 21
-68.743005592013347
 31
0.0
  0
ENDSEC
  0
EOF
