  0
SECTION
  2
HEADER
  9
$ACADVER
  1
AC1009
  9
$DWGCODEPAGE
  3
dos932
  9
$INSBASE
 10
0.0
 20
0.0
 30
0.0
  9
$EXTMIN
 10
-932.78741061253004
 20
-573.48929899999985
 30
0.0
  9
$EXTMAX
 10
896.24315504589697
 20
708.26038344985147
 30
50.0
  9
$LIMMIN
 10
-2970.0
 20
-2100.0
  9
$LIMMAX
 10
2970.0
 20
2100.0
  9
$ORTHOMODE
 70
     1
  9
$REGENMODE
 70
     1
  9
$FILLMODE
 70
     1
  9
$QTEXTMODE
 70
     0
  9
$MIRRTEXT
 70
     0
  9
$LTSCALE
 40
20.0
  9
$ATTMODE
 70
     1
  9
$TEXTSIZE
 40
64.0
  9
$TRACEWID
 40
0.05
  9
$TEXTSTYLE
  7
STANDARD
  9
$CLAYER
  8
SIZE
  9
$CELTYPE
  6
CONTINUOUS
  9
$CECOLOR
 62
     7
  9
$DIMSCALE
 40
1.0
  9
$DIMASZ
 40
12.0
  9
$DIMEXO
 40
20.0
  9
$DIMDLI
 40
200.0
  9
$DIMRND
 40
0.0
  9
$DIMDLE
 40
0.0
  9
$DIMEXE
 40
20.0
  9
$DIMTP
 40
0.0
  9
$DIMTM
 40
0.0
  9
$DIMTXT
 40
64.0
  9
$DIMCEN
 40
0.09
  9
$DIMTSZ
 40
0.0
  9
$DIMTOL
 70
     0
  9
$DIMLIM
 70
     0
  9
$DIMTIH
 70
     0
  9
$DIMTOH
 70
     0
  9
$DIMSE1
 70
     0
  9
$DIMSE2
 70
     0
  9
$DIMTAD
 70
     1
  9
$DIMZIN
 70
     8
  9
$DIMBLK
  1

  9
$DIMASO
 70
     1
  9
$DIMSHO
 70
     0
  9
$DIMPOST
  1

  9
$DIMAPOST
  1

  9
$DIMALT
 70
     0
  9
$DIMALTD
 70
     2
  9
$DIMALTF
 40
25.399999999999999
  9
$DIMLFAC
 40
1.0
  9
$DIMTOFL
 70
     1
  9
$DIMTVP
 40
0.0
  9
$DIMTIX
 70
     1
  9
$DIMSOXD
 70
     0
  9
$DIMSAH
 70
     0
  9
$DIMBLK1
  1

  9
$DIMBLK2
  1

  9
$DIMSTYLE
  2
STANDARD
  9
$DIMCLRD
 70
     7
  9
$DIMCLRE
 70
     7
  9
$DIMCLRT
 70
     7
  9
$DIMTFAC
 40
1.0
  9
$DIMGAP
 40
25.0
  9
$LUNITS
 70
     2
  9
$LUPREC
 70
     4
  9
$SKETCHINC
 40
0.1
  9
$FILLETRAD
 40
3.0
  9
$AUNITS
 70
     1
  9
$AUPREC
 70
     3
  9
$MENU
  1
ACAD
  9
$ELEVATION
 40
0.0
  9
$PELEVATION
 40
0.0
  9
$THICKNESS
 40
50.0
  9
$LIMCHECK
 70
     0
  9
$CHAMFERA
 40
0.0
  9
$CHAMFERB
 40
0.0
  9
$SKPOLY
 70
     0
  9
$TDCREATE
 40
2453019.62301037
  9
$TDUPDATE
 40
2456945.616522268
  9
$TDINDWG
 40
1.7186043287
  9
$TDUSRTIMER
 40
1.7186043287
  9
$USRTIMER
 70
     1
  9
$ANGBASE
 50
0.0
  9
$ANGDIR
 70
     0
  9
$PDMODE
 70
     3
  9
$PDSIZE
 40
-2.0
  9
$PLINEWID
 40
0.0
  9
$SPLFRAME
 70
     0
  9
$SPLINETYPE
 70
     6
  9
$SPLINESEGS
 70
     8
  9
$SURFTAB1
 70
     6
  9
$SURFTAB2
 70
     6
  9
$SURFTYPE
 70
     6
  9
$SURFU
 70
     6
  9
$SURFV
 70
     6
  9
$UCSNAME
  2

  9
$UCSORG
 10
0.0
 20
0.0
 30
0.0
  9
$UCSXDIR
 10
1.0
 20
0.0
 30
0.0
  9
$UCSYDIR
 10
0.0
 20
1.0
 30
0.0
  9
$PUCSNAME
  2

  9
$PUCSORG
 10
0.0
 20
0.0
 30
0.0
  9
$PUCSXDIR
 10
1.0
 20
0.0
 30
0.0
  9
$PUCSYDIR
 10
0.0
 20
1.0
 30
0.0
  9
$USERI1
 70
     0
  9
$USERI2
 70
     0
  9
$USERI3
 70
     0
  9
$USERI4
 70
     0
  9
$USERI5
 70
     0
  9
$USERR1
 40
20.0
  9
$USERR2
 40
0.0
  9
$USERR3
 40
0.0
  9
$USERR4
 40
0.0
  9
$USERR5
 40
0.0
  9
$WORLDVIEW
 70
     1
  9
$SHADEDGE
 70
     3
  9
$SHADEDIF
 70
    70
  9
$TILEMODE
 70
     1
  9
$MAXACTVP
 70
    48
  9
$PINSBASE
 10
0.0
 20
0.0
 30
0.0
  9
$PLIMCHECK
 70
     0
  9
$PEXTMIN
 10
-100000000000000000000.0
 20
-100000000000000000000.0
 30
-100000000000000000000.0
  9
$PEXTMAX
 10
100000000000000000000.0
 20
100000000000000000000.0
 30
100000000000000000000.0
  9
$PLIMMIN
 10
0.0
 20
0.0
  9
$PLIMMAX
 10
12.0
 20
9.0
  9
$UNITMODE
 70
     0
  9
$VISRETAIN
 70
     0
  9
$PLINEGEN
 70
     0
  9
$PSLTSCALE
 70
     0
  9
$TREEDEPTH
 70
  3020
  9
$ATTDIA
 70
     0
  9
$ATTREQ
 70
     1
  9
$BLIPMODE
 70
     1
  9
$COORDS
 70
     1
  9
$DRAGMODE
 70
     2
  9
$OSMODE
 70
     0
  9
$HANDLING
 70
     0
  9
$HANDSEED
  5
E801
  0
ENDSEC
  0
SECTION
  2
TABLES
  0
TABLE
  2
LTYPE
 70
     2
  0
LTYPE
  2
CONTINUOUS
 70
     0
  3
実線
 72
    65
 73
     0
 40
0.0
  0
LTYPE
  2
DASHDOT
 70
     0
  3
____ _ ____ _ ____ _ ____ _ ____ _ ____ _ ____
 72
    65
 73
     4
 40
5.5
 49
4.0
 49
-0.6
 49
0.3
 49
-0.6
  0
ENDTAB
  0
TABLE
  2
LAYER
 70
    12
  0
LAYER
  2
0
 70
     0
 62
     7
  6
CONTINUOUS
  0
LAYER
  2
BASIS
 70
     0
 62
     6
  6
DASHDOT
  0
LAYER
  2
OUTLINE
 70
     0
 62
     3
  6
CONTINUOUS
  0
LAYER
  2
DETAIL
 70
     0
 62
     5
  6
CONTINUOUS
  0
LAYER
  2
SIZE
 70
     0
 62
    30
  6
CONTINUOUS
  0
LAYER
  2
ARRANGE
 70
     0
 62
     1
  6
CONTINUOUS
  0
LAYER
  2
ETC
 70
     0
 62
    61
  6
CONTINUOUS
  0
LAYER
  2
FIX
 70
     0
 62
    11
  6
CONTINUOUS
  0
LAYER
  2
NOTE
 70
     0
 62
     4
  6
CONTINUOUS
  0
LAYER
  2
DEFPOINTS
 70
    64
 62
     7
  6
CONTINUOUS
  0
LAYER
  2
SERVICESPACE
 70
    64
 62
     2
  6
DASHDOT
  0
LAYER
  2
SYMBOLLINE
 70
    64
 62
    15
  6
CONTINUOUS
  0
ENDTAB
  0
TABLE
  2
STYLE
 70
     1
  0
STYLE
  2
STANDARD
 70
     0
 40
64.0
 41
0.9
 50
0.0
 71
     0
 42
64.0
  3
SIMPLEX.shx
  4
BIGFONT.shx
  0
ENDTAB
  0
TABLE
  2
APPID
 70
    15
  0
APPID
  2
ACAD
 70
     0
  0
APPID
  2
AUTOCAD_POSTSCRIPT_FIGURE
 70
     0
  0
APPID
  2
ACAD_EXEMPT_FROM_CAD_STANDARDS
 70
     0
  0
APPID
  2
ACAD_PSEXT
 70
     0
  0
APPID
  2
ACAUTHENVIRON
 70
     0
  0
APPID
  2
GENIUS_GENOENT_13
 70
     0
  0
APPID
  2
GENIUS_GENCFG_13
 70
     0
  0
APPID
  2
GENIUS_GENCFG0_13
 70
     0
  0
APPID
  2
GENIUS_GENCFG1_13
 70
     0
  0
APPID
  2
GENIUS_GENCFG2_13
 70
     0
  0
APPID
  2
GENIUS_GENCFG3_13
 70
     0
  0
APPID
  2
GENIUS_GENCFG4_13
 70
     0
  0
APPID
  2
GENIUS_GEVCFG0_13
 70
     0
  0
APPID
  2
CONTENTBLOCKICON
 70
     0
  0
APPID
  2
CONTENTBLOCKDESCRIPTION
 70
     0
  0
ENDTAB
  0
TABLE
  2
DIMSTYLE
 70
     1
  0
DIMSTYLE
  2
STANDARD
 70
     0
  3

  4

  5
_ORIGIN
  6

  7

 40
1.0
 41
12.0
 42
20.0
 43
200.0
 44
20.0
 45
0.0
 46
0.0
 47
0.0
 48
0.0
140
64.0
141
0.09
142
0.0
143
25.399999999999999
144
1.0
145
0.0
146
1.0
147
25.0
 71
     0
 72
     0
 73
     0
 74
     0
 75
     0
 76
     0
 77
     1
 78
     8
170
     0
171
     2
172
     1
173
     0
174
     1
175
     0
176
     7
177
     7
178
     7
  0
ENDTAB
  0
TABLE
  2
VIEW
 70
     1
  0
VIEW
  2
ALL
 70
     0
 40
4282.6198079999986
 10
0.0
 20
41.309904000000003
 41
5940.0
 11
0.0
 21
0.0
 31
1.0
 12
0.0
 22
0.0
 32
0.0
 42
50.0
 43
0.0
 44
0.0
 50
0.0
 71
     0
  0
ENDTAB
  0
TABLE
  2
UCS
 70
     0
  0
ENDTAB
  0
TABLE
  2
VPORT
 70
     1
  0
VPORT
  2
*ACTIVE
 70
     0
 10
0.0
 20
0.0
 11
1.0
 21
1.0
 12
-18.272127783316591
 22
67.385542224925757
 13
0.0
 23
0.0
 14
1.0
 24
1.0
 15
0.0
 25
0.0
 16
0.0
 26
0.0
 36
1.0
 17
0.0
 27
0.0
 37
0.0
 40
1472.217381300273
 41
1.25
 42
50.0
 43
0.0
 44
0.0
 50
0.0
 51
0.0
 71
     0
 72
  1000
 73
     1
 74
     0
 75
     0
 76
     0
 77
     0
 78
     0
  0
ENDTAB
  0
ENDSEC
  0
SECTION
  2
BLOCKS
  0
BLOCK
  8
0
  2
_ORIGIN
 70
     0
 10
0.0
 20
0.0
 30
0.0
  3
_ORIGIN
  1

  0
CIRCLE
  8
0
  6
CONTINUOUS
 62
     7
 10
0.0
 20
0.0
 30
0.0
 40
0.5
  0
LINE
  8
0
  6
CONTINUOUS
 62
     7
 10
0.0
 20
0.0
 30
0.0
 11
-1.0
 21
0.0
 31
0.0
  0
ENDBLK
  8
0
  0
ENDSEC
  0
SECTION
  2
ENTITIES
  0
TEXT
  8
ETC
  6
CONTINUOUS
 62
    61
 10
314.75744076018327
 20
644.26038344985068
 30
0.0
 40
64.0
  1
PS-35UWD3_3
 41
0.9
  0
TEXT
  8
ETC
  6
CONTINUOUS
 62
    61
 10
310.57144676018288
 20
526.30507343501949
 30
0.0
 40
64.0
  1
システム部材
 41
0.9
  0
TEXT
  8
ETC
  6
CONTINUOUS
 62
    61
 10
361.27284500873878
 20
418.15630054879421
 30
0.0
 40
40.0
  1
PS-35UWD3
 50
0.0
 41
0.9
 51
0.0
  7
STANDARD
 71
     0
 11
0.0
 21
0.0
 31
0.0
210
0.0
220
0.0
230
1.0
  0
POINT
  8
ARRANGE
  6
CONTINUOUS
 62
     1
 10
0.0
 20
0.0
 30
0.0
 39
50.0
  0
CIRCLE
  8
ARRANGE
  6
CONTINUOUS
 62
     1
 39
50.0
 10
0.0
 20
0.0
 30
0.0
 40
40.0
  0
LINE
  8
BASIS
  6
DASHDOT
 62
     6
 39
50.0
 10
0.0
 20
309.56594650000011
 30
0.0
 11
0.0
 21
-309.56594650000011
 31
0.0
  0
LINE
  8
BASIS
  6
DASHDOT
 62
     6
 39
50.0
 10
-331.12112149999979
 20
0.0
 30
0.0
 11
331.12112149999979
 21
0.0
 31
0.0
  0
LINE
  8
DETAIL
  6
CONTINUOUS
 62
     5
 39
50.0
 10
-252.0
 20
-272.0
 30
0.0
 11
252.0
 21
-272.0
 31
0.0
  0
LINE
  8
DETAIL
  6
CONTINUOUS
 62
     5
 39
50.0
 10
272.0
 20
-252.0
 30
0.0
 11
272.0
 21
252.0
 31
0.0
  0
LINE
  8
DETAIL
  6
CONTINUOUS
 62
     5
 39
50.0
 10
252.0
 20
272.0
 30
0.0
 11
-252.0
 21
272.0
 31
0.0
  0
LINE
  8
DETAIL
  6
CONTINUOUS
 62
     5
 39
50.0
 10
-272.0
 20
252.0
 30
0.0
 11
-272.0
 21
-252.0
 31
0.0
  0
ARC
  8
DETAIL
  6
CONTINUOUS
 62
     5
 39
50.0
 10
-252.0
 20
-252.0
 30
0.0
 40
20.0
 50
180.0
 51
270.0
  0
ARC
  8
DETAIL
  6
CONTINUOUS
 62
     5
 39
50.0
 10
252.0
 20
-252.0
 30
0.0
 40
20.0
 50
270.0
 51
0.0
  0
ARC
  8
DETAIL
  6
CONTINUOUS
 62
     5
 39
50.0
 10
252.0
 20
252.0
 30
0.0
 40
20.0
 50
0.0
 51
90.0
  0
ARC
  8
DETAIL
  6
CONTINUOUS
 62
     5
 39
50.0
 10
-252.0
 20
252.0
 30
0.0
 40
20.0
 50
90.0
 51
180.0
  0
ARC
  8
OUTLINE
  6
CONTINUOUS
 62
     3
 39
50.0
 10
-252.0
 20
252.0
 30
0.0
 40
20.0
 50
90.0
 51
180.0
  0
LINE
  8
OUTLINE
  6
CONTINUOUS
 62
     3
 39
50.0
 10
-272.0
 20
252.0
 30
0.0
 11
-272.0
 21
-252.0
 31
0.0
  0
LINE
  8
OUTLINE
  6
CONTINUOUS
 62
     3
 39
50.0
 10
252.0
 20
272.0
 30
0.0
 11
-252.0
 21
272.0
 31
0.0
  0
ARC
  8
OUTLINE
  6
CONTINUOUS
 62
     3
 39
50.0
 10
252.0
 20
252.0
 30
0.0
 40
20.0
 50
0.0
 51
90.0
  0
LINE
  8
OUTLINE
  6
CONTINUOUS
 62
     3
 39
50.0
 10
272.0
 20
-252.0
 30
0.0
 11
272.0
 21
252.0
 31
0.0
  0
ARC
  8
OUTLINE
  6
CONTINUOUS
 62
     3
 39
50.0
 10
252.0
 20
-252.0
 30
0.0
 40
20.0
 50
270.0
 51
0.0
  0
LINE
  8
OUTLINE
  6
CONTINUOUS
 62
     3
 39
50.0
 10
-252.0
 20
-272.0
 30
0.0
 11
252.0
 21
-272.0
 31
0.0
  0
ARC
  8
OUTLINE
  6
CONTINUOUS
 62
     3
 39
50.0
 10
-252.0
 20
-252.0
 30
0.0
 40
20.0
 50
180.0
 51
270.0
  0
LINE
  8
DETAIL
  6
CONTINUOUS
 62
     5
 39
50.0
 10
-235.0
 20
-272.0
 30
0.0
 11
-235.0
 21
-235.0
 31
0.0
  0
LINE
  8
DETAIL
  6
CONTINUOUS
 62
     5
 39
50.0
 10
-235.0
 20
235.0
 30
0.0
 11
-272.0
 21
235.0
 31
0.0
  0
LINE
  8
DETAIL
  6
CONTINUOUS
 62
     5
 39
50.0
 10
235.0
 20
235.0
 30
0.0
 11
272.0
 21
235.0
 31
0.0
  0
LINE
  8
DETAIL
  6
CONTINUOUS
 62
     5
 39
50.0
 10
235.0
 20
-272.0
 30
0.0
 11
235.0
 21
-235.0
 31
0.0
  0
LINE
  8
DETAIL
  6
CONTINUOUS
 62
     5
 39
50.0
 10
-235.0
 20
-235.0
 30
0.0
 11
-272.0
 21
-235.0
 31
0.0
  0
LINE
  8
DETAIL
  6
CONTINUOUS
 62
     5
 39
50.0
 10
-272.0
 20
-235.0
 30
0.0
 11
-235.0
 21
-235.0
 31
0.0
  0
LINE
  8
DETAIL
  6
CONTINUOUS
 62
     5
 39
50.0
 10
235.0
 20
-235.0
 30
0.0
 11
272.0
 21
-235.0
 31
0.0
  0
LINE
  8
DETAIL
  6
CONTINUOUS
 62
     5
 39
50.0
 10
235.0
 20
235.0
 30
0.0
 11
235.0
 21
272.0
 31
0.0
  0
LINE
  8
DETAIL
  6
CONTINUOUS
 62
     5
 39
50.0
 10
-235.0
 20
235.0
 30
0.0
 11
-235.0
 21
272.0
 31
0.0
  0
LINE
  8
DETAIL
  6
CONTINUOUS
 62
     5
 39
50.0
 10
-184.8517677218592
 20
214.5
 30
0.0
 11
-214.5
 21
184.8517677218592
 31
0.0
  0
LINE
  8
NOTE
  6
CONTINUOUS
 62
     4
 10
217.0
 20
197.0
 30
0.0
 11
217.0
 21
237.0
 31
0.0
  0
LINE
  8
NOTE
  6
CONTINUOUS
 62
     4
 10
197.0
 20
217.0
 30
0.0
 11
237.0
 21
217.0
 31
0.0
  0
LINE
  8
NOTE
  6
CONTINUOUS
 62
     4
 10
217.0
 20
-237.0
 30
0.0
 11
217.0
 21
-197.0
 31
0.0
  0
LINE
  8
NOTE
  6
CONTINUOUS
 62
     4
 10
197.0
 20
-217.0
 30
0.0
 11
237.0
 21
-217.0
 31
0.0
  0
LINE
  8
NOTE
  6
CONTINUOUS
 62
     4
 10
-217.0
 20
197.0
 30
0.0
 11
-217.0
 21
237.0
 31
0.0
  0
LINE
  8
NOTE
  6
CONTINUOUS
 62
     4
 10
-237.0
 20
217.0
 30
0.0
 11
-197.0
 21
217.0
 31
0.0
  0
LINE
  8
NOTE
  6
CONTINUOUS
 62
     4
 10
-217.0
 20
-237.0
 30
0.0
 11
-217.0
 21
-197.0
 31
0.0
  0
LINE
  8
NOTE
  6
CONTINUOUS
 62
     4
 10
-237.0
 20
-217.0
 30
0.0
 11
-197.0
 21
-217.0
 31
0.0
  0
LINE
  8
NOTE
  6
CONTINUOUS
 62
     4
 10
257.0
 20
237.0
 30
0.0
 11
257.0
 21
277.0
 31
0.0
  0
LINE
  8
NOTE
  6
CONTINUOUS
 62
     4
 10
237.0
 20
257.0
 30
0.0
 11
277.0
 21
257.0
 31
0.0
  0
LINE
  8
NOTE
  6
CONTINUOUS
 62
     4
 10
257.0
 20
-277.0
 30
0.0
 11
257.0
 21
-237.0
 31
0.0
  0
LINE
  8
NOTE
  6
CONTINUOUS
 62
     4
 10
237.0
 20
-257.0
 30
0.0
 11
277.0
 21
-257.0
 31
0.0
  0
LINE
  8
NOTE
  6
CONTINUOUS
 62
     4
 10
-257.0
 20
237.0
 30
0.0
 11
-257.0
 21
277.0
 31
0.0
  0
LINE
  8
NOTE
  6
CONTINUOUS
 62
     4
 10
-277.0
 20
257.0
 30
0.0
 11
-237.0
 21
257.0
 31
0.0
  0
LINE
  8
NOTE
  6
CONTINUOUS
 62
     4
 10
-257.0
 20
-277.0
 30
0.0
 11
-257.0
 21
-237.0
 31
0.0
  0
LINE
  8
NOTE
  6
CONTINUOUS
 62
     4
 10
-277.0
 20
-257.0
 30
0.0
 11
-237.0
 21
-257.0
 31
0.0
  0
LINE
  8
NOTE
  6
CONTINUOUS
 62
     4
 10
-289.78973900000011
 20
279.90923500000008
 30
0.0
 11
-257.0
 21
257.0
 31
0.0
  0
LINE
  8
NOTE
  6
CONTINUOUS
 62
     4
 10
-257.0
 20
257.0
 30
0.0
 11
-273.94212900000002
 21
293.23484899999983
 31
0.0
  0
LINE
  8
NOTE
  6
CONTINUOUS
 62
     4
 10
240.5613059999998
 20
-184.67563000000001
 30
0.0
 11
217.0
 21
-217.0
 31
0.0
  0
LINE
  8
NOTE
  6
CONTINUOUS
 62
     4
 10
217.0
 20
-217.0
 30
0.0
 11
253.5668740000001
 21
-200.7869279999999
 31
0.0
  0
CIRCLE
  8
FIX
  6
CONTINUOUS
 62
    11
 39
50.0
 10
217.0
 20
217.0
 30
0.0
 40
4.0
  0
CIRCLE
  8
FIX
  6
CONTINUOUS
 62
    11
 39
50.0
 10
217.0
 20
-217.0
 30
0.0
 40
4.0
  0
CIRCLE
  8
FIX
  6
CONTINUOUS
 62
    11
 39
50.0
 10
-217.0
 20
217.0
 30
0.0
 40
4.0
  0
CIRCLE
  8
FIX
  6
CONTINUOUS
 62
    11
 39
50.0
 10
-217.0
 20
-217.0
 30
0.0
 40
4.0
  0
CIRCLE
  8
FIX
  6
CONTINUOUS
 62
    11
 39
50.0
 10
257.0
 20
257.0
 30
0.0
 40
8.0
  0
CIRCLE
  8
FIX
  6
CONTINUOUS
 62
    11
 39
50.0
 10
257.0
 20
-257.0
 30
0.0
 40
8.0
  0
CIRCLE
  8
FIX
  6
CONTINUOUS
 62
    11
 39
50.0
 10
-257.0
 20
257.0
 30
0.0
 40
8.0
  0
CIRCLE
  8
FIX
  6
CONTINUOUS
 62
    11
 39
50.0
 10
-257.0
 20
-257.0
 30
0.0
 40
8.0
  0
LINE
  8
NOTE
  6
CONTINUOUS
 62
     4
 39
50.0
 10
353.93511399999988
 20
-98.647027000000037
 30
0.0
 11
824.22649999999976
 21
-98.647027000000037
 31
0.0
  0
LINE
  8
NOTE
  6
CONTINUOUS
 62
     4
 39
50.0
 10
353.43511399999988
 20
-98.147027000000037
 30
0.0
 11
217.0
 21
-217.0
 31
0.0
  0
TEXT
  8
NOTE
  6
CONTINUOUS
 62
     4
 10
-874.83898299999998
 20
442.30273199999999
 30
0.0
 40
64.0
  1
4×φ16取付穴
 41
0.9
  0
LINE
  8
NOTE
  6
CONTINUOUS
 62
     4
 39
50.0
 10
-877.27104899999972
 20
417.99435499999993
 30
0.0
 11
-393.28915699999988
 21
417.99435499999993
 31
0.0
  0
LINE
  8
NOTE
  6
CONTINUOUS
 62
     4
 39
50.0
 10
-393.28915699999988
 20
417.99435499999993
 30
0.0
 11
-257.0
 21
257.0
 31
0.0
  0
LINE
  8
SIZE
  6
CONTINUOUS
 62
    30
 10
-237.5
 20
217.0
 30
0.0
 11
-407.16336100000001
 21
217.0
 31
0.0
  0
LINE
  8
SIZE
  6
CONTINUOUS
 62
    30
 10
-237.5
 20
-217.0
 30
0.0
 11
-407.16336100000001
 21
-217.0
 31
0.0
  0
LINE
  8
SIZE
  6
CONTINUOUS
 62
    30
 10
-387.16336100000001
 20
205.5
 30
0.0
 11
-387.16336100000001
 21
-205.5
 31
0.0
  0
CIRCLE
  8
SIZE
  6
CONTINUOUS
 62
    30
 10
-387.16336100000001
 20
217.0
 30
0.0
 40
6.0
  0
LINE
  8
SIZE
  6
CONTINUOUS
 62
    30
 10
-387.16336100000001
 20
217.0
 30
0.0
 11
-387.16336100000001
 21
205.0
 31
0.0
  0
CIRCLE
  8
SIZE
  6
CONTINUOUS
 62
    30
 10
-387.16336100000001
 20
-217.0
 30
0.0
 40
6.0
  0
LINE
  8
SIZE
  6
CONTINUOUS
 62
    30
 10
-387.16336100000001
 20
-217.0
 30
0.0
 11
-387.16336100000001
 21
-205.0
 31
0.0
  0
TEXT
  8
SIZE
  6
CONTINUOUS
 62
    30
 10
-412.16336099999978
 20
-75.428571428571416
 30
0.0
 40
64.0
  1
434
 50
90.0
 41
0.9
 72
     1
 11
-412.16336099999978
 21
0.0
 31
0.0
  0
LINE
  8
SIZE
  6
CONTINUOUS
 62
    30
 10
-277.0
 20
257.0
 30
0.0
 11
-723.23725427301724
 21
257.0
 31
0.0
  0
LINE
  8
SIZE
  6
CONTINUOUS
 62
    30
 10
-277.0
 20
-257.0
 30
0.0
 11
-725.12966193806005
 21
-257.0
 31
0.0
  0
LINE
  8
SIZE
  6
CONTINUOUS
 62
    30
 10
-702.49679872586955
 20
245.0
 30
0.0
 11
-702.49679872586955
 21
-245.0
 31
0.0
  0
CIRCLE
  8
SIZE
  6
CONTINUOUS
 62
    30
 10
-702.49679872586955
 20
257.0
 30
0.0
 40
6.0
  0
LINE
  8
SIZE
  6
CONTINUOUS
 62
    30
 10
-702.49679872586955
 20
257.0
 30
0.0
 11
-702.49679872586955
 21
245.0
 31
0.0
  0
CIRCLE
  8
SIZE
  6
CONTINUOUS
 62
    30
 10
-702.49679872586955
 20
-257.0
 30
0.0
 40
6.0
  0
LINE
  8
SIZE
  6
CONTINUOUS
 62
    30
 10
-702.49679872586955
 20
-257.0
 30
0.0
 11
-702.49679872586955
 21
-245.0
 31
0.0
  0
TEXT
  8
SIZE
  6
CONTINUOUS
 62
    30
 10
-727.49679872586944
 20
-69.942857142857122
 30
0.0
 40
64.0
  1
514
 50
90.0
 41
0.9
 72
     1
 11
-727.49679872586944
 21
0.0
 31
0.0
  0
LINE
  8
SIZE
  6
CONTINUOUS
 62
    30
 10
-272.0
 20
272.0
 30
0.0
 11
-865.16792257836914
 21
272.0
 31
0.0
  0
LINE
  8
SIZE
  6
CONTINUOUS
 62
    30
 10
-255.0
 20
-272.0
 30
0.0
 11
-868.95273790845567
 21
-272.0
 31
0.0
  0
LINE
  8
SIZE
  6
CONTINUOUS
 62
    30
 10
-843.78741061252992
 20
260.0
 30
0.0
 11
-843.78741061252992
 21
-260.0
 31
0.0
  0
CIRCLE
  8
SIZE
  6
CONTINUOUS
 62
    30
 10
-843.78741061252992
 20
272.0
 30
0.0
 40
6.0
  0
LINE
  8
SIZE
  6
CONTINUOUS
 62
    30
 10
-843.78741061252992
 20
272.0
 30
0.0
 11
-843.78741061252992
 21
260.0
 31
0.0
  0
CIRCLE
  8
SIZE
  6
CONTINUOUS
 62
    30
 10
-843.78741061252992
 20
-272.0
 30
0.0
 40
6.0
  0
LINE
  8
SIZE
  6
CONTINUOUS
 62
    30
 10
-843.78741061252992
 20
-272.0
 30
0.0
 11
-843.78741061252992
 21
-260.0
 31
0.0
  0
TEXT
  8
SIZE
  6
CONTINUOUS
 62
    30
 10
-868.78741061252992
 20
-75.428571428571416
 30
0.0
 40
64.0
  1
544
 50
90.0
 41
0.9
 72
     1
 11
-868.78741061252992
 21
0.0
 31
0.0
  0
LINE
  8
DETAIL
  6
CONTINUOUS
 62
     5
 39
50.0
 10
-228.5
 20
227.49999999999989
 30
0.0
 11
228.5
 21
227.49999999999989
 31
0.0
  0
LINE
  8
DETAIL
  6
CONTINUOUS
 62
     5
 39
50.0
 10
228.5
 20
227.49999999999989
 30
0.0
 11
228.5
 21
-227.49999999999989
 31
0.0
  0
LINE
  8
DETAIL
  6
CONTINUOUS
 62
     5
 39
50.0
 10
228.5
 20
-227.49999999999989
 30
0.0
 11
-228.5
 21
-227.49999999999989
 31
0.0
  0
LINE
  8
DETAIL
  6
CONTINUOUS
 62
     5
 39
50.0
 10
-228.5
 20
-227.49999999999989
 30
0.0
 11
-228.5
 21
227.49999999999989
 31
0.0
  0
LINE
  8
DETAIL
  6
CONTINUOUS
 62
     5
 39
50.0
 10
-209.0
 20
214.5
 30
0.0
 11
209.5
 21
214.5
 31
0.0
  0
LINE
  8
DETAIL
  6
CONTINUOUS
 62
     5
 39
50.0
 10
214.5
 20
209.5
 30
0.0
 11
214.5
 21
-209.5
 31
0.0
  0
LINE
  8
DETAIL
  6
CONTINUOUS
 62
     5
 39
50.0
 10
209.5
 20
-214.5
 30
0.0
 11
-209.5
 21
-214.5
 31
0.0
  0
LINE
  8
DETAIL
  6
CONTINUOUS
 62
     5
 39
50.0
 10
-214.5
 20
-209.5
 30
0.0
 11
-214.5
 21
209.5
 31
0.0
  0
LINE
  8
DETAIL
  6
CONTINUOUS
 62
     5
 39
50.0
 10
-209.5
 20
-214.5
 30
0.0
 11
-217.5
 21
-227.49999999999989
 31
0.0
  0
LINE
  8
DETAIL
  6
CONTINUOUS
 62
     5
 39
50.0
 10
-214.5
 20
-209.5
 30
0.0
 11
-228.5
 21
-217.5
 31
0.0
  0
ARC
  8
DETAIL
  6
CONTINUOUS
 62
     5
 39
50.0
 10
-206.13299599999999
 20
-204.3199539999998
 30
0.0
 40
24.111070000000002
 50
210.56793299999649
 51
244.2670819999982
  0
LINE
  8
DETAIL
  6
CONTINUOUS
 62
     5
 39
50.0
 10
-214.5
 20
209.5
 30
0.0
 11
-228.5
 21
217.5
 31
0.0
  0
LINE
  8
DETAIL
  6
CONTINUOUS
 62
     5
 39
50.0
 10
-209.0
 20
214.5
 30
0.0
 11
-217.5
 21
227.49999999999989
 31
0.0
  0
ARC
  8
DETAIL
  6
CONTINUOUS
 62
     5
 39
50.0
 10
-207.67268300000001
 20
206.51599699999969
 30
0.0
 40
21.433447999999991
 50
114.4344960000016
 51
152.38469699999931
  0
LINE
  8
DETAIL
  6
CONTINUOUS
 62
     5
 39
50.0
 10
209.0
 20
-214.5
 30
0.0
 11
217.0
 21
-227.49999999999989
 31
0.0
  0
LINE
  8
DETAIL
  6
CONTINUOUS
 62
     5
 39
50.0
 10
214.5
 20
-209.5
 30
0.0
 11
228.5
 21
-217.5
 31
0.0
  0
ARC
  8
DETAIL
  6
CONTINUOUS
 62
     5
 39
50.0
 10
209.12696399999999
 20
-208.05892499999999
 30
0.0
 40
19.465638999999999
 50
292.56889299999779
 51
334.42247799999728
  0
LINE
  8
DETAIL
  6
CONTINUOUS
 62
     5
 39
50.0
 10
209.5
 20
214.5
 30
0.0
 11
217.5
 21
227.49999999999989
 31
0.0
  0
LINE
  8
DETAIL
  6
CONTINUOUS
 62
     5
 39
50.0
 10
214.5
 20
209.5
 30
0.0
 11
228.5
 21
217.5
 31
0.0
  0
ARC
  8
DETAIL
  6
CONTINUOUS
 62
     5
 39
50.0
 10
203.26844099999971
 20
201.38379199999989
 30
0.0
 40
28.146581000000001
 50
32.747634000002591
 51
61.58399099999928
  0
LINE
  8
SIZE
  6
CONTINUOUS
 62
    30
 10
-87.192682192411212
 20
202.49999999999989
 30
0.0
 11
-87.192682192411212
 21
-202.49999999999989
 31
0.0
  0
CIRCLE
  8
SIZE
  6
CONTINUOUS
 62
    30
 10
-87.192682192411212
 20
214.5
 30
0.0
 40
6.0
  0
LINE
  8
SIZE
  6
CONTINUOUS
 62
    30
 10
-87.192682192411212
 20
214.5
 30
0.0
 11
-87.192682192411212
 21
202.49999999999989
 31
0.0
  0
CIRCLE
  8
SIZE
  6
CONTINUOUS
 62
    30
 10
-87.192682192411212
 20
-214.5
 30
0.0
 40
6.0
  0
LINE
  8
SIZE
  6
CONTINUOUS
 62
    30
 10
-87.192682192411212
 20
-214.5
 30
0.0
 11
-87.192682192411212
 21
-202.49999999999989
 31
0.0
  0
TEXT
  8
SIZE
  6
CONTINUOUS
 62
    30
 10
-112.1926821924112
 20
-72.685714285714283
 30
0.0
 40
64.0
  1
429
 50
90.0
 41
0.9
 72
     1
 11
-112.1926821924112
 21
0.0
 31
0.0
  0
LINE
  8
SIZE
  6
CONTINUOUS
 62
    30
 10
-202.49999999999989
 20
-161.641758512281
 30
0.0
 11
202.5
 21
-161.641758512281
 31
0.0
  0
CIRCLE
  8
SIZE
  6
CONTINUOUS
 62
    30
 10
-214.5
 20
-161.641758512281
 30
0.0
 40
6.0
  0
LINE
  8
SIZE
  6
CONTINUOUS
 62
    30
 10
-214.5
 20
-161.641758512281
 30
0.0
 11
-202.49999999999989
 21
-161.641758512281
 31
0.0
  0
CIRCLE
  8
SIZE
  6
CONTINUOUS
 62
    30
 10
214.5
 20
-161.641758512281
 30
0.0
 40
6.0
  0
LINE
  8
SIZE
  6
CONTINUOUS
 62
    30
 10
214.5
 20
-161.641758512281
 30
0.0
 11
202.5
 21
-161.641758512281
 31
0.0
  0
TEXT
  8
SIZE
  6
CONTINUOUS
 62
    30
 10
-72.685714285714283
 20
-136.641758512281
 30
0.0
 40
64.0
  1
429
 41
0.9
 72
     1
 11
0.0
 21
-136.641758512281
 31
0.0
  0
LINE
  8
SIZE
  6
CONTINUOUS
 62
    30
 10
-217.0
 20
237.5
 30
0.0
 11
-217.0
 21
424.75927177688868
 31
0.0
  0
LINE
  8
SIZE
  6
CONTINUOUS
 62
    30
 10
217.0
 20
237.5
 30
0.0
 11
217.0
 21
422.867654877576
 31
0.0
  0
LINE
  8
SIZE
  6
CONTINUOUS
 62
    30
 10
-205.5
 20
404.67931962581918
 30
0.0
 11
205.5
 21
404.67931962581918
 31
0.0
  0
CIRCLE
  8
SIZE
  6
CONTINUOUS
 62
    30
 10
-217.0
 20
404.67931962581918
 30
0.0
 40
6.0
  0
LINE
  8
SIZE
  6
CONTINUOUS
 62
    30
 10
-217.0
 20
404.67931962581918
 30
0.0
 11
-205.0
 21
404.67931962581918
 31
0.0
  0
CIRCLE
  8
SIZE
  6
CONTINUOUS
 62
    30
 10
217.0
 20
404.67931962581918
 30
0.0
 40
6.0
  0
LINE
  8
SIZE
  6
CONTINUOUS
 62
    30
 10
217.0
 20
404.67931962581918
 30
0.0
 11
205.0
 21
404.67931962581918
 31
0.0
  0
TEXT
  8
SIZE
  6
CONTINUOUS
 62
    30
 10
-75.428571428571416
 20
421.71543710717702
 30
0.0
 40
64.0
  1
434
 41
0.9
 72
     1
 11
0.0
 21
421.71543710717702
 31
0.0
  0
LINE
  8
SIZE
  6
CONTINUOUS
 62
    30
 10
-228.5
 20
229.0701381998733
 30
0.0
 11
-228.5
 21
559.06402297861132
 31
0.0
  0
LINE
  8
SIZE
  6
CONTINUOUS
 62
    30
 10
228.5
 20
232.54127140863321
 30
0.0
 11
228.5
 21
557.17240607929853
 31
0.0
  0
LINE
  8
SIZE
  6
CONTINUOUS
 62
    30
 10
-216.5
 20
537.05410562581937
 30
0.0
 11
216.5
 21
537.05410562581937
 31
0.0
  0
CIRCLE
  8
SIZE
  6
CONTINUOUS
 62
    30
 10
-228.5
 20
537.05410562581937
 30
0.0
 40
6.0
  0
LINE
  8
SIZE
  6
CONTINUOUS
 62
    30
 10
-228.5
 20
537.05410562581937
 30
0.0
 11
-216.5
 21
537.05410562581937
 31
0.0
  0
CIRCLE
  8
SIZE
  6
CONTINUOUS
 62
    30
 10
228.5
 20
537.05410562581937
 30
0.0
 40
6.0
  0
LINE
  8
SIZE
  6
CONTINUOUS
 62
    30
 10
228.5
 20
537.05410562581937
 30
0.0
 11
216.5
 21
537.05410562581937
 31
0.0
  0
TEXT
  8
SIZE
  6
CONTINUOUS
 62
    30
 10
-180.20571428571421
 20
578.81600962581933
 30
0.0
 40
64.0
  1
457(外寸)
 41
0.9
 72
     1
 11
0.0
 21
578.81600962581933
 31
0.0
  0
LINE
  8
SIZE
  6
CONTINUOUS
 62
    30
 10
-257.0
 20
-277.0
 30
0.0
 11
-257.0
 21
-445.27439600000002
 31
0.0
  0
LINE
  8
SIZE
  6
CONTINUOUS
 62
    30
 10
257.0
 20
-277.0
 30
0.0
 11
257.0
 21
-445.27439600000002
 31
0.0
  0
LINE
  8
SIZE
  6
CONTINUOUS
 62
    30
 10
-245.0
 20
-425.27439600000002
 30
0.0
 11
245.0
 21
-425.27439600000002
 31
0.0
  0
CIRCLE
  8
SIZE
  6
CONTINUOUS
 62
    30
 10
-257.0
 20
-425.27439600000002
 30
0.0
 40
6.0
  0
LINE
  8
SIZE
  6
CONTINUOUS
 62
    30
 10
-257.0
 20
-425.27439600000002
 30
0.0
 11
-245.0
 21
-425.27439600000002
 31
0.0
  0
CIRCLE
  8
SIZE
  6
CONTINUOUS
 62
    30
 10
257.0
 20
-425.27439600000002
 30
0.0
 40
6.0
  0
LINE
  8
SIZE
  6
CONTINUOUS
 62
    30
 10
257.0
 20
-425.27439600000002
 30
0.0
 11
245.0
 21
-425.27439600000002
 31
0.0
  0
TEXT
  8
SIZE
  6
CONTINUOUS
 62
    30
 10
-69.942857142857122
 20
-400.27439600000002
 30
0.0
 40
64.0
  1
514
 41
0.9
 72
     1
 11
0.0
 21
-400.27439600000002
 31
0.0
  0
LINE
  8
SIZE
  6
CONTINUOUS
 62
    30
 10
-272.0
 20
-272.0
 30
0.0
 11
-272.0
 21
-573.48929899999985
 31
0.0
  0
LINE
  8
SIZE
  6
CONTINUOUS
 62
    30
 10
272.0
 20
-272.0
 30
0.0
 11
272.0
 21
-573.48929899999985
 31
0.0
  0
LINE
  8
SIZE
  6
CONTINUOUS
 62
    30
 10
-260.0
 20
-553.48929900000007
 30
0.0
 11
260.0
 21
-553.48929900000007
 31
0.0
  0
CIRCLE
  8
SIZE
  6
CONTINUOUS
 62
    30
 10
-272.0
 20
-553.48929900000007
 30
0.0
 40
6.0
  0
LINE
  8
SIZE
  6
CONTINUOUS
 62
    30
 10
-272.0
 20
-553.48929900000007
 30
0.0
 11
-260.0
 21
-553.48929900000007
 31
0.0
  0
CIRCLE
  8
SIZE
  6
CONTINUOUS
 62
    30
 10
272.0
 20
-553.48929900000007
 30
0.0
 40
6.0
  0
LINE
  8
SIZE
  6
CONTINUOUS
 62
    30
 10
272.0
 20
-553.48929900000007
 30
0.0
 11
260.0
 21
-553.48929900000007
 31
0.0
  0
TEXT
  8
SIZE
  6
CONTINUOUS
 62
    30
 10
-75.428571428571416
 20
-528.48929900000007
 30
0.0
 40
64.0
  1
544
 41
0.9
 72
     1
 11
0.0
 21
-528.48929900000007
 31
0.0
  0
LINE
  8
SIZE
  6
CONTINUOUS
 62
    30
 10
-234.93525082540771
 20
227.49999999999989
 30
0.0
 11
-552.92045023043545
 21
227.49999999999989
 31
0.0
  0
LINE
  8
SIZE
  6
CONTINUOUS
 62
    30
 10
-233.19895392787461
 20
-227.49999999999989
 30
0.0
 11
-554.81285789547917
 21
-227.49999999999989
 31
0.0
  0
LINE
  8
SIZE
  6
CONTINUOUS
 62
    30
 10
-531.49687472586925
 20
215.5
 30
0.0
 11
-531.49687472586925
 21
-215.5
 31
0.0
  0
CIRCLE
  8
SIZE
  6
CONTINUOUS
 62
    30
 10
-531.49687472586925
 20
227.49999999999989
 30
0.0
 40
6.0
  0
LINE
  8
SIZE
  6
CONTINUOUS
 62
    30
 10
-531.49687472586925
 20
227.49999999999989
 30
0.0
 11
-531.49687472586925
 21
215.5
 31
0.0
  0
CIRCLE
  8
SIZE
  6
CONTINUOUS
 62
    30
 10
-531.49687472586925
 20
-227.49999999999989
 30
0.0
 40
6.0
  0
LINE
  8
SIZE
  6
CONTINUOUS
 62
    30
 10
-531.49687472586925
 20
-227.49999999999989
 30
0.0
 11
-531.49687472586925
 21
-215.5
 31
0.0
  0
TEXT
  8
SIZE
  6
CONTINUOUS
 62
    30
 10
-573.25877972586954
 20
-180.20571428571421
 30
0.0
 40
64.0
  1
455(外寸)
 50
90.0
 41
0.9
 72
     1
 11
-573.25877972586954
 21
0.0
 31
0.0
  0
LINE
  8
SIZE
  6
CONTINUOUS
 62
    30
 39
50.0
 10
-103.1701162400275
 20
214.5
 30
0.0
 11
-67.619283705116686
 21
214.5
 31
0.0
  0
LINE
  8
SIZE
  6
CONTINUOUS
 62
    30
 39
50.0
 10
-214.5
 20
-177.4795030550824
 30
0.0
 11
-214.5
 21
-142.7681821393048
 31
0.0
  0
LINE
  8
SIZE
  6
CONTINUOUS
 62
    30
 39
50.0
 10
-109.2471397969138
 20
-214.5
 30
0.0
 11
-65.014847262334115
 21
-214.5
 31
0.0
  0
LINE
  8
SIZE
  6
CONTINUOUS
 62
    30
 39
50.0
 10
214.5
 20
-178.3472846879921
 30
0.0
 11
214.5
 21
-142.7681821393048
 31
0.0
  0
TEXT
  8
NOTE
  6
CONTINUOUS
 62
     4
 10
368.10425495811609
 20
-80.314846529609781
 30
0.0
 40
64.0
  1
4×M8ボルト
 41
0.9
  0
LINE
  8
DETAIL
  6
CONTINUOUS
 62
     5
 39
50.0
 10
184.8517677218592
 20
214.5
 30
0.0
 11
214.5
 21
184.8517677218592
 31
0.0
  0
LINE
  8
DETAIL
  6
CONTINUOUS
 62
     5
 39
50.0
 10
-184.8517677218592
 20
-214.5
 30
0.0
 11
-214.5
 21
-184.8517677218592
 31
0.0
  0
LINE
  8
DETAIL
  6
CONTINUOUS
 62
     5
 39
50.0
 10
184.8517677218592
 20
-214.5
 30
0.0
 11
214.5
 21
-184.8517677218592
 31
0.0
  0
ENDSEC
  0
EOF
