  0
SECTION
  2
HEADER
  9
$ACADVER
  1
AC1009
  9
$INSBASE
 10
0.0
 20
0.0
 30
0.0
  9
$EXTMIN
 10
-628.76498000000015
 20
-508.92429199999998
 30
0.0
  9
$EXTMAX
 10
881.44098799999949
 20
594.79936006522371
 30
50.0
  9
$LIMMIN
 10
-2970.0
 20
-2100.0
  9
$LIMMAX
 10
2970.0
 20
2100.0
  9
$ORTHOMODE
 70
     1
  9
$REGENMODE
 70
     1
  9
$FILLMODE
 70
     1
  9
$QTEXTMODE
 70
     0
  9
$MIRRTEXT
 70
     0
  9
$DRAGMODE
 70
     2
  9
$LTSCALE
 40
20.0
  9
$OSMODE
 70
   167
  9
$ATTMODE
 70
     1
  9
$TEXTSIZE
 40
64.0
  9
$TRACEWID
 40
0.05
  9
$TEXTSTYLE
  7
STANDARD
  9
$CLAYER
  8
NOTE
  9
$CELTYPE
  6
CONTINUOUS
  9
$CECOLOR
 62
     4
  9
$DIMSCALE
 40
1.0
  9
$DIMASZ
 40
40.0
  9
$DIMEXO
 40
10.0
  9
$DIMDLI
 40
200.0
  9
$DIMRND
 40
0.0
  9
$DIMDLE
 40
0.0
  9
$DIMEXE
 40
20.0
  9
$DIMTP
 40
0.0
  9
$DIMTM
 40
0.0
  9
$DIMTXT
 40
64.0
  9
$DIMCEN
 40
0.09
  9
$DIMTSZ
 40
0.0
  9
$DIMTOL
 70
     0
  9
$DIMLIM
 70
     0
  9
$DIMTIH
 70
     0
  9
$DIMTOH
 70
     0
  9
$DIMSE1
 70
     0
  9
$DIMSE2
 70
     0
  9
$DIMTAD
 70
     1
  9
$DIMZIN
 70
     8
  9
$DIMBLK
  1
NONE
  9
$DIMASO
 70
     1
  9
$DIMSHO
 70
     0
  9
$DIMPOST
  1

  9
$DIMAPOST
  1

  9
$DIMALT
 70
     0
  9
$DIMALTD
 70
     2
  9
$DIMALTF
 40
25.399999999999999
  9
$DIMLFAC
 40
1.0
  9
$DIMTOFL
 70
     1
  9
$DIMTVP
 40
0.0
  9
$DIMTIX
 70
     1
  9
$DIMSOXD
 70
     0
  9
$DIMSAH
 70
     0
  9
$DIMBLK1
  1
NONE
  9
$DIMBLK2
  1
ORIGIN
  9
$DIMSTYLE
  2
STANDARD
  9
$DIMCLRD
 70
   256
  9
$DIMCLRE
 70
   256
  9
$DIMCLRT
 70
   256
  9
$DIMTFAC
 40
1.0
  9
$DIMGAP
 40
20.0
  9
$LUNITS
 70
     2
  9
$LUPREC
 70
     4
  9
$SKETCHINC
 40
0.1
  9
$FILLETRAD
 40
20.0
  9
$AUNITS
 70
     1
  9
$AUPREC
 70
     3
  9
$MENU
  1
ACAD
  9
$ELEVATION
 40
0.0
  9
$PELEVATION
 40
0.0
  9
$THICKNESS
 40
50.0
  9
$LIMCHECK
 70
     0
  9
$BLIPMODE
 70
     0
  9
$CHAMFERA
 40
0.0
  9
$CHAMFERB
 40
0.0
  9
$SKPOLY
 70
     0
  9
$TDCREATE
 40
2453019.6230103699
  9
$TDUPDATE
 40
2455147.6612351621
  9
$TDINDWG
 40
0.4200008796
  9
$TDUSRTIMER
 40
0.4200008796
  9
$USRTIMER
 70
     1
  9
$ANGBASE
 50
0.0
  9
$ANGDIR
 70
     0
  9
$PDMODE
 70
     3
  9
$PDSIZE
 40
-2.0
  9
$PLINEWID
 40
0.0
  9
$COORDS
 70
     2
  9
$SPLFRAME
 70
     0
  9
$SPLINETYPE
 70
     6
  9
$SPLINESEGS
 70
     8
  9
$ATTDIA
 70
     0
  9
$ATTREQ
 70
     1
  9
$HANDLING
 70
 22529
  9
$HANDSEED
  5
3DC
  9
$SURFTAB1
 70
     6
  9
$SURFTAB2
 70
     6
  9
$SURFTYPE
 70
     6
  9
$SURFU
 70
     6
  9
$SURFV
 70
     6
  9
$UCSNAME
  2

  9
$UCSORG
 10
0.0
 20
0.0
 30
0.0
  9
$UCSXDIR
 10
1.0
 20
0.0
 30
0.0
  9
$UCSYDIR
 10
0.0
 20
1.0
 30
0.0
  9
$PUCSNAME
  2

  9
$PUCSORG
 10
0.0
 20
0.0
 30
0.0
  9
$PUCSXDIR
 10
1.0
 20
0.0
 30
0.0
  9
$PUCSYDIR
 10
0.0
 20
1.0
 30
0.0
  9
$USERI1
 70
     0
  9
$USERI2
 70
     0
  9
$USERI3
 70
     0
  9
$USERI4
 70
     0
  9
$USERI5
 70
     0
  9
$USERR1
 40
20.0
  9
$USERR2
 40
0.0
  9
$USERR3
 40
0.0
  9
$USERR4
 40
0.0
  9
$USERR5
 40
0.0
  9
$WORLDVIEW
 70
     1
  9
$SHADEDGE
 70
     3
  9
$SHADEDIF
 70
    70
  9
$TILEMODE
 70
     1
  9
$MAXACTVP
 70
    48
  9
$PLIMCHECK
 70
     0
  9
$PEXTMIN
 10
-1.0000000000000000E+020
 20
-1.0000000000000000E+020
 30
-1.0000000000000000E+020
  9
$PEXTMAX
 10
1.0000000000000000E+020
 20
1.0000000000000000E+020
 30
1.0000000000000000E+020
  9
$PLIMMIN
 10
0.0
 20
0.0
  9
$PLIMMAX
 10
12.0
 20
9.0
  9
$UNITMODE
 70
     0
  9
$VISRETAIN
 70
     0
  9
$PLINEGEN
 70
     0
  9
$PSLTSCALE
 70
     0
  0
ENDSEC
  0
SECTION
  2
TABLES
  0
TABLE
  2
VPORT
 70
     3
  0
VPORT
  2
*ACTIVE
 70
     0
 10
0.0
 20
0.0
 11
1.0
 21
1.0
 12
126.3340069543537
 22
42.938703466126299
 13
0.0
 23
0.0
 14
1.0
 24
1.0
 15
0.0
 25
0.0
 16
0.0
 26
0.0
 36
1.0
 17
0.0
 27
0.0
 37
0.0
 40
1198.510850745216
 41
1.493654822335025
 42
50.0
 43
0.0
 44
0.0
 50
0.0
 51
0.0
 71
     0
 72
  1000
 73
     1
 74
     0
 75
     0
 76
     0
 77
     0
 78
     0
  0
ENDTAB
  0
TABLE
  2
LTYPE
 70
     2
  0
LTYPE
  2
CONTINUOUS
 70
     0
  3
実線
 72
    65
 73
     0
 40
0.0
  0
LTYPE
  2
DASHDOT
 70
     0
  3
____ _ ____ _ ____ _ ____ _ ____ _ ____ _ ____
 72
    65
 73
     4
 40
5.5
 49
4.0
 49
-0.6
 49
0.3
 49
-0.6
  0
ENDTAB
  0
TABLE
  2
LAYER
 70
    12
  0
LAYER
  2
0
 70
     0
 62
     7
  6
CONTINUOUS
  0
LAYER
  2
NOTE
 70
     0
 62
     4
  6
CONTINUOUS
  0
LAYER
  2
SIZE
 70
     0
 62
    30
  6
CONTINUOUS
  0
LAYER
  2
BASIS
 70
     0
 62
     6
  6
DASHDOT
  0
LAYER
  2
OUTLINE
 70
     0
 62
     3
  6
CONTINUOUS
  0
LAYER
  2
DETAIL
 70
     0
 62
     5
  6
CONTINUOUS
  0
LAYER
  2
ARRANGE
 70
     0
 62
     1
  6
CONTINUOUS
  0
LAYER
  2
DEFPOINTS
 70
     0
 62
     7
  6
CONTINUOUS
  0
LAYER
  2
ETC
 70
     0
 62
    61
  6
CONTINUOUS
  0
LAYER
  2
FIX
 70
     0
 62
    11
  6
CONTINUOUS
  0
LAYER
  2
SERVICESPACE
 70
     0
 62
     2
  6
DASHDOT
  0
LAYER
  2
SYMBOLLINE
 70
     0
 62
    15
  6
CONTINUOUS
  0
ENDTAB
  0
TABLE
  2
STYLE
 70
     1
  0
STYLE
  2
STANDARD
 70
     0
 40
64.0
 41
0.9
 50
0.0
 71
     0
 42
64.0
  3
SIMPLEX.shx
  4
BIGFONT.shx
  0
ENDTAB
  0
TABLE
  2
VIEW
 70
     1
  0
VIEW
  2
ALL
 70
     0
 40
4282.6198079999967
 10
0.0
 20
41.309903999999989
 41
5940.0
 11
0.0
 21
0.0
 31
1.0
 12
0.0
 22
0.0
 32
0.0
 42
50.0
 43
0.0
 44
0.0
 50
0.0
 71
     0
  0
ENDTAB
  0
TABLE
  2
UCS
 70
     0
  0
ENDTAB
  0
TABLE
  2
APPID
 70
     2
  0
APPID
  2
ACAD
 70
     0
  0
APPID
  2
AUTOCAD_POSTSCRIPT_FIGURE
 70
     0
  0
ENDTAB
  0
TABLE
  2
DIMSTYLE
 70
     1
  0
DIMSTYLE
  2
STANDARD
 70
     0
  3

  4

  5

  6

  7

 40
1.0
 41
0.18
 42
0.0625
 43
0.38
 44
0.18
 45
0.0
 46
0.0
 47
0.0
 48
0.0
140
0.18
141
0.09
142
0.0
143
25.399999999999999
144
1.0
145
0.0
146
1.0
147
0.09
 71
     0
 72
     0
 73
     1
 74
     1
 75
     0
 76
     0
 77
     0
 78
     0
170
     0
171
     2
172
     0
173
     0
174
     0
175
     0
176
     7
177
     7
178
     7
  0
ENDTAB
  0
ENDSEC
  0
SECTION
  2
BLOCKS
  0
BLOCK
  8
0
  2
$MODEL_SPACE
 70
     0
 10
0.0
 20
0.0
 30
0.0
  3
$MODEL_SPACE
  1

  0
ENDBLK
  5
2D1
  8
0
  0
BLOCK
 67
     1
  8
0
  2
$PAPER_SPACE
 70
     0
 10
0.0
 20
0.0
 30
0.0
  3
$PAPER_SPACE
  1

  0
ENDBLK
  5
2CD
 67
     1
  8
0
  0
BLOCK
  8
0
  2
DOT1
 70
     0
 10
0.0
 20
0.0
 30
0.0
  3
DOT1
  1

  0
CIRCLE
  5
2ED
  8
SIZE
  6
CONTINUOUS
 62
     7
 10
0.0
 20
0.0
 30
0.0
 40
3.0
  0
ENDBLK
  5
2EE
  8
0
  0
BLOCK
  8
0
  2
_ORIGIN
 70
     0
 10
0.0
 20
0.0
 30
0.0
  3
_ORIGIN
  1

  0
CIRCLE
  5
2F1
  8
0
  6
CONTINUOUS
 62
     7
 10
0.0
 20
0.0
 30
0.0
 40
0.5
  0
LINE
  5
2F2
  8
0
  6
CONTINUOUS
 62
     7
 10
0.0
 20
0.0
 30
0.0
 11
-1.0
 21
0.0
 31
0.0
  0
ENDBLK
  5
2F3
  8
0
  0
BLOCK
  8
0
 62
     4
  2
_NONE
 70
     0
 10
0.0
 20
0.0
 30
0.0
  3
_NONE
  1

  0
ENDBLK
  5
2F6
  8
0
 62
     4
  0
BLOCK
  8
0
 62
     4
  2
_OPEN30
 70
     0
 10
0.0
 20
0.0
 30
0.0
  3
_OPEN30
  1

  0
LINE
  5
2F9
  8
0
  6
BYBLOCK
 62
     0
 10
-1.0
 20
0.26794919
 30
0.0
 11
0.0
 21
0.0
 31
0.0
  0
LINE
  5
2FA
  8
0
  6
BYBLOCK
 62
     0
 10
0.0
 20
0.0
 30
0.0
 11
-1.0
 21
-0.26794919
 31
0.0
  0
LINE
  5
2FB
  8
0
  6
BYBLOCK
 62
     0
 10
0.0
 20
0.0
 30
0.0
 11
-1.0
 21
0.0
 31
0.0
  0
ENDBLK
  5
2FC
  8
0
 62
     4
  0
BLOCK
  8
0
 62
    30
  2
*D6
 70
     1
 10
0.0
 20
0.0
 30
0.0
  3
*D6
  1

  0
LINE
  5
2FF
  8
SIZE
  6
CONTINUOUS
 10
-217.0
 20
302.0
 30
0.0
 11
-217.0
 21
392.75888804183199
 31
0.0
  0
LINE
  5
300
  8
SIZE
  6
CONTINUOUS
 10
217.0
 20
302.0
 30
0.0
 11
217.0
 21
392.75888804183199
 31
0.0
  0
LINE
  5
301
  8
SIZE
  6
CONTINUOUS
 10
-217.0
 20
372.75888804183188
 30
0.0
 11
217.0
 21
372.75888804183188
 31
0.0
  0
TEXT
  5
302
  8
NOTE
  6
CONTINUOUS
 10
-75.428571428571402
 20
392.75888804183199
 30
0.0
 40
64.0
  1
434
 41
0.9
  0
POINT
  5
303
  8
DEFPOINTS
  6
CONTINUOUS
 62
     0
 10
-217.0
 20
292.0
 30
0.0
  0
POINT
  5
304
  8
DEFPOINTS
  6
CONTINUOUS
 62
     0
 10
217.0
 20
292.0
 30
0.0
  0
POINT
  5
305
  8
DEFPOINTS
  6
CONTINUOUS
 62
     0
 10
217.0
 20
372.75888804183188
 30
0.0
  0
ENDBLK
  5
306
  8
0
 62
    30
  0
ENDSEC
  0
SECTION
  2
ENTITIES
  0
POINT
  5
307
  8
ARRANGE
  6
CONTINUOUS
 62
     1
 10
0.0
 20
0.0
 30
0.0
 39
50.0
  0
CIRCLE
  5
308
  8
ARRANGE
  6
CONTINUOUS
 62
     1
 39
50.0
 10
0.0
 20
0.0
 30
0.0
 40
40.0
  0
LINE
  5
309
  8
NOTE
  6
CONTINUOUS
 62
     4
 10
-217.0
 20
252.0
 30
0.0
 11
-217.0
 21
292.0
 31
0.0
  0
LINE
  5
30A
  8
NOTE
  6
CONTINUOUS
 62
     4
 10
-237.0
 20
272.0
 30
0.0
 11
-197.0
 21
272.0
 31
0.0
  0
LINE
  5
30B
  8
NOTE
  6
CONTINUOUS
 62
     4
 10
-217.5
 20
-54.0
 30
0.0
 11
-217.5
 21
-14.0
 31
0.0
  0
LINE
  5
30C
  8
NOTE
  6
CONTINUOUS
 62
     4
 10
-237.5
 20
-34.0
 30
0.0
 11
-197.5
 21
-34.0
 31
0.0
  0
LINE
  5
30D
  8
NOTE
  6
CONTINUOUS
 62
     4
 10
257.0
 20
-20.0
 30
0.0
 11
257.0
 21
20.0
 31
0.0
  0
LINE
  5
30E
  8
NOTE
  6
CONTINUOUS
 62
     4
 10
237.0
 20
0.0
 30
0.0
 11
277.0
 21
0.0
 31
0.0
  0
LINE
  5
30F
  8
NOTE
  6
CONTINUOUS
 62
     4
 10
250.20725200000001
 20
249.70025899999999
 30
0.0
 11
217.0
 21
272.0
 31
0.0
  0
LINE
  5
310
  8
NOTE
  6
CONTINUOUS
 62
     4
 10
217.0
 20
272.0
 30
0.0
 11
234.60845299999991
 21
236.0842319999999
 31
0.0
  0
LINE
  5
311
  8
NOTE
  6
CONTINUOUS
 62
     4
 10
289.05681399999992
 20
-23.924060999999998
 30
0.0
 11
257.0
 21
0.0
 31
0.0
  0
LINE
  5
312
  8
NOTE
  6
CONTINUOUS
 62
     4
 10
257.0
 20
0.0
 30
0.0
 11
272.79998399999982
 21
-36.747252000000003
 31
0.0
  0
TEXT
  5
313
  8
NOTE
  6
CONTINUOUS
 62
     4
 10
397.60098799999992
 20
-154.58109899999991
 30
0.0
 40
64.0
  1
4×φ16取付穴
 41
0.9
  0
TEXT
  5
314
  8
NOTE
  6
CONTINUOUS
 62
     4
 10
340.75194499999992
 20
152.78538999999981
 30
0.0
 40
64.0
  1
4×M8ボルト
 41
0.9
  0
LINE
  5
315
  8
NOTE
  6
CONTINUOUS
 62
     4
 39
50.0
 10
767.81768199999999
 20
136.89206200000001
 30
0.0
 11
335.072879
 21
136.89206200000001
 31
0.0
  0
LINE
  5
316
  8
NOTE
  6
CONTINUOUS
 62
     4
 39
50.0
 10
334.57287899999989
 20
136.89206200000001
 30
0.0
 11
217.0
 21
272.0
 31
0.0
  0
LINE
  5
317
  8
NOTE
  6
CONTINUOUS
 62
     4
 39
50.0
 10
387.46027199999997
 20
-163.46888000000001
 30
0.0
 11
869.14858000000004
 21
-163.46888000000001
 31
0.0
  0
LINE
  5
318
  8
NOTE
  6
CONTINUOUS
 62
     4
 39
50.0
 10
387.46027199999997
 20
-163.46888000000001
 30
0.0
 11
257.0
 21
0.0
 31
0.0
  0
LINE
  5
319
  8
NOTE
  6
CONTINUOUS
 62
     4
 10
217.0
 20
292.0
 30
0.0
 11
217.0
 21
252.0
 31
0.0
  0
LINE
  5
31A
  8
NOTE
  6
CONTINUOUS
 62
     4
 10
237.0
 20
272.0
 30
0.0
 11
197.0
 21
272.0
 31
0.0
  0
LINE
  5
31B
  8
NOTE
  6
CONTINUOUS
 62
     4
 10
-257.0
 20
20.0
 30
0.0
 11
-257.0
 21
-20.0
 31
0.0
  0
LINE
  5
31C
  8
BASIS
  6
DASHDOT
 62
     6
 39
50.0
 10
0.0
 20
285.41309523307098
 30
0.0
 11
0.0
 21
-83.009201000000004
 31
0.0
  0
LINE
  5
31D
  8
DETAIL
  6
CONTINUOUS
 62
     5
 39
50.0
 10
-272.0
 20
0.0
 30
0.0
 11
272.0
 21
0.0
 31
0.0
  0
LINE
  5
31E
  8
DETAIL
  6
CONTINUOUS
 62
     5
 39
50.0
 10
-234.5
 20
0.0
 30
0.0
 11
-234.5
 21
-11.0
 31
0.0
  0
LINE
  5
31F
  8
DETAIL
  6
CONTINUOUS
 62
     5
 39
50.0
 10
234.5
 20
0.0
 30
0.0
 11
234.5
 21
-11.0
 31
0.0
  0
LINE
  5
320
  8
DETAIL
  6
CONTINUOUS
 62
     5
 39
50.0
 10
234.5
 20
-11.0
 30
0.0
 11
-234.5
 21
-11.0
 31
0.0
  0
LINE
  5
321
  8
DETAIL
  6
CONTINUOUS
 62
     5
 39
50.0
 10
-213.5
 20
-11.0
 30
0.0
 11
-213.5
 21
-34.0
 31
0.0
  0
LINE
  5
322
  8
DETAIL
  6
CONTINUOUS
 62
     5
 39
50.0
 10
-213.5
 20
-34.0
 30
0.0
 11
-221.4999999999998
 21
-34.0
 31
0.0
  0
LINE
  5
323
  8
DETAIL
  6
CONTINUOUS
 62
     5
 39
50.0
 10
-221.4999999999998
 20
-34.0
 30
0.0
 11
-221.4999999999998
 21
-11.0
 31
0.0
  0
LINE
  5
324
  8
DETAIL
  6
CONTINUOUS
 62
     5
 39
50.0
 10
213.5
 20
-34.0
 30
0.0
 11
213.5
 21
-11.0
 31
0.0
  0
LINE
  5
325
  8
DETAIL
  6
CONTINUOUS
 62
     5
 39
50.0
 10
221.4999999999998
 20
-34.0
 30
0.0
 11
213.5
 21
-34.0
 31
0.0
  0
LINE
  5
326
  8
DETAIL
  6
CONTINUOUS
 62
     5
 39
50.0
 10
221.4999999999998
 20
-11.0
 30
0.0
 11
221.4999999999998
 21
-34.0
 31
0.0
  0
LINE
  5
327
  8
NOTE
  6
CONTINUOUS
 62
     4
 10
217.5
 20
-54.0
 30
0.0
 11
217.5
 21
-14.0
 31
0.0
  0
LINE
  5
328
  8
NOTE
  6
CONTINUOUS
 62
     4
 10
197.5
 20
-34.0
 30
0.0
 11
237.5
 21
-34.0
 31
0.0
  0
CIRCLE
  5
329
  8
FIX
  6
CONTINUOUS
 62
    11
 39
50.0
 10
257.0
 20
0.0
 30
0.0
 40
8.0
  0
CIRCLE
  5
32A
  8
FIX
  6
CONTINUOUS
 62
    11
 39
50.0
 10
-257.0
 20
0.0
 30
0.0
 40
8.0
  0
LINE
  5
32B
  8
DETAIL
  6
CONTINUOUS
 62
     5
 39
50.0
 10
-203.0
 20
250.0
 30
0.0
 11
203.0
 21
250.0
 31
0.0
  0
LINE
  5
32C
  8
DETAIL
  6
CONTINUOUS
 62
     5
 39
50.0
 10
228.5
 20
250.0
 30
0.0
 11
228.5
 21
0.0
 31
0.0
  0
LINE
  5
32D
  8
DETAIL
  6
CONTINUOUS
 62
     5
 39
50.0
 10
-228.5
 20
249.0
 30
0.0
 11
-228.5
 21
0.0
 31
0.0
  0
LINE
  5
32E
  8
DETAIL
  6
CONTINUOUS
 62
     5
 39
50.0
 10
-203.0
 20
249.0
 30
0.0
 11
-228.5
 21
249.0
 31
0.0
  0
LINE
  5
32F
  8
DETAIL
  6
CONTINUOUS
 62
     5
 39
50.0
 10
-203.0
 20
249.0
 30
0.0
 11
-203.0
 21
250.0
 31
0.0
  0
LINE
  5
330
  8
DETAIL
  6
CONTINUOUS
 62
     5
 39
50.0
 10
-203.0
 20
249.5
 30
0.0
 11
-228.5
 21
249.5
 31
0.0
  0
LINE
  5
331
  8
DETAIL
  6
CONTINUOUS
 62
     5
 39
50.0
 10
-213.0
 20
249.5
 30
0.0
 11
-213.0
 21
272.0
 31
0.0
  0
LINE
  5
332
  8
DETAIL
  6
CONTINUOUS
 62
     5
 39
50.0
 10
-213.0
 20
272.0
 30
0.0
 11
-220.99999999999989
 21
272.0
 31
0.0
  0
LINE
  5
333
  8
DETAIL
  6
CONTINUOUS
 62
     5
 39
50.0
 10
-213.5
 20
250.0
 30
0.0
 11
-228.5
 21
250.0
 31
0.0
  0
LINE
  5
334
  8
DETAIL
  6
CONTINUOUS
 62
     5
 39
50.0
 10
-228.5
 20
250.0
 30
0.0
 11
-228.5
 21
249.0
 31
0.0
  0
LINE
  5
335
  8
DETAIL
  6
CONTINUOUS
 62
     5
 39
50.0
 10
-220.99999999999989
 20
250.0
 30
0.0
 11
-220.99999999999989
 21
272.0
 31
0.0
  0
LINE
  5
336
  8
DETAIL
  6
CONTINUOUS
 62
     5
 39
50.0
 10
213.0
 20
249.5
 30
0.0
 11
213.0
 21
272.0
 31
0.0
  0
LINE
  5
337
  8
DETAIL
  6
CONTINUOUS
 62
     5
 39
50.0
 10
220.99999999999989
 20
250.0
 30
0.0
 11
220.99999999999989
 21
272.0
 31
0.0
  0
LINE
  5
338
  8
DETAIL
  6
CONTINUOUS
 62
     5
 39
50.0
 10
220.99999999999989
 20
272.0
 30
0.0
 11
213.0
 21
272.0
 31
0.0
  0
LINE
  5
339
  8
DETAIL
  6
CONTINUOUS
 62
     5
 39
50.0
 10
228.5
 20
249.0
 30
0.0
 11
203.0
 21
249.0
 31
0.0
  0
LINE
  5
33A
  8
DETAIL
  6
CONTINUOUS
 62
     5
 39
50.0
 10
203.0
 20
249.0
 30
0.0
 11
203.0
 21
250.0
 31
0.0
  0
LINE
  5
33B
  8
DETAIL
  6
CONTINUOUS
 62
     5
 39
50.0
 10
203.0
 20
249.5
 30
0.0
 11
228.5
 21
249.5
 31
0.0
  0
LINE
  5
33C
  8
DETAIL
  6
CONTINUOUS
 62
     5
 39
50.0
 10
213.5
 20
250.0
 30
0.0
 11
228.5
 21
250.0
 31
0.0
  0
LINE
  5
33D
  8
OUTLINE
  6
CONTINUOUS
 62
     3
 39
50.0
 10
234.5
 20
-11.0
 30
0.0
 11
-234.5
 21
-11.0
 31
0.0
  0
LINE
  5
33E
  8
OUTLINE
  6
CONTINUOUS
 62
     3
 39
50.0
 10
-203.0
 20
250.0
 30
0.0
 11
203.0
 21
250.0
 31
0.0
  0
LINE
  5
33F
  8
OUTLINE
  6
CONTINUOUS
 62
     3
 39
50.0
 10
-272.0
 20
0.0
 30
0.0
 11
272.0
 21
0.0
 31
0.0
  0
LINE
  5
340
  8
OUTLINE
  6
CONTINUOUS
 62
     3
 39
50.0
 10
-228.5
 20
249.0
 30
0.0
 11
-228.5
 21
0.0
 31
0.0
  0
LINE
  5
341
  8
OUTLINE
  6
CONTINUOUS
 62
     3
 39
50.0
 10
-234.5
 20
0.0
 30
0.0
 11
-234.5
 21
-11.0
 31
0.0
  0
LINE
  5
342
  8
OUTLINE
  6
CONTINUOUS
 62
     3
 39
50.0
 10
-203.0
 20
249.0
 30
0.0
 11
-228.5
 21
249.0
 31
0.0
  0
LINE
  5
343
  8
OUTLINE
  6
CONTINUOUS
 62
     3
 39
50.0
 10
-203.0
 20
249.0
 30
0.0
 11
-203.0
 21
250.0
 31
0.0
  0
LINE
  5
344
  8
OUTLINE
  6
CONTINUOUS
 62
     3
 39
50.0
 10
228.5
 20
249.0
 30
0.0
 11
228.5
 21
0.0
 31
0.0
  0
LINE
  5
345
  8
OUTLINE
  6
CONTINUOUS
 62
     3
 39
50.0
 10
234.5
 20
0.0
 30
0.0
 11
234.5
 21
-11.0
 31
0.0
  0
LINE
  5
346
  8
OUTLINE
  6
CONTINUOUS
 62
     3
 39
50.0
 10
203.0
 20
249.0
 30
0.0
 11
203.0
 21
250.0
 31
0.0
  0
LINE
  5
347
  8
OUTLINE
  6
CONTINUOUS
 62
     3
 39
50.0
 10
228.5
 20
249.0
 30
0.0
 11
203.0
 21
249.0
 31
0.0
  0
LINE
  5
348
  8
SIZE
  6
CONTINUOUS
 62
    30
 10
-217.5
 20
-54.0
 30
0.0
 11
-217.5
 21
-228.9266979999999
 31
0.0
  0
LINE
  5
349
  8
SIZE
  6
CONTINUOUS
 62
    30
 10
217.5
 20
-54.0
 30
0.0
 11
217.5
 21
-228.9266979999999
 31
0.0
  0
LINE
  5
34A
  8
SIZE
  6
CONTINUOUS
 62
    30
 10
-205.5
 20
-208.92669799999999
 30
0.0
 11
205.5
 21
-208.92669799999999
 31
0.0
  0
CIRCLE
  5
34B
  8
SIZE
  6
CONTINUOUS
 62
    30
 10
-217.5
 20
-208.92669799999999
 30
0.0
 40
6.0
  0
LINE
  5
34C
  8
SIZE
  6
CONTINUOUS
 62
    30
 10
-217.5
 20
-208.92669799999999
 30
0.0
 11
-205.5
 21
-208.92669799999999
 31
0.0
  0
CIRCLE
  5
34D
  8
SIZE
  6
CONTINUOUS
 62
    30
 10
217.5
 20
-208.92669799999999
 30
0.0
 40
6.0
  0
LINE
  5
34E
  8
SIZE
  6
CONTINUOUS
 62
    30
 10
217.5
 20
-208.92669799999999
 30
0.0
 11
205.5
 21
-208.92669799999999
 31
0.0
  0
TEXT
  5
34F
  8
SIZE
  6
CONTINUOUS
 62
    30
 10
-74.05714285714285
 20
-183.9266979999999
 30
0.0
 40
64.0
  1
435
 41
0.9
 72
     1
 11
0.0
 21
-183.9266979999999
 31
0.0
  0
LINE
  5
350
  8
SIZE
  6
CONTINUOUS
 62
    30
 10
-257.0
 20
-20.0
 30
0.0
 11
-257.0
 21
-373.72405800000001
 31
0.0
  0
LINE
  5
351
  8
SIZE
  6
CONTINUOUS
 62
    30
 10
257.0
 20
-20.0
 30
0.0
 11
257.0
 21
-373.72405800000001
 31
0.0
  0
LINE
  5
352
  8
SIZE
  6
CONTINUOUS
 62
    30
 10
-245.0
 20
-353.72405800000001
 30
0.0
 11
245.0
 21
-353.72405800000001
 31
0.0
  0
CIRCLE
  5
353
  8
SIZE
  6
CONTINUOUS
 62
    30
 10
-257.0
 20
-353.72405800000001
 30
0.0
 40
6.0
  0
LINE
  5
354
  8
SIZE
  6
CONTINUOUS
 62
    30
 10
-257.0
 20
-353.72405800000001
 30
0.0
 11
-245.0
 21
-353.72405800000001
 31
0.0
  0
CIRCLE
  5
355
  8
SIZE
  6
CONTINUOUS
 62
    30
 10
257.0
 20
-353.72405800000001
 30
0.0
 40
6.0
  0
LINE
  5
356
  8
SIZE
  6
CONTINUOUS
 62
    30
 10
257.0
 20
-353.72405800000001
 30
0.0
 11
245.0
 21
-353.72405800000001
 31
0.0
  0
TEXT
  5
357
  8
SIZE
  6
CONTINUOUS
 62
    30
 10
-69.942857142857122
 20
-328.72405800000001
 30
0.0
 40
64.0
  1
514
 41
0.9
 72
     1
 11
0.0
 21
-328.72405800000001
 31
0.0
  0
LINE
  5
358
  8
SIZE
  6
CONTINUOUS
 62
    30
 10
-272.0
 20
-9.2410691140912604
 30
0.0
 11
-272.0
 21
-508.92429199999998
 31
0.0
  0
LINE
  5
359
  8
SIZE
  6
CONTINUOUS
 62
    30
 10
272.0
 20
-9.2410691140912604
 30
0.0
 11
272.0
 21
-508.92429199999998
 31
0.0
  0
LINE
  5
35A
  8
SIZE
  6
CONTINUOUS
 62
    30
 10
-260.0
 20
-488.92429199999998
 30
0.0
 11
260.0
 21
-488.92429199999998
 31
0.0
  0
CIRCLE
  5
35B
  8
SIZE
  6
CONTINUOUS
 62
    30
 10
-272.0
 20
-488.92429199999998
 30
0.0
 40
6.0
  0
LINE
  5
35C
  8
SIZE
  6
CONTINUOUS
 62
    30
 10
-272.0
 20
-488.92429199999998
 30
0.0
 11
-260.0
 21
-488.92429199999998
 31
0.0
  0
CIRCLE
  5
35D
  8
SIZE
  6
CONTINUOUS
 62
    30
 10
272.0
 20
-488.92429199999998
 30
0.0
 40
6.0
  0
LINE
  5
35E
  8
SIZE
  6
CONTINUOUS
 62
    30
 10
272.0
 20
-488.92429199999998
 30
0.0
 11
260.0
 21
-488.92429199999998
 31
0.0
  0
TEXT
  5
35F
  8
SIZE
  6
CONTINUOUS
 62
    30
 10
-75.428571428571416
 20
-463.92429199999998
 30
0.0
 40
64.0
  1
544
 41
0.9
 72
     1
 11
0.0
 21
-463.92429199999998
 31
0.0
  0
LINE
  5
360
  8
SIZE
  6
CONTINUOUS
 62
    30
 10
-241.5
 20
-11.0
 30
0.0
 11
-423.57259599999992
 21
-11.0
 31
0.0
  0
LINE
  5
361
  8
SIZE
  6
CONTINUOUS
 62
    30
 10
-241.5
 20
-34.0
 30
0.0
 11
-423.57259599999992
 21
-34.0
 31
0.0
  0
LINE
  5
362
  8
SIZE
  6
CONTINUOUS
 62
    30
 10
-403.57259599999981
 20
-46.0
 30
0.0
 11
-403.57259599999981
 21
-201.2571429999999
 31
0.0
  0
LINE
  5
363
  8
SIZE
  6
CONTINUOUS
 62
    30
 10
-403.57259599999981
 20
-11.0
 30
0.0
 11
-403.57259599999981
 21
-34.0
 31
0.0
  0
CIRCLE
  5
364
  8
SIZE
  6
CONTINUOUS
 62
    30
 10
-403.57259599999981
 20
-11.0
 30
0.0
 40
6.0
  0
LINE
  5
365
  8
SIZE
  6
CONTINUOUS
 62
    30
 10
-403.57259599999981
 20
-11.0
 30
0.0
 11
-403.57259599999981
 21
1.0
 31
0.0
  0
CIRCLE
  5
366
  8
SIZE
  6
CONTINUOUS
 62
    30
 10
-403.57259599999981
 20
-34.0
 30
0.0
 40
6.0
  0
LINE
  5
367
  8
SIZE
  6
CONTINUOUS
 62
    30
 10
-403.57259599999981
 20
-34.0
 30
0.0
 11
-403.57259599999981
 21
-46.0
 31
0.0
  0
TEXT
  5
368
  8
SIZE
  6
CONTINUOUS
 62
    30
 10
-428.57259599999992
 20
-176.2571424285714
 30
0.0
 40
64.0
  1
23
 50
90.0
 41
0.9
 72
     1
 11
-428.57259599999992
 21
-129.62857099999999
 31
0.0
  0
LINE
  5
369
  8
SIZE
  6
CONTINUOUS
 62
    30
 10
-403.25137599999988
 20
-23.0
 30
0.0
 11
-403.25137599999988
 21
-35.0
 31
0.0
  0
LINE
  5
36A
  8
SIZE
  6
CONTINUOUS
 62
    30
 10
-403.25137599999988
 20
-1.645943448086653
 30
0.0
 11
-403.25137599999988
 21
131.59999999999999
 31
0.0
  0
LINE
  5
36B
  8
SIZE
  6
CONTINUOUS
 62
    30
 10
-403.25137599999988
 20
-11.0
 30
0.0
 11
-403.25137599999988
 21
0.0
 31
0.0
  0
CIRCLE
  5
36C
  8
SIZE
  6
CONTINUOUS
 62
    30
 10
-403.25137599999988
 20
-11.0
 30
0.0
 40
6.0
  0
LINE
  5
36D
  8
SIZE
  6
CONTINUOUS
 62
    30
 10
-403.25137599999988
 20
-11.0
 30
0.0
 11
-403.25137599999988
 21
-23.0
 31
0.0
  0
CIRCLE
  5
36E
  8
SIZE
  6
CONTINUOUS
 62
    30
 10
-403.25137599999988
 20
0.0
 30
0.0
 40
6.0
  0
TEXT
  5
36F
  8
SIZE
  6
CONTINUOUS
 62
    30
 10
-428.25137599999988
 20
48.999999999999979
 30
0.0
 40
64.0
  1
11
 50
90.0
 41
0.9
 72
     1
 11
-428.25137599999988
 21
77.799999999999983
 31
0.0
  0
LINE
  5
370
  8
SIZE
  6
CONTINUOUS
 62
    30
 10
-275.77756405858509
 20
0.0
 30
0.0
 11
-559.76498000000004
 21
0.0
 31
0.0
  0
LINE
  5
371
  8
SIZE
  6
CONTINUOUS
 62
    30
 10
-248.4999999999998
 20
250.0
 30
0.0
 11
-559.76498000000004
 21
250.0
 31
0.0
  0
LINE
  5
372
  8
SIZE
  6
CONTINUOUS
 62
    30
 10
-539.76498000000004
 20
12.0
 30
0.0
 11
-539.76498000000004
 21
238.0
 31
0.0
  0
CIRCLE
  5
373
  8
SIZE
  6
CONTINUOUS
 62
    30
 10
-539.76498000000004
 20
0.0
 30
0.0
 40
6.0
  0
LINE
  5
374
  8
SIZE
  6
CONTINUOUS
 62
    30
 10
-539.76498000000004
 20
0.0
 30
0.0
 11
-539.76498000000004
 21
12.0
 31
0.0
  0
CIRCLE
  5
375
  8
SIZE
  6
CONTINUOUS
 62
    30
 10
-539.76498000000004
 20
250.0
 30
0.0
 40
6.0
  0
LINE
  5
376
  8
SIZE
  6
CONTINUOUS
 62
    30
 10
-539.76498000000004
 20
250.0
 30
0.0
 11
-539.76498000000004
 21
238.0
 31
0.0
  0
TEXT
  5
377
  8
SIZE
  6
CONTINUOUS
 62
    30
 10
-564.76498000000004
 20
37.000000142857147
 30
0.0
 40
64.0
  1
250
 50
90.0
 41
0.9
 72
     1
 11
-564.76498000000004
 21
111.057143
 31
0.0
  0
LINE
  5
378
  8
SIZE
  6
CONTINUOUS
 62
    30
 10
-241.5
 20
272.0
 30
0.0
 11
-559.76498000000004
 21
272.0
 31
0.0
  0
LINE
  5
379
  8
SIZE
  6
CONTINUOUS
 62
    30
 10
-241.5
 20
250.0
 30
0.0
 11
-559.76498000000004
 21
250.0
 31
0.0
  0
LINE
  5
37A
  8
SIZE
  6
CONTINUOUS
 62
    30
 10
-539.76498000000004
 20
238.0
 30
0.0
 11
-539.76498000000004
 21
226.0
 31
0.0
  0
LINE
  5
37B
  8
SIZE
  6
CONTINUOUS
 62
    30
 10
-539.76498000000004
 20
284.0
 30
0.0
 11
-539.76498000000004
 21
439.25714299999999
 31
0.0
  0
LINE
  5
37C
  8
SIZE
  6
CONTINUOUS
 62
    30
 10
-539.76498000000004
 20
250.0
 30
0.0
 11
-539.76498000000004
 21
272.0
 31
0.0
  0
CIRCLE
  5
37D
  8
SIZE
  6
CONTINUOUS
 62
    30
 10
-539.76498000000004
 20
250.0
 30
0.0
 40
6.0
  0
LINE
  5
37E
  8
SIZE
  6
CONTINUOUS
 62
    30
 10
-539.76498000000004
 20
250.0
 30
0.0
 11
-539.76498000000004
 21
238.0
 31
0.0
  0
CIRCLE
  5
37F
  8
SIZE
  6
CONTINUOUS
 62
    30
 10
-539.76498000000004
 20
272.0
 30
0.0
 40
6.0
  0
LINE
  5
380
  8
SIZE
  6
CONTINUOUS
 62
    30
 10
-539.76498000000004
 20
272.0
 30
0.0
 11
-539.76498000000004
 21
284.0
 31
0.0
  0
TEXT
  5
381
  8
SIZE
  6
CONTINUOUS
 62
    30
 10
-564.76498000000004
 20
320.99999957142848
 30
0.0
 40
64.0
  1
22
 50
90.0
 41
0.9
 72
     1
 11
-564.76498000000004
 21
367.62857100000002
 31
0.0
  0
LINE
  5
382
  8
SIZE
  6
CONTINUOUS
 62
    30
 10
-228.5
 20
259.62638336916768
 30
0.0
 11
-228.5
 21
501.15138155274411
 31
0.0
  0
LINE
  5
383
  8
SIZE
  6
CONTINUOUS
 62
    30
 10
228.5
 20
256.58833198656561
 30
0.0
 11
228.5
 21
499.63235586215052
 31
0.0
  0
LINE
  5
384
  8
SIZE
  6
CONTINUOUS
 62
    30
 10
-216.5
 20
476.84697887474738
 30
0.0
 11
216.5
 21
476.84697887474738
 31
0.0
  0
CIRCLE
  5
385
  8
SIZE
  6
CONTINUOUS
 62
    30
 10
-228.5
 20
476.84697887474738
 30
0.0
 40
6.0
  0
LINE
  5
386
  8
SIZE
  6
CONTINUOUS
 62
    30
 10
-228.5
 20
476.84697887474738
 30
0.0
 11
-216.5
 21
476.84697887474738
 31
0.0
  0
CIRCLE
  5
387
  8
SIZE
  6
CONTINUOUS
 62
    30
 10
228.5
 20
476.84697887474738
 30
0.0
 40
6.0
  0
LINE
  5
388
  8
SIZE
  6
CONTINUOUS
 62
    30
 10
228.5
 20
476.84697887474738
 30
0.0
 11
216.5
 21
476.84697887474738
 31
0.0
  0
TEXT
  5
389
  8
SIZE
  6
CONTINUOUS
 62
    30
 10
-180.20571428571421
 20
518.60888387474722
 30
0.0
 40
64.0
  1
457(外寸)
 41
0.9
 72
     1
 11
0.0
 21
518.60888387474722
 31
0.0
  0
TEXT
  5
38A
  8
ETC
  6
CONTINUOUS
 62
    61
 10
371.74444887554171
 20
405.59915599999988
 30
0.0
 40
50.0
  1
システム部材
 41
0.9
  0
TEXT
  5
38B
  8
ETC
  6
CONTINUOUS
 62
    61
 10
376.15730987554173
 20
472.386573
 30
0.0
 40
50.0
  1
PS-35UWD_6
 41
0.9
  0
TEXT
  5
38C
  8
ETC
  6
CONTINUOUS
 62
    61
 10
485.01226569702141
 20
343.81297627290269
 30
0.0
 40
40.0
  1
PS-35UWD
 41
0.9
  0
LINE
  5
38D
  8
NOTE
  6
CONTINUOUS
 62
     4
 39
50.0
 10
-275.77756405858509
 20
0.0
 30
0.0
 11
-237.78602154669429
 21
0.0
 31
0.0
  0
CIRCLE
  5
38E
  8
SIZE
  6
CONTINUOUS
 62
    30
 39
50.0
 10
-217.0
 20
372.75888804183188
 30
0.0
 40
6.0
  0
CIRCLE
  5
38F
  8
SIZE
  6
CONTINUOUS
 62
    30
 39
50.0
 10
217.0
 20
372.75888804183188
 30
0.0
 40
6.0
  0
TEXT
  5
390
  8
NOTE
  6
CONTINUOUS
 62
     4
 10
385.43633333384417
 20
-333.77953498101311
 30
0.0
 40
64.0
  1
4×M8ボルト
 41
0.9
  0
LINE
  5
391
  8
SIZE
  6
CONTINUOUS
 10
-217.0
 20
302.0
 30
0.0
 11
-217.0
 21
392.75888804183199
 31
0.0
  0
LINE
  5
392
  8
SIZE
  6
CONTINUOUS
 10
217.0
 20
302.0
 30
0.0
 11
217.0
 21
392.75888804183199
 31
0.0
  0
LINE
  5
393
  8
SIZE
  6
CONTINUOUS
 10
-217.0
 20
372.75888804183188
 30
0.0
 11
217.0
 21
372.75888804183188
 31
0.0
  0
TEXT
  5
394
  8
SIZE
  6
CONTINUOUS
 62
    30
 10
-75.428571428571402
 20
392.75888804183199
 30
0.0
 40
64.0
  1
434
 41
0.9
  0
LINE
  5
395
  8
NOTE
  6
CONTINUOUS
 62
     4
 10
235.59008684499801
 20
-69.417632206225008
 30
0.0
 11
383.91667056684571
 21
-352.0078337726967
 31
0.0
1001
ACAD
1000
DSTYLE
1002
{
1070
    41
1040
40.0
1070
    42
1040
10.0
1070
    43
1040
200.0
1070
    44
1040
20.0
1070
    73
1070
     0
1070
    74
1070
     0
1070
    77
1070
     0
1070
    78
1070
     8
1070
   140
1040
64.0
1070
   147
1040
20.0
1070
   172
1070
     1
1070
   174
1070
     1
1070
   176
1070
   256
1070
   177
1070
   256
1070
   178
1070
   256
1070
   275
1070
     0
1070
   279
1070
     0
1070
   284
1070
     0
1070
   285
1070
     0
1070
   286
1070
     0
1070
   341
1005
1BF
1070
   342
1005
1BC
1070
   343
1005
1BC
1070
   344
1005
12F
1002
}
  0
LINE
  5
396
  8
NOTE
  6
CONTINUOUS
 62
     4
 10
383.91667056684571
 20
-352.0078337726967
 30
0.0
 11
823.09890863538544
 21
-352.0078337726967
 31
0.0
1001
ACAD
1000
DSTYLE
1002
{
1070
    41
1040
40.0
1070
    42
1040
10.0
1070
    43
1040
200.0
1070
    44
1040
20.0
1070
    73
1070
     0
1070
    74
1070
     0
1070
    77
1070
     0
1070
    78
1070
     8
1070
   140
1040
64.0
1070
   147
1040
20.0
1070
   172
1070
     1
1070
   174
1070
     1
1070
   176
1070
   256
1070
   177
1070
   256
1070
   178
1070
   256
1070
   275
1070
     0
1070
   279
1070
     0
1070
   284
1070
     0
1070
   285
1070
     0
1070
   286
1070
     0
1070
   341
1005
1BF
1070
   342
1005
1BC
1070
   343
1005
1BC
1070
   344
1005
12F
1002
}
  0
LINE
  5
397
  8
NOTE
  6
BYBLOCK
 62
     4
 10
226.09996098362211
 20
-74.3988309183719
 30
0.0
 11
217.0
 21
-34.0
 31
0.0
  0
LINE
  5
398
  8
NOTE
  6
BYBLOCK
 62
     4
 10
217.0
 20
-34.0
 30
0.0
 11
245.080212706374
 21
-64.436433494078102
 31
0.0
  0
LINE
  5
399
  8
NOTE
  6
BYBLOCK
 62
     4
 10
217.0
 20
-34.0
 30
0.0
 11
235.59008684499801
 21
-69.417632206225008
 31
0.0
  0
ENDSEC
  0
EOF
